  0
SECTION
  2
HEADER
  9
$ACADVER
  1
AC1015
  9
$ACADMAINTVER
 70
    20
  9
$DWGCODEPAGE
  3
ANSI_1252
  9
$INSBASE
 10
0.0
 20
0.0
 30
0.0
  9
$EXTMIN
 10
-17.97017200000001
 20
-32.59186400000002
 30
0.0
  9
$EXTMAX
 10
34.795921
 20
28.689165
 30
0.0
  9
$LIMMIN
 10
0.0
 20
0.0
  9
$LIMMAX
 10
12.0
 20
9.0
  9
$ORTHOMODE
 70
     0
  9
$REGENMODE
 70
     1
  9
$FILLMODE
 70
     1
  9
$QTEXTMODE
 70
     0
  9
$MIRRTEXT
 70
     1
  9
$LTSCALE
 40
1.0
  9
$ATTMODE
 70
     1
  9
$TEXTSIZE
 40
3.0
  9
$TRACEWID
 40
10.0
  9
$TEXTSTYLE
  7
SANDVIK_STYLE
  9
$CLAYER
  8
1
  9
$CELTYPE
  6
ByLayer
  9
$CECOLOR
 62
   256
  9
$CELTSCALE
 40
1.0
  9
$DISPSILH
 70
     0
  9
$DIMSCALE
 40
1.0
  9
$DIMASZ
 40
0.18
  9
$DIMEXO
 40
0.0625
  9
$DIMDLI
 40
0.38
  9
$DIMRND
 40
0.0
  9
$DIMDLE
 40
0.0
  9
$DIMEXE
 40
0.18
  9
$DIMTP
 40
0.0
  9
$DIMTM
 40
0.0
  9
$DIMTXT
 40
0.18
  9
$DIMCEN
 40
0.09
  9
$DIMTSZ
 40
0.0
  9
$DIMTOL
 70
     0
  9
$DIMLIM
 70
     0
  9
$DIMTIH
 70
     1
  9
$DIMTOH
 70
     1
  9
$DIMSE1
 70
     0
  9
$DIMSE2
 70
     0
  9
$DIMTAD
 70
     0
  9
$DIMZIN
 70
     0
  9
$DIMBLK
  1

  9
$DIMASO
 70
     1
  9
$DIMSHO
 70
     1
  9
$DIMPOST
  1

  9
$DIMAPOST
  1

  9
$DIMALT
 70
     0
  9
$DIMALTD
 70
     2
  9
$DIMALTF
 40
25.4
  9
$DIMLFAC
 40
1.0
  9
$DIMTOFL
 70
     0
  9
$DIMTVP
 40
0.0
  9
$DIMTIX
 70
     0
  9
$DIMSOXD
 70
     0
  9
$DIMSAH
 70
     0
  9
$DIMBLK1
  1

  9
$DIMBLK2
  1

  9
$DIMSTYLE
  2
STANDARD
  9
$DIMCLRD
 70
     0
  9
$DIMCLRE
 70
     0
  9
$DIMCLRT
 70
     0
  9
$DIMTFAC
 40
1.0
  9
$DIMGAP
 40
0.09
  9
$DIMJUST
 70
     0
  9
$DIMSD1
 70
     0
  9
$DIMSD2
 70
     0
  9
$DIMTOLJ
 70
     1
  9
$DIMTZIN
 70
     0
  9
$DIMALTZ
 70
     0
  9
$DIMALTTZ
 70
     0
  9
$DIMUPT
 70
     0
  9
$DIMDEC
 70
     4
  9
$DIMTDEC
 70
     4
  9
$DIMALTU
 70
     2
  9
$DIMALTTD
 70
     2
  9
$DIMTXSTY
  7
STANDARD
  9
$DIMAUNIT
 70
     0
  9
$DIMADEC
 70
     0
  9
$DIMALTRND
 40
0.0
  9
$DIMAZIN
 70
     0
  9
$DIMDSEP
 70
    46
  9
$DIMATFIT
 70
     3
  9
$DIMFRAC
 70
     0
  9
$DIMLDRBLK
  1

  9
$DIMLUNIT
 70
     2
  9
$DIMLWD
 70
    -2
  9
$DIMLWE
 70
    -2
  9
$DIMTMOVE
 70
     0
  9
$LUNITS
 70
     2
  9
$LUPREC
 70
     2
  9
$SKETCHINC
 40
0.0
  9
$FILLETRAD
 40
0.0
  9
$AUNITS
 70
     0
  9
$AUPREC
 70
     2
  9
$MENU
  1
acad
  9
$ELEVATION
 40
0.0
  9
$PELEVATION
 40
0.0
  9
$THICKNESS
 40
0.0
  9
$LIMCHECK
 70
     0
  9
$CHAMFERA
 40
0.0
  9
$CHAMFERB
 40
0.0
  9
$CHAMFERC
 40
0.0
  9
$CHAMFERD
 40
0.0
  9
$SKPOLY
 70
     0
  9
$TDCREATE
 40
2456818.317941829
  9
$TDUCREATE
 40
2456818.234608495
  9
$TDUPDATE
 40
2456818.317946100
  9
$TDUUPDATE
 40
2456818.234612766
  9
$TDINDWG
 40
0.0000050000
  9
$TDUSRTIMER
 40
0.0000050000
  9
$USRTIMER
 70
     1
  9
$ANGBASE
 50
0.0
  9
$ANGDIR
 70
     0
  9
$PDMODE
 70
     0
  9
$PDSIZE
 40
0.0
  9
$PLINEWID
 40
0.0
  9
$SPLFRAME
 70
     0
  9
$SPLINETYPE
 70
     6
  9
$SPLINESEGS
 70
     8
  9
$HANDSEED
  5
56B
  9
$SURFTAB1
 70
     6
  9
$SURFTAB2
 70
     6
  9
$SURFTYPE
 70
     6
  9
$SURFU
 70
     6
  9
$SURFV
 70
     6
  9
$UCSBASE
  2

  9
$UCSNAME
  2

  9
$UCSORG
 10
0.0
 20
0.0
 30
0.0
  9
$UCSXDIR
 10
1.0
 20
0.0
 30
0.0
  9
$UCSYDIR
 10
0.0
 20
1.0
 30
0.0
  9
$UCSORTHOREF
  2

  9
$UCSORTHOVIEW
 70
     0
  9
$UCSORGTOP
 10
0.0
 20
0.0
 30
0.0
  9
$UCSORGBOTTOM
 10
0.0
 20
0.0
 30
0.0
  9
$UCSORGLEFT
 10
0.0
 20
0.0
 30
0.0
  9
$UCSORGRIGHT
 10
0.0
 20
0.0
 30
0.0
  9
$UCSORGFRONT
 10
0.0
 20
0.0
 30
0.0
  9
$UCSORGBACK
 10
0.0
 20
0.0
 30
0.0
  9
$PUCSBASE
  2

  9
$PUCSNAME
  2

  9
$PUCSORG
 10
0.0
 20
0.0
 30
0.0
  9
$PUCSXDIR
 10
1.0
 20
0.0
 30
0.0
  9
$PUCSYDIR
 10
0.0
 20
1.0
 30
0.0
  9
$PUCSORTHOREF
  2

  9
$PUCSORTHOVIEW
 70
     0
  9
$PUCSORGTOP
 10
0.0
 20
0.0
 30
0.0
  9
$PUCSORGBOTTOM
 10
0.0
 20
0.0
 30
0.0
  9
$PUCSORGLEFT
 10
0.0
 20
0.0
 30
0.0
  9
$PUCSORGRIGHT
 10
0.0
 20
0.0
 30
0.0
  9
$PUCSORGFRONT
 10
0.0
 20
0.0
 30
0.0
  9
$PUCSORGBACK
 10
0.0
 20
0.0
 30
0.0
  9
$USERI1
 70
     0
  9
$USERI2
 70
     0
  9
$USERI3
 70
     0
  9
$USERI4
 70
     0
  9
$USERI5
 70
     0
  9
$USERR1
 40
0.0
  9
$USERR2
 40
0.0
  9
$USERR3
 40
0.0
  9
$USERR4
 40
0.0
  9
$USERR5
 40
0.0
  9
$WORLDVIEW
 70
     1
  9
$SHADEDGE
 70
     3
  9
$SHADEDIF
 70
    70
  9
$TILEMODE
 70
     1
  9
$MAXACTVP
 70
    16
  9
$PINSBASE
 10
0.0
 20
0.0
 30
0.0
  9
$PLIMCHECK
 70
     0
  9
$PEXTMIN
 10
1.000000000000000E+20
 20
1.000000000000000E+20
 30
1.000000000000000E+20
  9
$PEXTMAX
 10
-1.000000000000000E+20
 20
-1.000000000000000E+20
 30
-1.000000000000000E+20
  9
$PLIMMIN
 10
0.0
 20
0.0
  9
$PLIMMAX
 10
12.0
 20
9.0
  9
$UNITMODE
 70
     0
  9
$VISRETAIN
 70
     0
  9
$PLINEGEN
 70
     0
  9
$PSLTSCALE
 70
     1
  9
$TREEDEPTH
 70
  3020
  9
$CMLSTYLE
  2
Standard
  9
$CMLJUST
 70
     0
  9
$CMLSCALE
 40
1.0
  9
$PROXYGRAPHICS
 70
     1
  9
$MEASUREMENT
 70
     0
  9
$CELWEIGHT
370
    -1
  9
$ENDCAPS
280
     0
  9
$JOINSTYLE
280
     0
  9
$LWDISPLAY
290
     0
  9
$INSUNITS
 70
     0
  9
$HYPERLINKBASE
  1

  9
$STYLESHEET
  1

  9
$XEDIT
290
     1
  9
$CEPSNTYPE
380
     0
  9
$PSTYLEMODE
290
     1
  9
$FINGERPRINTGUID
  2
{939A6F6E-61DD-4C7C-B905-4210E61D26EA}
  9
$VERSIONGUID
  2
{5D963AB2-678A-423A-8902-2A912E3ED647}
  9
$EXTNAMES
290
     1
  9
$PSVPSCALE
 40
0.0
  9
$OLESTARTUP
290
     0
  0
ENDSEC
  0
SECTION
  2
CLASSES
  0
CLASS
  1
ACDBDICTIONARYWDFLT
  2
AcDbDictionaryWithDefault
  3
ObjectDBX Classes
 90
        0
280
     0
281
     0
  0
CLASS
  1
MATERIAL
  2
AcDbMaterial
  3
ObjectDBX Classes
 90
     1153
280
     0
281
     0
  0
CLASS
  1
VISUALSTYLE
  2
AcDbVisualStyle
  3
ObjectDBX Classes
 90
     4095
280
     0
281
     0
  0
CLASS
  1
SCALE
  2
AcDbScale
  3
ObjectDBX Classes
 90
     1153
280
     0
281
     0
  0
CLASS
  1
TABLESTYLE
  2
AcDbTableStyle
  3
ObjectDBX Classes
 90
     4095
280
     0
281
     0
  0
CLASS
  1
MLEADERSTYLE
  2
AcDbMLeaderStyle
  3
ACDB_MLEADERSTYLE_CLASS
 90
     4095
280
     0
281
     0
  0
CLASS
  1
ACDBSECTIONVIEWSTYLE
  2
AcDbSectionViewStyle
  3
ObjectDBX Classes
 90
     1025
280
     0
281
     0
  0
CLASS
  1
ACDBDETAILVIEWSTYLE
  2
AcDbDetailViewStyle
  3
ObjectDBX Classes
 90
     1025
280
     0
281
     0
  0
CLASS
  1
EXACXREFPANELOBJECT
  2
ExAcXREFPanelObject
  3
EXAC_ESW
 90
     1025
280
     0
281
     0
  0
CLASS
  1
NPOCOLLECTION
  2
AcDbImpNonPersistentObjectsCollection
  3
ObjectDBX Classes
 90
     1153
280
     0
281
     0
  0
CLASS
  1
DICTIONARYVAR
  2
AcDbDictionaryVar
  3
ObjectDBX Classes
 90
        0
280
     0
281
     0
  0
CLASS
  1
CELLSTYLEMAP
  2
AcDbCellStyleMap
  3
ObjectDBX Classes
 90
     1152
280
     0
281
     0
  0
CLASS
  1
ACDBPLACEHOLDER
  2
AcDbPlaceHolder
  3
ObjectDBX Classes
 90
        0
280
     0
281
     0
  0
CLASS
  1
LAYOUT
  2
AcDbLayout
  3
ObjectDBX Classes
 90
        0
280
     0
281
     0
  0
ENDSEC
  0
SECTION
  2
TABLES
  0
TABLE
  2
VPORT
  5
439
330
0
100
AcDbSymbolTable
 70
     1
  0
VPORT
  5
4D0
330
439
100
AcDbSymbolTableRecord
100
AcDbViewportTableRecord
  2
*Active
 70
     0
 10
0.0
 20
0.0
 11
1.0
 21
1.0
 12
8.412874499999993
 22
-1.951349500000006
 13
0.0
 23
0.0
 14
1.0
 24
1.0
 15
0.0
 25
0.0
 16
0.0
 26
0.0
 36
1.0
 17
0.0
 27
0.0
 37
0.0
 40
68.57871666400852
 41
2.2
 42
50.0
 43
0.0
 44
0.0
 50
0.0
 51
0.0
 71
     0
 72
   100
 73
     1
 74
     1
 75
     0
 76
     0
 77
     0
 78
     0
281
     0
 65
     1
110
0.0
120
0.0
130
0.0
111
1.0
121
0.0
131
0.0
112
0.0
122
1.0
132
0.0
 79
     0
146
0.0
1001
ACAD_NAV_VCDISPLAY
1070
     3
  0
ENDTAB
  0
TABLE
  2
LTYPE
  5
436
330
0
100
AcDbSymbolTable
 70
     4
  0
LTYPE
  5
48B
330
436
100
AcDbSymbolTableRecord
100
AcDbLinetypeTableRecord
  2
ByBlock
 70
     0
  3

 72
    65
 73
     0
 40
0.0
  0
LTYPE
  5
48C
330
436
100
AcDbSymbolTableRecord
100
AcDbLinetypeTableRecord
  2
ByLayer
 70
     0
  3

 72
    65
 73
     0
 40
0.0
  0
LTYPE
  5
48D
330
436
100
AcDbSymbolTableRecord
100
AcDbLinetypeTableRecord
  2
CONTINUOUS
 70
     0
  3
Solid line
 72
    65
 73
     0
 40
0.0
  0
LTYPE
  5
499
330
436
100
AcDbSymbolTableRecord
100
AcDbLinetypeTableRecord
  2
PHANTOM2
 70
     0
  3
Phantom (.5x) ___ _ _ ___ _ _ ___ _ _ ___ _ _
 72
    65
 73
     6
 40
1.25
 49
0.625
 74
     0
 49
-0.125
 74
     0
 49
0.125
 74
     0
 49
-0.125
 74
     0
 49
0.125
 74
     0
 49
-0.125
 74
     0
  0
LTYPE
  5
4A7
330
436
100
AcDbSymbolTableRecord
100
AcDbLinetypeTableRecord
  2
CENTER
 70
     0
  3
____ _ ____ _ ____ _ ____ _ ____ _ ____ _ ____
 72
    65
 73
     4
 40
5.059897
 49
3.162434999999999
 74
     0
 49
-0.6324870000000001
 74
     0
 49
0.6324870000000001
 74
     0
 49
-0.6324870000000001
 74
     0
  0
LTYPE
  5
4A8
330
436
100
AcDbSymbolTableRecord
100
AcDbLinetypeTableRecord
  2
DASHED
 70
     0
  3
__ __ __ __ __ __ __ __ __ __ __ __ __ __ __ __
 72
    65
 73
     2
 40
7.589844999999999
 49
5.059897
 74
     0
 49
-2.529948
 74
     0
  0
ENDTAB
  0
TABLE
  2
LAYER
  5
433
330
0
100
AcDbSymbolTable
 70
    38
  0
LAYER
  5
485
102
{ACAD_XDICTIONARY
360
4D7
102
}
330
433
100
AcDbSymbolTableRecord
100
AcDbLayerTableRecord
  2
0
 70
     0
 62
     7
  6
CONTINUOUS
370
    -3
390
440
  0
LAYER
  5
4A5
102
{ACAD_XDICTIONARY
360
4D9
102
}
330
433
100
AcDbSymbolTableRecord
100
AcDbLayerTableRecord
  2
1
 70
     0
 62
     4
  6
CONTINUOUS
370
    -3
390
440
  0
LAYER
  5
4A9
102
{ACAD_XDICTIONARY
360
4DB
102
}
330
433
100
AcDbSymbolTableRecord
100
AcDbLayerTableRecord
  2
61
 70
     0
 62
     5
  6
CONTINUOUS
370
    -3
390
440
  0
LAYER
  5
4AA
102
{ACAD_XDICTIONARY
360
4DD
102
}
330
433
100
AcDbSymbolTableRecord
100
AcDbLayerTableRecord
  2
62
 70
     0
 62
    -5
  6
CONTINUOUS
370
    -3
390
440
  0
LAYER
  5
4AB
102
{ACAD_XDICTIONARY
360
4DF
102
}
330
433
100
AcDbSymbolTableRecord
100
AcDbLayerTableRecord
  2
63
 70
     0
 62
    -5
  6
CONTINUOUS
370
    -3
390
440
  0
LAYER
  5
4AC
102
{ACAD_XDICTIONARY
360
4E1
102
}
330
433
100
AcDbSymbolTableRecord
100
AcDbLayerTableRecord
  2
64
 70
     0
 62
    -5
  6
CONTINUOUS
370
    -3
390
440
  0
LAYER
  5
4AD
102
{ACAD_XDICTIONARY
360
4E3
102
}
330
433
100
AcDbSymbolTableRecord
100
AcDbLayerTableRecord
  2
65
 70
     0
 62
    -5
  6
CONTINUOUS
370
    -3
390
440
  0
LAYER
  5
4AE
102
{ACAD_XDICTIONARY
360
4E5
102
}
330
433
100
AcDbSymbolTableRecord
100
AcDbLayerTableRecord
  2
66
 70
     0
 62
    -5
  6
CONTINUOUS
370
    -3
390
440
  0
LAYER
  5
4AF
102
{ACAD_XDICTIONARY
360
4E7
102
}
330
433
100
AcDbSymbolTableRecord
100
AcDbLayerTableRecord
  2
67
 70
     0
 62
    -5
  6
CONTINUOUS
370
    -3
390
440
  0
LAYER
  5
4B0
102
{ACAD_XDICTIONARY
360
4E9
102
}
330
433
100
AcDbSymbolTableRecord
100
AcDbLayerTableRecord
  2
68
 70
     0
 62
    -5
  6
CONTINUOUS
370
    -3
390
440
  0
LAYER
  5
4B1
102
{ACAD_XDICTIONARY
360
4EB
102
}
330
433
100
AcDbSymbolTableRecord
100
AcDbLayerTableRecord
  2
69
 70
     0
 62
    -5
  6
CONTINUOUS
370
    -3
390
440
  0
LAYER
  5
4B2
102
{ACAD_XDICTIONARY
360
4ED
102
}
330
433
100
AcDbSymbolTableRecord
100
AcDbLayerTableRecord
  2
70
 70
     0
 62
     5
  6
CONTINUOUS
370
    -3
390
440
  0
LAYER
  5
4B3
102
{ACAD_XDICTIONARY
360
4EF
102
}
330
433
100
AcDbSymbolTableRecord
100
AcDbLayerTableRecord
  2
2
 70
     0
 62
     7
  6
CONTINUOUS
370
    -3
390
440
  0
LAYER
  5
4B4
102
{ACAD_XDICTIONARY
360
4F1
102
}
330
433
100
AcDbSymbolTableRecord
100
AcDbLayerTableRecord
  2
3
 70
     0
 62
     1
  6
DASHED
370
    -3
390
440
  0
LAYER
  5
4B5
102
{ACAD_XDICTIONARY
360
4F3
102
}
330
433
100
AcDbSymbolTableRecord
100
AcDbLayerTableRecord
  2
4
 70
     0
 62
    -2
  6
CENTER
370
    -3
390
440
  0
LAYER
  5
4B6
102
{ACAD_XDICTIONARY
360
4F5
102
}
330
433
100
AcDbSymbolTableRecord
100
AcDbLayerTableRecord
  2
5
 70
     0
 62
    -7
  6
CONTINUOUS
370
    -3
390
440
  0
LAYER
  5
4B7
102
{ACAD_XDICTIONARY
360
4F7
102
}
330
433
100
AcDbSymbolTableRecord
100
AcDbLayerTableRecord
  2
SK1
 70
     0
 62
     4
  6
CONTINUOUS
370
    -3
390
440
  0
LAYER
  5
4B8
102
{ACAD_XDICTIONARY
360
4F9
102
}
330
433
100
AcDbSymbolTableRecord
100
AcDbLayerTableRecord
  2
6
 70
     0
 62
     5
  6
CONTINUOUS
370
    -3
390
440
  0
LAYER
  5
4B9
102
{ACAD_XDICTIONARY
360
4FB
102
}
330
433
100
AcDbSymbolTableRecord
100
AcDbLayerTableRecord
  2
SK2
 70
     0
 62
     7
  6
CONTINUOUS
370
    -3
390
440
  0
LAYER
  5
4BA
102
{ACAD_XDICTIONARY
360
4FD
102
}
330
433
100
AcDbSymbolTableRecord
100
AcDbLayerTableRecord
  2
SK3
 70
     0
 62
     1
  6
DASHED
370
    -3
390
440
  0
LAYER
  5
4BB
102
{ACAD_XDICTIONARY
360
4FF
102
}
330
433
100
AcDbSymbolTableRecord
100
AcDbLayerTableRecord
  2
SK4
 70
     0
 62
     2
  6
CENTER
370
    -3
390
440
  0
LAYER
  5
4BC
102
{ACAD_XDICTIONARY
360
501
102
}
330
433
100
AcDbSymbolTableRecord
100
AcDbLayerTableRecord
  2
CUT
 70
     0
 62
    -1
  6
CONTINUOUS
370
    -3
390
440
  0
LAYER
  5
4BD
102
{ACAD_XDICTIONARY
360
503
102
}
330
433
100
AcDbSymbolTableRecord
100
AcDbLayerTableRecord
  2
SK6
 70
     0
 62
     5
  6
CONTINUOUS
370
    -3
390
440
  0
LAYER
  5
4BE
102
{ACAD_XDICTIONARY
360
505
102
}
330
433
100
AcDbSymbolTableRecord
100
AcDbLayerTableRecord
  2
80
 70
     0
 62
    -2
  6
CENTER
370
    -3
390
440
  0
LAYER
  5
4BF
102
{ACAD_XDICTIONARY
360
507
102
}
330
433
100
AcDbSymbolTableRecord
100
AcDbLayerTableRecord
  2
81
 70
     0
 62
    -2
  6
CENTER
370
    -3
390
440
  0
LAYER
  5
4C0
102
{ACAD_XDICTIONARY
360
509
102
}
330
433
100
AcDbSymbolTableRecord
100
AcDbLayerTableRecord
  2
82
 70
     0
 62
    -2
  6
CENTER
370
    -3
390
440
  0
LAYER
  5
4C1
102
{ACAD_XDICTIONARY
360
50B
102
}
330
433
100
AcDbSymbolTableRecord
100
AcDbLayerTableRecord
  2
NOCUT
 70
     0
 62
     7
  6
CONTINUOUS
370
    -3
390
440
  0
LAYER
  5
4C2
102
{ACAD_XDICTIONARY
360
50D
102
}
330
433
100
AcDbSymbolTableRecord
100
AcDbLayerTableRecord
  2
50
 70
     0
 62
    -7
  6
CONTINUOUS
370
    -3
390
440
  0
LAYER
  5
4C3
102
{ACAD_XDICTIONARY
360
50F
102
}
330
433
100
AcDbSymbolTableRecord
100
AcDbLayerTableRecord
  2
51
 70
     0
 62
     7
  6
CONTINUOUS
370
    -3
390
440
  0
LAYER
  5
4C4
102
{ACAD_XDICTIONARY
360
511
102
}
330
433
100
AcDbSymbolTableRecord
100
AcDbLayerTableRecord
  2
52
 70
     0
 62
    -7
  6
CONTINUOUS
370
    -3
390
440
  0
LAYER
  5
4C5
102
{ACAD_XDICTIONARY
360
513
102
}
330
433
100
AcDbSymbolTableRecord
100
AcDbLayerTableRecord
  2
53
 70
     0
 62
    -7
  6
CONTINUOUS
370
    -3
390
440
  0
LAYER
  5
4C6
102
{ACAD_XDICTIONARY
360
515
102
}
330
433
100
AcDbSymbolTableRecord
100
AcDbLayerTableRecord
  2
54
 70
     0
 62
    -7
  6
CONTINUOUS
370
    -3
390
440
  0
LAYER
  5
4C7
102
{ACAD_XDICTIONARY
360
517
102
}
330
433
100
AcDbSymbolTableRecord
100
AcDbLayerTableRecord
  2
55
 70
     0
 62
    -7
  6
CONTINUOUS
370
    -3
390
440
  0
LAYER
  5
4C8
102
{ACAD_XDICTIONARY
360
519
102
}
330
433
100
AcDbSymbolTableRecord
100
AcDbLayerTableRecord
  2
56
 70
     0
 62
    -7
  6
CONTINUOUS
370
    -3
390
440
  0
LAYER
  5
4C9
102
{ACAD_XDICTIONARY
360
51B
102
}
330
433
100
AcDbSymbolTableRecord
100
AcDbLayerTableRecord
  2
57
 70
     0
 62
    -7
  6
CONTINUOUS
370
    -3
390
440
  0
LAYER
  5
4CA
102
{ACAD_XDICTIONARY
360
51D
102
}
330
433
100
AcDbSymbolTableRecord
100
AcDbLayerTableRecord
  2
58
 70
     0
 62
    -7
  6
CONTINUOUS
370
    -3
390
440
  0
LAYER
  5
4CB
102
{ACAD_XDICTIONARY
360
51F
102
}
330
433
100
AcDbSymbolTableRecord
100
AcDbLayerTableRecord
  2
2L
 70
     0
 62
     7
  6
CONTINUOUS
370
    -3
390
440
  0
LAYER
  5
4CC
102
{ACAD_XDICTIONARY
360
521
102
}
330
433
100
AcDbSymbolTableRecord
100
AcDbLayerTableRecord
  2
59
 70
     0
 62
    -7
  6
CONTINUOUS
370
    -3
390
440
  0
ENDTAB
  0
TABLE
  2
STYLE
  5
434
330
0
100
AcDbSymbolTable
 70
     3
  0
STYLE
  5
486
330
434
100
AcDbSymbolTableRecord
100
AcDbTextStyleTableRecord
  2
STANDARD
 70
     0
 40
0.0
 41
1.0
 50
0.0
 71
     0
 42
4.5
  3
simplex.shx
  4

  0
STYLE
  5
48A
330
434
100
AcDbSymbolTableRecord
100
AcDbTextStyleTableRecord
  2
Annotative
 70
     0
 40
0.0
 41
1.0
 50
0.0
 71
     0
 42
0.2
  3
txt
  4

1001
AcadAnnotative
1000
AnnotativeData
1002
{
1070
     1
1070
     1
1002
}
  0
STYLE
  5
4A6
330
434
100
AcDbSymbolTableRecord
100
AcDbTextStyleTableRecord
  2
SANDVIK_STYLE
 70
     0
 40
3.0
 41
1.0
 50
0.0
 71
     0
 42
3.0
  3
simplex.shx
  4

  0
ENDTAB
  0
TABLE
  2
VIEW
  5
437
330
0
100
AcDbSymbolTable
 70
     0
  0
ENDTAB
  0
TABLE
  2
UCS
  5
438
330
0
100
AcDbSymbolTable
 70
     0
  0
ENDTAB
  0
TABLE
  2
APPID
  5
43A
330
0
100
AcDbSymbolTable
 70
     4
  0
APPID
  5
487
330
43A
100
AcDbSymbolTableRecord
100
AcDbRegAppTableRecord
  2
ACAD
 70
     0
  0
APPID
  5
48E
330
43A
100
AcDbSymbolTableRecord
100
AcDbRegAppTableRecord
  2
AcadAnnotative
 70
     0
  0
APPID
  5
52D
330
43A
100
AcDbSymbolTableRecord
100
AcDbRegAppTableRecord
  2
ACAD_NAV_VCDISPLAY
 70
     0
  0
APPID
  5
566
330
43A
100
AcDbSymbolTableRecord
100
AcDbRegAppTableRecord
  2
ACAD_MLEADERVER
 70
     0
  0
ENDTAB
  0
TABLE
  2
DIMSTYLE
  5
43B
330
0
100
AcDbSymbolTable
 70
     3
100
AcDbDimStyleTable
 71
     0
  0
DIMSTYLE
105
488
330
43B
100
AcDbSymbolTableRecord
100
AcDbDimStyleTableRecord
  2
STANDARD
 70
     0
  4
 
 41
3.0
 42
2.5
 43
10.0
 44
2.5
 46
1.25
 73
     0
 74
     0
140
3.0
141
-3.0
143
0.039
145
1.5
146
0.75
147
1.5
271
     2
272
     2
279
     2
340
4A6
  0
DIMSTYLE
105
489
330
43B
100
AcDbSymbolTableRecord
100
AcDbDimStyleTableRecord
  2
Annotative
 70
     0
340
486
1001
AcadAnnotative
1000
AnnotativeData
1002
{
1070
     1
1070
     1
1002
}
  0
DIMSTYLE
105
4CD
330
43B
100
AcDbSymbolTableRecord
100
AcDbDimStyleTableRecord
  2
SANDVIK_DIM
 70
     0
  4
 
 40
0.0
 41
4.57
 42
0.0
 44
5.0
 73
     0
 74
     0
 77
     1
 78
     8
140
4.5
147
2.299999999999999
176
   256
177
   256
178
   256
271
     2
272
     2
279
     2
340
4A6
  0
ENDTAB
  0
TABLE
  2
BLOCK_RECORD
  5
432
330
0
100
AcDbSymbolTable
 70
     2
  0
BLOCK_RECORD
  5
4A1
330
432
100
AcDbSymbolTableRecord
100
AcDbBlockTableRecord
  2
*Model_Space
340
4A4
  0
BLOCK_RECORD
  5
49D
330
432
100
AcDbSymbolTableRecord
100
AcDbBlockTableRecord
  2
*Paper_Space
340
4A0
  0
BLOCK_RECORD
  5
4D1
330
432
100
AcDbSymbolTableRecord
100
AcDbBlockTableRecord
  2
*D0
340
0
102
{BLKREFS
331
3CF
102
}
  0
BLOCK_RECORD
  5
4D2
330
432
100
AcDbSymbolTableRecord
100
AcDbBlockTableRecord
  2
*D1
340
0
102
{BLKREFS
331
3D1
102
}
  0
ENDTAB
  0
ENDSEC
  0
SECTION
  2
BLOCKS
  0
BLOCK
  5
4A2
330
4A1
100
AcDbEntity
  8
0
100
AcDbBlockBegin
  2
*Model_Space
 70
     0
 10
0.0
 20
0.0
 30
0.0
  3
*Model_Space
  1

  0
ENDBLK
  5
4A3
330
4A1
100
AcDbEntity
  8
0
100
AcDbBlockEnd
  0
BLOCK
  5
49E
330
49D
100
AcDbEntity
 67
     1
  8
0
100
AcDbBlockBegin
  2
*Paper_Space
 70
     0
 10
0.0
 20
0.0
 30
0.0
  3
*Paper_Space
  1

  0
ENDBLK
  5
49F
330
49D
100
AcDbEntity
 67
     1
  8
0
100
AcDbBlockEnd
  0
BLOCK
  5
2
330
4D1
100
AcDbEntity
  8
0
100
AcDbBlockBegin
  2
*D0
 70
     1
 10
0.0
 20
0.0
 30
0.0
  3
*D0
  1

  0
LINE
  5
3
330
4D1
100
AcDbEntity
  8
0
100
AcDbLine
 10
0.0
 20
11.0
 30
0.0
 11
0.0
 21
25.606415
 31
0.0
  0
LINE
  5
4
330
4D1
100
AcDbEntity
  8
0
100
AcDbLine
 10
14.5
 20
11.0
 30
0.0
 11
14.5
 21
25.606415
 31
0.0
  0
LINE
  5
5
330
4D1
100
AcDbEntity
  8
0
100
AcDbLine
 10
2.5
 20
24.606415
 30
0.0
 11
12.0
 21
24.606415
 31
0.0
  0
LINE
  5
6
330
4D1
100
AcDbEntity
  8
0
100
AcDbLine
 10
2.5
 20
25.023081
 30
0.0
 11
2.5
 21
24.189748
 31
0.0
  0
LINE
  5
7
330
4D1
100
AcDbEntity
  8
0
100
AcDbLine
 10
2.5
 20
24.189748
 30
0.0
 11
0.0
 21
24.606415
 31
0.0
  0
LINE
  5
8
330
4D1
100
AcDbEntity
  8
0
100
AcDbLine
 10
0.0
 20
24.606415
 30
0.0
 11
0.0
 21
24.606415
 31
0.0
  0
LINE
  5
9
330
4D1
100
AcDbEntity
  8
0
100
AcDbLine
 10
0.0
 20
24.606415
 30
0.0
 11
2.5
 21
25.023081
 31
0.0
  0
LINE
  5
A
330
4D1
100
AcDbEntity
  8
0
100
AcDbLine
 10
12.0
 20
25.023081
 30
0.0
 11
12.0
 21
24.189748
 31
0.0
  0
LINE
  5
B
330
4D1
100
AcDbEntity
  8
0
100
AcDbLine
 10
12.0
 20
24.189748
 30
0.0
 11
14.5
 21
24.606415
 31
0.0
  0
LINE
  5
C
330
4D1
100
AcDbEntity
  8
0
100
AcDbLine
 10
14.5
 20
24.606415
 30
0.0
 11
14.5
 21
24.606415
 31
0.0
  0
LINE
  5
D
330
4D1
100
AcDbEntity
  8
0
100
AcDbLine
 10
14.5
 20
24.606415
 30
0.0
 11
12.0
 21
25.023081
 31
0.0
  0
ENDBLK
  5
E
330
4D1
100
AcDbEntity
  8
0
100
AcDbBlockEnd
  0
BLOCK
  5
F
330
4D2
100
AcDbEntity
  8
0
100
AcDbBlockBegin
  2
*D1
 70
     1
 10
0.0
 20
0.0
 30
0.0
  3
*D1
  1

  0
LINE
  5
10
330
4D2
100
AcDbEntity
  8
0
100
AcDbLine
 10
15.5
 20
10.0
 30
0.0
 11
34.795921
 21
10.0
 31
0.0
  0
LINE
  5
11
330
4D2
100
AcDbEntity
  8
0
100
AcDbLine
 10
15.5
 20
-10.0
 30
0.0
 11
34.795921
 21
-10.0
 31
0.0
  0
LINE
  5
12
330
4D2
100
AcDbEntity
  8
0
100
AcDbLine
 10
33.795921
 20
7.5
 30
0.0
 11
33.795921
 21
-7.5
 31
0.0
  0
LINE
  5
13
330
4D2
100
AcDbEntity
  8
0
100
AcDbLine
 10
33.379254
 20
7.5
 30
0.0
 11
34.212587
 21
7.5
 31
0.0
  0
LINE
  5
14
330
4D2
100
AcDbEntity
  8
0
100
AcDbLine
 10
34.212587
 20
7.5
 30
0.0
 11
33.795921
 21
10.0
 31
0.0
  0
LINE
  5
15
330
4D2
100
AcDbEntity
  8
0
100
AcDbLine
 10
33.795921
 20
10.0
 30
0.0
 11
33.795921
 21
10.0
 31
0.0
  0
LINE
  5
16
330
4D2
100
AcDbEntity
  8
0
100
AcDbLine
 10
33.795921
 20
10.0
 30
0.0
 11
33.379254
 21
7.5
 31
0.0
  0
LINE
  5
17
330
4D2
100
AcDbEntity
  8
0
100
AcDbLine
 10
33.379254
 20
-7.5
 30
0.0
 11
34.212587
 21
-7.5
 31
0.0
  0
LINE
  5
18
330
4D2
100
AcDbEntity
  8
0
100
AcDbLine
 10
34.212587
 20
-7.5
 30
0.0
 11
33.795921
 21
-10.0
 31
0.0
  0
LINE
  5
19
330
4D2
100
AcDbEntity
  8
0
100
AcDbLine
 10
33.795921
 20
-10.0
 30
0.0
 11
33.795921
 21
-10.0
 31
0.0
  0
LINE
  5
1A
330
4D2
100
AcDbEntity
  8
0
100
AcDbLine
 10
33.795921
 20
-10.0
 30
0.0
 11
33.379254
 21
-7.5
 31
0.0
  0
ENDBLK
  5
1B
330
4D2
100
AcDbEntity
  8
0
100
AcDbBlockEnd
  0
ENDSEC
  0
SECTION
  2
ENTITIES
  0
LINE
  5
1C
330
4A1
100
AcDbEntity
  8
1
100
AcDbLine
 10
12.786376
 20
6.917430999999999
 30
0.0
 11
12.73832
 21
7.089700999999999
 31
0.0
  0
LINE
  5
1D
330
4A1
100
AcDbEntity
  8
1
100
AcDbLine
 10
12.73832
 20
7.089700999999999
 30
0.0
 11
12.692238
 21
7.258577
 31
0.0
  0
LINE
  5
1E
330
4A1
100
AcDbEntity
  8
1
100
AcDbLine
 10
12.692238
 20
7.258577
 30
0.0
 11
12.648133
 21
7.424052999999999
 31
0.0
  0
LINE
  5
1F
330
4A1
100
AcDbEntity
  8
1
100
AcDbLine
 10
12.648133
 20
7.424052999999999
 30
0.0
 11
12.606002
 21
7.586135
 31
0.0
  0
LINE
  5
20
330
4A1
100
AcDbEntity
  8
1
100
AcDbLine
 10
12.606002
 20
7.586135
 30
0.0
 11
12.565846
 21
7.744822
 31
0.0
  0
LINE
  5
21
330
4A1
100
AcDbEntity
  8
1
100
AcDbLine
 10
12.998941
 20
6.193759
 30
0.0
 11
13.016121
 21
6.150584999999999
 31
0.0
  0
LINE
  5
22
330
4A1
100
AcDbEntity
  8
1
100
AcDbLine
 10
13.016121
 20
6.150584999999999
 30
0.0
 11
13.033893
 21
6.107132
 31
0.0
  0
LINE
  5
23
330
4A1
100
AcDbEntity
  8
1
100
AcDbLine
 10
13.033893
 20
6.107132
 30
0.0
 11
13.052257
 21
6.063400999999999
 31
0.0
  0
LINE
  5
24
330
4A1
100
AcDbEntity
  8
1
100
AcDbLine
 10
13.052257
 20
6.063400999999999
 30
0.0
 11
13.071212
 21
6.019391999999999
 31
0.0
  0
LINE
  5
25
330
4A1
100
AcDbEntity
  8
1
100
AcDbLine
 10
13.090758
 20
5.975105999999999
 30
0.0
 11
13.110896
 21
5.930541999999999
 31
0.0
  0
LINE
  5
26
330
4A1
100
AcDbEntity
  8
1
100
AcDbLine
 10
12.998294
 20
6.194537999999999
 30
0.0
 11
12.998941
 21
6.193759
 31
0.0
  0
LINE
  5
27
330
4A1
100
AcDbEntity
  8
1
100
AcDbLine
 10
14.5
 20
3.558431999999999
 30
0.0
 11
14.0
 21
3.890747
 31
0.0
  0
LINE
  5
28
330
4A1
100
AcDbEntity
  8
1
100
AcDbLine
 10
14.0
 20
2.55647
 30
0.0
 11
14.5
 21
2.409965
 31
0.0
  0
LINE
  5
29
330
4A1
100
AcDbEntity
  8
1
100
AcDbLine
 10
14.5
 20
7.670177999999999
 30
0.0
 11
12.565846
 21
7.744822
 31
0.0
  0
LINE
  5
2A
330
4A1
100
AcDbEntity
  8
1
100
AcDbLine
 10
13.711558
 20
2.407413999999999
 30
0.0
 11
13.410495
 21
2.263268999999999
 31
0.0
  0
LINE
  5
2B
330
4A1
100
AcDbEntity
  8
1
100
AcDbLine
 10
13.410495
 20
2.263268999999999
 30
0.0
 11
13.255239
 21
2.189484999999999
 31
0.0
  0
LINE
  5
2C
330
4A1
100
AcDbEntity
  8
1
100
AcDbLine
 10
14.0
 20
2.546984999999999
 30
0.0
 11
13.711558
 21
2.407413999999999
 31
0.0
  0
LINE
  5
2D
330
4A1
100
AcDbEntity
  8
1
100
AcDbLine
 10
12.998941
 20
6.193759
 30
0.0
 11
14.5
 21
6.135829
 31
0.0
  0
LINE
  5
2E
330
4A1
100
AcDbEntity
  8
1
100
AcDbLine
 10
11.777179
 20
-7.330116
 30
0.0
 11
11.49974
 21
-7.377764999999999
 31
0.0
  0
LINE
  5
2F
330
4A1
100
AcDbEntity
  8
1
100
AcDbLine
 10
14.5
 20
5.876932
 30
0.0
 11
13.110896
 21
5.930541999999999
 31
0.0
  0
LINE
  5
30
330
4A1
100
AcDbEntity
  8
1
100
AcDbLine
 10
12.934456
 20
2.038152999999999
 30
0.0
 11
12.6
 21
1.881809999999999
 31
0.0
  0
LINE
  5
31
330
4A1
100
AcDbEntity
  8
1
100
AcDbLine
 10
13.255239
 20
2.189484999999999
 30
0.0
 11
12.934456
 21
2.038152999999999
 31
0.0
  0
LINE
  5
32
330
4A1
100
AcDbEntity
  8
1
100
AcDbLine
 10
12.6
 20
9.066866
 30
0.0
 11
12.327299
 21
9.042904
 31
0.0
  0
LINE
  5
33
330
4A1
100
AcDbEntity
  8
1
100
AcDbLine
 10
12.327299
 20
9.042904
 30
0.0
 11
12.053026
 21
9.018352
 31
0.0
  0
LINE
  5
34
330
4A1
100
AcDbEntity
  8
1
100
AcDbLine
 10
12.053026
 20
9.018352
 30
0.0
 11
11.777179
 21
8.993210000000001
 31
0.0
  0
LINE
  5
35
330
4A1
100
AcDbEntity
  8
1
100
AcDbLine
 10
11.777179
 20
8.993210000000001
 30
0.0
 11
11.49974
 21
8.967478999999999
 31
0.0
  0
LINE
  5
36
330
4A1
100
AcDbEntity
  8
1
100
AcDbLine
 10
11.49974
 20
8.967478999999999
 30
0.0
 11
11.220728
 21
8.941157
 31
0.0
  0
LINE
  5
37
330
4A1
100
AcDbEntity
  8
1
100
AcDbLine
 10
11.220728
 20
8.941157
 30
0.0
 11
10.940205
 21
8.914246
 31
0.0
  0
LINE
  5
38
330
4A1
100
AcDbEntity
  8
1
100
AcDbLine
 10
10.940205
 20
8.914246
 30
0.0
 11
10.65819
 21
8.886741999999999
 31
0.0
  0
LINE
  5
39
330
4A1
100
AcDbEntity
  8
1
100
AcDbLine
 10
10.65819
 20
8.886741999999999
 30
0.0
 11
10.374664
 21
8.858648999999999
 31
0.0
  0
LINE
  5
3A
330
4A1
100
AcDbEntity
  8
81
100
AcDbLine
 10
14.5
 20
0.0
 30
0.0
 11
24.834588
 21
0.0
 31
0.0
  0
LINE
  5
3B
330
4A1
100
AcDbEntity
  8
1
100
AcDbLine
 10
10.374664
 20
8.858648999999999
 30
0.0
 11
10.089626
 21
8.829963000000001
 31
0.0
  0
LINE
  5
3C
330
4A1
100
AcDbEntity
  8
1
100
AcDbLine
 10
14.0
 20
-3.679109999999999
 30
0.0
 11
13.285441
 21
-3.895313999999999
 31
0.0
  0
LINE
  5
3D
330
4A1
100
AcDbEntity
  8
1
100
AcDbLine
 10
9.566202999999999
 20
9.845969
 30
0.0
 11
9.566202999999999
 21
8.787259999999999
 31
0.0
  0
LINE
  5
3E
330
4A1
100
AcDbEntity
  8
1
100
AcDbLine
 10
8.793661
 20
9.391463999999999
 30
0.0
 11
8.793661
 21
8.759142999999999
 31
0.0
  0
LINE
  5
3F
330
4A1
100
AcDbEntity
  8
1
100
AcDbLine
 10
9.566202999999999
 20
9.845969
 30
0.0
 11
9.527442
 21
9.839435999999999
 31
0.0
  0
LINE
  5
40
330
4A1
100
AcDbEntity
  8
1
100
AcDbLine
 10
9.527442
 20
9.839435999999999
 30
0.0
 11
9.478717999999998
 21
9.828869
 31
0.0
  0
LINE
  5
41
330
4A1
100
AcDbEntity
  8
1
100
AcDbLine
 10
9.478717999999998
 20
9.828869
 30
0.0
 11
9.391586
 21
9.80338
 31
0.0
  0
LINE
  5
42
330
4A1
100
AcDbEntity
  8
1
100
AcDbLine
 10
9.391586
 20
9.80338
 30
0.0
 11
9.304808999999998
 21
9.769502000000001
 31
0.0
  0
LINE
  5
43
330
4A1
100
AcDbEntity
  8
1
100
AcDbLine
 10
9.304808999999998
 20
9.769502000000001
 30
0.0
 11
9.218308
 21
9.727183
 31
0.0
  0
LINE
  5
44
330
4A1
100
AcDbEntity
  8
1
100
AcDbLine
 10
9.218308
 20
9.727183
 30
0.0
 11
9.132160999999999
 21
9.676475999999999
 31
0.0
  0
LINE
  5
45
330
4A1
100
AcDbEntity
  8
1
100
AcDbLine
 10
9.132160999999999
 20
9.676475999999999
 30
0.0
 11
9.046599999999999
 21
9.617533999999999
 31
0.0
  0
LINE
  5
46
330
4A1
100
AcDbEntity
  8
1
100
AcDbLine
 10
9.046599999999999
 20
9.617533999999999
 30
0.0
 11
8.961702
 21
9.550411
 31
0.0
  0
LINE
  5
47
330
4A1
100
AcDbEntity
  8
1
100
AcDbLine
 10
8.961702
 20
9.550411
 30
0.0
 11
8.877388999999999
 21
9.475054
 31
0.0
  0
LINE
  5
48
330
4A1
100
AcDbEntity
  8
1
100
AcDbLine
 10
8.877388999999999
 20
9.475054
 30
0.0
 11
8.793661
 21
9.391463999999999
 31
0.0
  0
LINE
  5
49
330
4A1
100
AcDbEntity
  8
1
100
AcDbLine
 10
13.1
 20
10.000002
 30
0.0
 11
14.5
 21
9.191710999999999
 31
0.0
  0
LINE
  5
4A
330
4A1
100
AcDbEntity
  8
1
100
AcDbLine
 10
14.5
 20
9.191710999999999
 30
0.0
 11
13.1
 21
10.000002
 31
0.0
  0
LINE
  5
4B
330
4A1
100
AcDbEntity
  8
1
100
AcDbLine
 10
14.0
 20
8.478499000000001
 30
0.0
 11
13.857366
 21
8.541953999999998
 31
0.0
  0
LINE
  5
4C
330
4A1
100
AcDbEntity
  8
1
100
AcDbLine
 10
13.857366
 20
8.541953999999998
 30
0.0
 11
13.711558
 21
8.605871999999999
 31
0.0
  0
LINE
  5
4D
330
4A1
100
AcDbEntity
  8
1
100
AcDbLine
 10
13.711558
 20
8.605871999999999
 30
0.0
 11
13.562576
 21
8.670255
 31
0.0
  0
LINE
  5
4E
330
4A1
100
AcDbEntity
  8
1
100
AcDbLine
 10
13.562576
 20
8.670255
 30
0.0
 11
13.410495
 21
8.735082
 31
0.0
  0
LINE
  5
4F
330
4A1
100
AcDbEntity
  8
1
100
AcDbLine
 10
13.410495
 20
8.735082
 30
0.0
 11
13.255239
 21
8.800371999999999
 31
0.0
  0
LINE
  5
50
330
4A1
100
AcDbEntity
  8
1
100
AcDbLine
 10
13.255239
 20
8.800371999999999
 30
0.0
 11
13.096584
 21
8.866191
 31
0.0
  0
LINE
  5
51
330
4A1
100
AcDbEntity
  8
1
100
AcDbLine
 10
13.096584
 20
8.866191
 30
0.0
 11
12.934456
 21
8.932555
 31
0.0
  0
LINE
  5
52
330
4A1
100
AcDbEntity
  8
1
100
AcDbLine
 10
12.934456
 20
8.932555
 30
0.0
 11
12.768927
 21
8.999447999999999
 31
0.0
  0
LINE
  5
53
330
4A1
100
AcDbEntity
  8
1
100
AcDbLine
 10
12.768927
 20
8.999447999999999
 30
0.0
 11
12.6
 21
9.066866
 31
0.0
  0
LINE
  5
54
330
4A1
100
AcDbEntity
  8
1
100
AcDbLine
 10
10.380268
 20
10.000002
 30
0.0
 11
13.020342
 21
10.000002
 31
0.0
  0
LINE
  5
55
330
4A1
100
AcDbEntity
  8
1
100
AcDbLine
 10
13.020342
 20
10.000002
 30
0.0
 11
13.1
 21
10.000002
 31
0.0
  0
LINE
  5
56
330
4A1
100
AcDbEntity
  8
1
100
AcDbLine
 10
10.380438
 20
-10.000002
 30
0.0
 11
13.020342
 21
-10.000002
 31
0.0
  0
LINE
  5
57
330
4A1
100
AcDbEntity
  8
1
100
AcDbLine
 10
12.565846
 20
-9.000942999999999
 30
0.0
 11
13.020342
 21
-10.000002
 31
0.0
  0
LINE
  5
58
330
4A1
100
AcDbEntity
  8
1
100
AcDbLine
 10
9.566202999999999
 20
9.845969
 30
0.0
 11
10.380268
 21
10.000002
 31
0.0
  0
LINE
  5
59
330
4A1
100
AcDbEntity
  8
SK4
100
AcDbLine
 10
15.950441
 20
0.0
 30
0.0
 11
-12.6295
 21
0.0
 31
0.0
  0
LINE
  5
5A
330
4A1
100
AcDbEntity
  8
SK1
100
AcDbLine
 10
-8.349999999999999
 20
-5.444173999999999
 30
0.0
 11
0.0
 21
-6.174173999999999
 31
0.0
  0
LINE
  5
5B
330
4A1
100
AcDbEntity
  8
SK1
100
AcDbLine
 10
-8.349999999999999
 20
5.444175
 30
0.0
 11
0.0
 21
6.174173999999999
 31
0.0
  0
LINE
  5
5C
330
4A1
100
AcDbEntity
  8
SK1
100
AcDbLine
 10
-11.35
 20
4.944175
 30
0.0
 11
-11.35
 21
-4.944173999999999
 31
0.0
  0
LINE
  5
5D
330
4A1
100
AcDbEntity
  8
SK1
100
AcDbLine
 10
-8.349999999999999
 20
5.444175
 30
0.0
 11
-8.349999999999999
 21
-5.444173999999999
 31
0.0
  0
LINE
  5
5E
330
4A1
100
AcDbEntity
  8
SK1
100
AcDbLine
 10
-11.35
 20
-4.944173999999999
 30
0.0
 11
-8.349999999999999
 21
-4.944173999999999
 31
0.0
  0
LINE
  5
5F
330
4A1
100
AcDbEntity
  8
SK1
100
AcDbLine
 10
-11.35
 20
4.944175
 30
0.0
 11
-8.349999999999999
 21
4.944175
 31
0.0
  0
LINE
  5
60
330
4A1
100
AcDbEntity
  8
2
100
AcDbLine
 10
14.1
 20
10.0
 30
0.0
 11
26.412635
 21
10.0
 31
0.0
  0
LINE
  5
61
330
4A1
100
AcDbEntity
  8
80
100
AcDbLine
 10
0.0
 20
0.0
 30
0.0
 11
-11.35
 21
0.0
 31
0.0
  0
LINE
  5
62
330
4A1
100
AcDbEntity
  8
1
100
AcDbLine
 10
5.510487
 20
1.566279999999999
 30
0.0
 11
5.379762
 21
1.605933999999999
 31
0.0
  0
LINE
  5
63
330
4A1
100
AcDbEntity
  8
1
100
AcDbLine
 10
12.654922
 20
5.800702999999999
 30
0.0
 11
12.198358
 21
5.669406999999999
 31
0.0
  0
LINE
  5
64
330
4A1
100
AcDbEntity
  8
1
100
AcDbLine
 10
11.478798
 20
-8.958291
 30
0.0
 11
10.908572
 21
-9.030583999999999
 31
0.0
  0
LINE
  5
65
330
4A1
100
AcDbEntity
  8
1
100
AcDbLine
 10
14.0
 20
-0.118548
 30
0.0
 11
14.0
 21
4.67131
 31
0.0
  0
LINE
  5
66
330
4A1
100
AcDbEntity
  8
1
100
AcDbLine
 10
12.6
 20
1.881809999999999
 30
0.0
 11
12.6
 21
-1.145853
 31
0.0
  0
LINE
  5
67
330
4A1
100
AcDbEntity
  8
1
100
AcDbLine
 10
8.794214999999999
 20
1.302766
 30
0.0
 11
8.764257999999999
 21
1.294703
 31
0.0
  0
LINE
  5
68
330
4A1
100
AcDbEntity
  8
1
100
AcDbLine
 10
5.318369
 20
1.624904
 30
0.0
 11
5.195032
 21
1.834511999999999
 31
0.0
  0
LINE
  5
69
330
4A1
100
AcDbEntity
  8
1
100
AcDbLine
 10
5.195032
 20
1.834511999999999
 30
0.0
 11
5.075419999999999
 21
2.045222
 31
0.0
  0
LINE
  5
6A
330
4A1
100
AcDbEntity
  8
1
100
AcDbLine
 10
5.075419999999999
 20
2.045222
 30
0.0
 11
4.959532
 21
2.256896999999999
 31
0.0
  0
LINE
  5
6B
330
4A1
100
AcDbEntity
  8
1
100
AcDbLine
 10
4.959532
 20
2.256896999999999
 30
0.0
 11
4.847376
 21
2.469638999999999
 31
0.0
  0
LINE
  5
6C
330
4A1
100
AcDbEntity
  8
1
100
AcDbLine
 10
4.847376
 20
2.469638999999999
 30
0.0
 11
4.738944999999999
 21
2.683056999999999
 31
0.0
  0
LINE
  5
6D
330
4A1
100
AcDbEntity
  8
1
100
AcDbLine
 10
4.738944999999999
 20
2.683056999999999
 30
0.0
 11
4.63422
 21
2.896283
 31
0.0
  0
LINE
  5
6E
330
4A1
100
AcDbEntity
  8
1
100
AcDbLine
 10
4.63422
 20
2.896283
 30
0.0
 11
4.533191999999999
 21
3.109148999999999
 31
0.0
  0
LINE
  5
6F
330
4A1
100
AcDbEntity
  8
1
100
AcDbLine
 10
4.533191999999999
 20
3.109148999999999
 30
0.0
 11
4.435869999999999
 21
3.321534999999999
 31
0.0
  0
LINE
  5
70
330
4A1
100
AcDbEntity
  8
1
100
AcDbLine
 10
4.435869999999999
 20
3.321534999999999
 30
0.0
 11
4.342264
 21
3.532665
 31
0.0
  0
LINE
  5
71
330
4A1
100
AcDbEntity
  8
1
100
AcDbLine
 10
4.342264
 20
3.532665
 30
0.0
 11
4.252354
 21
3.742386
 31
0.0
  0
LINE
  5
72
330
4A1
100
AcDbEntity
  8
1
100
AcDbLine
 10
4.252354
 20
3.742386
 30
0.0
 11
4.166159999999999
 21
3.950581999999999
 31
0.0
  0
LINE
  5
73
330
4A1
100
AcDbEntity
  8
1
100
AcDbLine
 10
4.166159999999999
 20
3.950581999999999
 30
0.0
 11
4.083755
 21
4.156568
 31
0.0
  0
LINE
  5
74
330
4A1
100
AcDbEntity
  8
1
100
AcDbLine
 10
4.083755
 20
4.156568
 30
0.0
 11
4.005037
 21
4.360477999999999
 31
0.0
  0
LINE
  5
75
330
4A1
100
AcDbEntity
  8
1
100
AcDbLine
 10
4.005037
 20
4.360477999999999
 30
0.0
 11
3.930106999999999
 21
4.561938999999999
 31
0.0
  0
LINE
  5
76
330
4A1
100
AcDbEntity
  8
1
100
AcDbLine
 10
3.930106999999999
 20
4.561938999999999
 30
0.0
 11
3.859342999999999
 21
4.759574999999999
 31
0.0
  0
LINE
  5
77
330
4A1
100
AcDbEntity
  8
1
100
AcDbLine
 10
3.859342999999999
 20
4.759574999999999
 30
0.0
 11
3.792869
 21
4.952911
 31
0.0
  0
LINE
  5
78
330
4A1
100
AcDbEntity
  8
1
100
AcDbLine
 10
3.792869
 20
4.952911
 30
0.0
 11
3.730558999999999
 21
5.142317
 31
0.0
  0
LINE
  5
79
330
4A1
100
AcDbEntity
  8
1
100
AcDbLine
 10
3.730558999999999
 20
5.142317
 30
0.0
 11
3.672413999999999
 21
5.327742999999999
 31
0.0
  0
LINE
  5
7A
330
4A1
100
AcDbEntity
  8
1
100
AcDbLine
 10
6.851933999999999
 20
1.601980999999999
 30
0.0
 11
6.854541
 21
1.604179999999999
 31
0.0
  0
LINE
  5
7B
330
4A1
100
AcDbEntity
  8
1
100
AcDbLine
 10
6.854541
 20
1.604179999999999
 30
0.0
 11
6.878733999999999
 21
1.623491999999999
 31
0.0
  0
LINE
  5
7C
330
4A1
100
AcDbEntity
  8
1
100
AcDbLine
 10
6.878733999999999
 20
1.623491999999999
 30
0.0
 11
6.904441999999999
 21
1.642011
 31
0.0
  0
LINE
  5
7D
330
4A1
100
AcDbEntity
  8
1
100
AcDbLine
 10
6.904441999999999
 20
1.642011
 30
0.0
 11
6.93171
 21
1.659748
 31
0.0
  0
LINE
  5
7E
330
4A1
100
AcDbEntity
  8
1
100
AcDbLine
 10
6.93171
 20
1.659748
 30
0.0
 11
6.960511999999999
 21
1.676722
 31
0.0
  0
LINE
  5
7F
330
4A1
100
AcDbEntity
  8
1
100
AcDbLine
 10
6.960511999999999
 20
1.676722
 30
0.0
 11
6.990697999999999
 21
1.692756
 31
0.0
  0
LINE
  5
80
330
4A1
100
AcDbEntity
  8
1
100
AcDbLine
 10
6.990697999999999
 20
1.692756
 30
0.0
 11
7.022263
 21
1.707838
 31
0.0
  0
LINE
  5
81
330
4A1
100
AcDbEntity
  8
1
100
AcDbLine
 10
7.022263
 20
1.707838
 30
0.0
 11
7.055224
 21
1.722007
 31
0.0
  0
LINE
  5
82
330
4A1
100
AcDbEntity
  8
1
100
AcDbLine
 10
7.055224
 20
1.722007
 30
0.0
 11
7.08946
 21
1.735154
 31
0.0
  0
LINE
  5
83
330
4A1
100
AcDbEntity
  8
1
100
AcDbLine
 10
7.08946
 20
1.735154
 30
0.0
 11
7.125005
 21
1.74729
 31
0.0
  0
LINE
  5
84
330
4A1
100
AcDbEntity
  8
1
100
AcDbLine
 10
7.125005
 20
1.74729
 30
0.0
 11
7.161836
 21
1.758427999999999
 31
0.0
  0
LINE
  5
85
330
4A1
100
AcDbEntity
  8
1
100
AcDbLine
 10
7.161836
 20
1.758427999999999
 30
0.0
 11
7.19973
 21
1.768463
 31
0.0
  0
LINE
  5
86
330
4A1
100
AcDbEntity
  8
1
100
AcDbLine
 10
7.19973
 20
1.768463
 30
0.0
 11
7.238735
 21
1.777390999999999
 31
0.0
  0
LINE
  5
87
330
4A1
100
AcDbEntity
  8
1
100
AcDbLine
 10
7.238735
 20
1.777390999999999
 30
0.0
 11
7.278808
 21
1.785231
 31
0.0
  0
LINE
  5
88
330
4A1
100
AcDbEntity
  8
1
100
AcDbLine
 10
7.278808
 20
1.785231
 30
0.0
 11
7.319590999999999
 21
1.791906
 31
0.0
  0
LINE
  5
89
330
4A1
100
AcDbEntity
  8
1
100
AcDbLine
 10
4.912975
 20
-9.509577999999999
 30
0.0
 11
4.29401
 21
-9.531474000000001
 31
0.0
  0
LINE
  5
8A
330
4A1
100
AcDbEntity
  8
1
100
AcDbLine
 10
7.319590999999999
 20
1.791906
 30
0.0
 11
7.361086999999999
 21
1.797391
 31
0.0
  0
LINE
  5
8B
330
4A1
100
AcDbEntity
  8
1
100
AcDbLine
 10
7.361086999999999
 20
1.797391
 30
0.0
 11
7.403289
 21
1.801712
 31
0.0
  0
LINE
  5
8C
330
4A1
100
AcDbEntity
  8
1
100
AcDbLine
 10
7.403289
 20
1.801712
 30
0.0
 11
7.445819
 21
1.804852
 31
0.0
  0
LINE
  5
8D
330
4A1
100
AcDbEntity
  8
1
100
AcDbLine
 10
7.445819
 20
1.804852
 30
0.0
 11
7.488671
 21
1.806784999999999
 31
0.0
  0
LINE
  5
8E
330
4A1
100
AcDbEntity
  8
1
100
AcDbLine
 10
7.488671
 20
1.806784999999999
 30
0.0
 11
7.531841
 21
1.807527
 31
0.0
  0
LINE
  5
8F
330
4A1
100
AcDbEntity
  8
1
100
AcDbLine
 10
7.531841
 20
1.807527
 30
0.0
 11
7.574940999999999
 21
1.807108
 31
0.0
  0
LINE
  5
90
330
4A1
100
AcDbEntity
  8
1
100
AcDbLine
 10
7.574940999999999
 20
1.807108
 30
0.0
 11
7.618063999999999
 21
1.805476999999999
 31
0.0
  0
LINE
  5
91
330
4A1
100
AcDbEntity
  8
1
100
AcDbLine
 10
7.618063999999999
 20
1.805476999999999
 30
0.0
 11
7.661102
 21
1.802665999999999
 31
0.0
  0
LINE
  5
92
330
4A1
100
AcDbEntity
  8
1
100
AcDbLine
 10
7.661102
 20
1.802665999999999
 30
0.0
 11
7.703355
 21
1.798809999999999
 31
0.0
  0
LINE
  5
93
330
4A1
100
AcDbEntity
  8
1
100
AcDbLine
 10
7.703355
 20
1.798809999999999
 30
0.0
 11
7.744705999999999
 21
1.793863
 31
0.0
  0
LINE
  5
94
330
4A1
100
AcDbEntity
  8
1
100
AcDbLine
 10
7.744705999999999
 20
1.793863
 30
0.0
 11
7.785249999999999
 21
1.787833999999999
 31
0.0
  0
LINE
  5
95
330
4A1
100
AcDbEntity
  8
1
100
AcDbLine
 10
7.785249999999999
 20
1.787833999999999
 30
0.0
 11
7.824608999999999
 21
1.78094
 31
0.0
  0
LINE
  5
96
330
4A1
100
AcDbEntity
  8
1
100
AcDbLine
 10
7.824608999999999
 20
1.78094
 30
0.0
 11
7.8627
 21
1.773156999999999
 31
0.0
  0
LINE
  5
97
330
4A1
100
AcDbEntity
  8
1
100
AcDbLine
 10
7.8627
 20
1.773156999999999
 30
0.0
 11
7.899586
 21
1.764470999999999
 31
0.0
  0
LINE
  5
98
330
4A1
100
AcDbEntity
  8
1
100
AcDbLine
 10
7.899586
 20
1.764470999999999
 30
0.0
 11
7.935100999999999
 21
1.755101999999999
 31
0.0
  0
LINE
  5
99
330
4A1
100
AcDbEntity
  8
1
100
AcDbLine
 10
7.935100999999999
 20
1.755101999999999
 30
0.0
 11
7.969183
 21
1.745045
 31
0.0
  0
LINE
  5
9A
330
4A1
100
AcDbEntity
  8
1
100
AcDbLine
 10
7.969183
 20
1.745045
 30
0.0
 11
8.001877999999999
 21
1.734270999999999
 31
0.0
  0
LINE
  5
9B
330
4A1
100
AcDbEntity
  8
1
100
AcDbLine
 10
8.001877999999999
 20
1.734270999999999
 30
0.0
 11
8.033189
 21
1.722961999999999
 31
0.0
  0
LINE
  5
9C
330
4A1
100
AcDbEntity
  8
1
100
AcDbLine
 10
8.033189
 20
1.722961999999999
 30
0.0
 11
8.063091
 21
1.711115
 31
0.0
  0
LINE
  5
9D
330
4A1
100
AcDbEntity
  8
1
100
AcDbLine
 10
8.063091
 20
1.711115
 30
0.0
 11
8.091597
 21
1.698706999999999
 31
0.0
  0
LINE
  5
9E
330
4A1
100
AcDbEntity
  8
1
100
AcDbLine
 10
8.091597
 20
1.698706999999999
 30
0.0
 11
8.118775999999998
 21
1.685879999999999
 31
0.0
  0
LINE
  5
9F
330
4A1
100
AcDbEntity
  8
1
100
AcDbLine
 10
8.118775999999998
 20
1.685879999999999
 30
0.0
 11
8.144610999999999
 21
1.672636999999999
 31
0.0
  0
LINE
  5
A0
330
4A1
100
AcDbEntity
  8
1
100
AcDbLine
 10
8.144610999999999
 20
1.672636999999999
 30
0.0
 11
8.169111
 21
1.658954
 31
0.0
  0
LINE
  5
A1
330
4A1
100
AcDbEntity
  8
1
100
AcDbLine
 10
8.169111
 20
1.658954
 30
0.0
 11
8.192377
 21
1.644936999999999
 31
0.0
  0
LINE
  5
A2
330
4A1
100
AcDbEntity
  8
1
100
AcDbLine
 10
8.192377
 20
1.644936999999999
 30
0.0
 11
8.214427
 21
1.630568
 31
0.0
  0
LINE
  5
A3
330
4A1
100
AcDbEntity
  8
1
100
AcDbLine
 10
8.214427
 20
1.630568
 30
0.0
 11
8.235238
 21
1.61585
 31
0.0
  0
LINE
  5
A4
330
4A1
100
AcDbEntity
  8
1
100
AcDbLine
 10
8.235238
 20
1.61585
 30
0.0
 11
8.254856
 21
1.600919
 31
0.0
  0
LINE
  5
A5
330
4A1
100
AcDbEntity
  8
1
100
AcDbLine
 10
8.254856
 20
1.600919
 30
0.0
 11
8.273296
 21
1.585817
 31
0.0
  0
LINE
  5
A6
330
4A1
100
AcDbEntity
  8
1
100
AcDbLine
 10
8.273296
 20
1.585817
 30
0.0
 11
8.29054
 21
1.570493
 31
0.0
  0
LINE
  5
A7
330
4A1
100
AcDbEntity
  8
1
100
AcDbLine
 10
8.29054
 20
1.570493
 30
0.0
 11
8.306585
 21
1.55494
 31
0.0
  0
LINE
  5
A8
330
4A1
100
AcDbEntity
  8
1
100
AcDbLine
 10
0.0
 20
-9.569893999999999
 30
0.0
 11
0.0
 21
9.569893999999999
 31
0.0
  0
LINE
  5
A9
330
4A1
100
AcDbEntity
  8
1
100
AcDbLine
 10
12.6
 20
1.881809999999999
 30
0.0
 11
12.053026
 21
1.736233
 31
0.0
  0
LINE
  5
AA
330
4A1
100
AcDbEntity
  8
1
100
AcDbLine
 10
9.529728999999999
 20
1.850049
 30
0.0
 11
9.392774000000001
 21
1.809539
 31
0.0
  0
LINE
  5
AB
330
4A1
100
AcDbEntity
  8
1
100
AcDbLine
 10
9.255899000000001
 20
1.770911999999999
 30
0.0
 11
9.119180999999999
 21
1.734188
 31
0.0
  0
LINE
  5
AC
330
4A1
100
AcDbEntity
  8
1
100
AcDbLine
 10
9.119180999999999
 20
1.734188
 30
0.0
 11
8.982699
 21
1.699391
 31
0.0
  0
LINE
  5
AD
330
4A1
100
AcDbEntity
  8
1
100
AcDbLine
 10
8.982699
 20
1.699391
 30
0.0
 11
8.846533
 21
1.666538
 31
0.0
  0
LINE
  5
AE
330
4A1
100
AcDbEntity
  8
1
100
AcDbLine
 10
8.846533
 20
1.666538
 30
0.0
 11
8.71076
 21
1.635648999999999
 31
0.0
  0
LINE
  5
AF
330
4A1
100
AcDbEntity
  8
1
100
AcDbLine
 10
8.71076
 20
1.635648999999999
 30
0.0
 11
8.575460000000001
 21
1.606742
 31
0.0
  0
LINE
  5
B0
330
4A1
100
AcDbEntity
  8
1
100
AcDbLine
 10
8.575460000000001
 20
1.606742
 30
0.0
 11
8.440709
 21
1.579833999999999
 31
0.0
  0
LINE
  5
B1
330
4A1
100
AcDbEntity
  8
1
100
AcDbLine
 10
8.440709
 20
1.579833999999999
 30
0.0
 11
8.306585
 21
1.55494
 31
0.0
  0
LINE
  5
B2
330
4A1
100
AcDbEntity
  8
1
100
AcDbLine
 10
6.773392999999999
 20
-6.140912999999999
 30
0.0
 11
6.791361
 21
-6.103584999999999
 31
0.0
  0
LINE
  5
B3
330
4A1
100
AcDbEntity
  8
1
100
AcDbLine
 10
6.791361
 20
-6.103584999999999
 30
0.0
 11
6.810864999999999
 21
-6.06633
 31
0.0
  0
LINE
  5
B4
330
4A1
100
AcDbEntity
  8
1
100
AcDbLine
 10
6.810864999999999
 20
-6.06633
 30
0.0
 11
6.831914999999999
 21
-6.029155999999999
 31
0.0
  0
LINE
  5
B5
330
4A1
100
AcDbEntity
  8
1
100
AcDbLine
 10
6.831914999999999
 20
-6.029155999999999
 30
0.0
 11
6.854541
 21
-5.991977999999999
 31
0.0
  0
LINE
  5
B6
330
4A1
100
AcDbEntity
  8
1
100
AcDbLine
 10
6.854541
 20
-5.991977999999999
 30
0.0
 11
6.878733999999999
 21
-5.9549
 31
0.0
  0
LINE
  5
B7
330
4A1
100
AcDbEntity
  8
1
100
AcDbLine
 10
6.878733999999999
 20
-5.9549
 30
0.0
 11
6.904441999999999
 21
-5.91821
 31
0.0
  0
LINE
  5
B8
330
4A1
100
AcDbEntity
  8
1
100
AcDbLine
 10
6.904441999999999
 20
-5.91821
 30
0.0
 11
6.93171
 21
-5.881904
 31
0.0
  0
LINE
  5
B9
330
4A1
100
AcDbEntity
  8
1
100
AcDbLine
 10
6.93171
 20
-5.881904
 30
0.0
 11
6.960511999999999
 21
-5.846006
 31
0.0
  0
LINE
  5
BA
330
4A1
100
AcDbEntity
  8
1
100
AcDbLine
 10
6.960511999999999
 20
-5.846006
 30
0.0
 11
6.990697999999999
 21
-5.810838999999999
 31
0.0
  0
LINE
  5
BB
330
4A1
100
AcDbEntity
  8
1
100
AcDbLine
 10
6.990697999999999
 20
-5.810838999999999
 30
0.0
 11
7.022263
 21
-5.776447
 31
0.0
  0
LINE
  5
BC
330
4A1
100
AcDbEntity
  8
1
100
AcDbLine
 10
7.022263
 20
-5.776447
 30
0.0
 11
7.055224
 21
-5.742804
 31
0.0
  0
LINE
  5
BD
330
4A1
100
AcDbEntity
  8
1
100
AcDbLine
 10
7.055224
 20
-5.742804
 30
0.0
 11
7.08946
 21
-5.710123999999999
 31
0.0
  0
LINE
  5
BE
330
4A1
100
AcDbEntity
  8
1
100
AcDbLine
 10
7.08946
 20
-5.710123999999999
 30
0.0
 11
7.125005
 21
-5.678401
 31
0.0
  0
LINE
  5
BF
330
4A1
100
AcDbEntity
  8
1
100
AcDbLine
 10
7.125005
 20
-5.678401
 30
0.0
 11
7.161836
 21
-5.647657999999999
 31
0.0
  0
LINE
  5
C0
330
4A1
100
AcDbEntity
  8
1
100
AcDbLine
 10
7.161836
 20
-5.647657999999999
 30
0.0
 11
7.19973
 21
-5.618141999999999
 31
0.0
  0
LINE
  5
C1
330
4A1
100
AcDbEntity
  8
1
100
AcDbLine
 10
7.19973
 20
-5.618141999999999
 30
0.0
 11
7.238735
 21
-5.589851
 31
0.0
  0
LINE
  5
C2
330
4A1
100
AcDbEntity
  8
1
100
AcDbLine
 10
7.238735
 20
-5.589851
 30
0.0
 11
7.278808
 21
-5.562801
 31
0.0
  0
LINE
  5
C3
330
4A1
100
AcDbEntity
  8
1
100
AcDbLine
 10
7.278808
 20
-5.562801
 30
0.0
 11
7.319590999999999
 21
-5.53725
 31
0.0
  0
LINE
  5
C4
330
4A1
100
AcDbEntity
  8
1
100
AcDbLine
 10
7.319590999999999
 20
-5.53725
 30
0.0
 11
7.361086999999999
 21
-5.513228999999999
 31
0.0
  0
LINE
  5
C5
330
4A1
100
AcDbEntity
  8
1
100
AcDbLine
 10
7.361086999999999
 20
-5.513228999999999
 30
0.0
 11
7.403289
 21
-5.490712
 31
0.0
  0
LINE
  5
C6
330
4A1
100
AcDbEntity
  8
1
100
AcDbLine
 10
7.403289
 20
-5.490712
 30
0.0
 11
7.445819
 21
-5.469875
 31
0.0
  0
LINE
  5
C7
330
4A1
100
AcDbEntity
  8
1
100
AcDbLine
 10
7.445819
 20
-5.469875
 30
0.0
 11
7.488671
 21
-5.450738999999999
 31
0.0
  0
LINE
  5
C8
330
4A1
100
AcDbEntity
  8
1
100
AcDbLine
 10
7.488671
 20
-5.450738999999999
 30
0.0
 11
7.531841
 21
-5.433278999999999
 31
0.0
  0
LINE
  5
C9
330
4A1
100
AcDbEntity
  8
1
100
AcDbLine
 10
7.531841
 20
-5.433278999999999
 30
0.0
 11
7.574940999999999
 21
-5.417596999999999
 31
0.0
  0
LINE
  5
CA
330
4A1
100
AcDbEntity
  8
1
100
AcDbLine
 10
7.574940999999999
 20
-5.417596999999999
 30
0.0
 11
7.618063999999999
 21
-5.403696
 31
0.0
  0
LINE
  5
CB
330
4A1
100
AcDbEntity
  8
1
100
AcDbLine
 10
7.618063999999999
 20
-5.403696
 30
0.0
 11
7.660781
 21
-5.391644999999999
 31
0.0
  0
LINE
  5
CC
330
4A1
100
AcDbEntity
  8
1
100
AcDbLine
 10
9.057382999999999
 20
1.416804999999999
 30
0.0
 11
9.051277
 21
1.411842
 31
0.0
  0
LINE
  5
CD
330
4A1
100
AcDbEntity
  8
1
100
AcDbLine
 10
9.051277
 20
1.411842
 30
0.0
 11
9.041752
 21
1.404792
 31
0.0
  0
LINE
  5
CE
330
4A1
100
AcDbEntity
  8
1
100
AcDbLine
 10
9.041752
 20
1.404792
 30
0.0
 11
9.031003
 21
1.397577
 31
0.0
  0
LINE
  5
CF
330
4A1
100
AcDbEntity
  8
1
100
AcDbLine
 10
9.031003
 20
1.397577
 30
0.0
 11
9.019042
 21
1.390231999999999
 31
0.0
  0
LINE
  5
D0
330
4A1
100
AcDbEntity
  8
1
100
AcDbLine
 10
9.019042
 20
1.390231999999999
 30
0.0
 11
9.005833
 21
1.382765999999999
 31
0.0
  0
LINE
  5
D1
330
4A1
100
AcDbEntity
  8
1
100
AcDbLine
 10
9.005833
 20
1.382765999999999
 30
0.0
 11
8.991263
 21
1.375132
 31
0.0
  0
LINE
  5
D2
330
4A1
100
AcDbEntity
  8
1
100
AcDbLine
 10
8.991263
 20
1.375132
 30
0.0
 11
8.975291999999999
 21
1.367354
 31
0.0
  0
LINE
  5
D3
330
4A1
100
AcDbEntity
  8
1
100
AcDbLine
 10
8.975291999999999
 20
1.367354
 30
0.0
 11
8.957924
 21
1.359470999999999
 31
0.0
  0
LINE
  5
D4
330
4A1
100
AcDbEntity
  8
1
100
AcDbLine
 10
8.957924
 20
1.359470999999999
 30
0.0
 11
8.939103999999998
 21
1.351483999999999
 31
0.0
  0
LINE
  5
D5
330
4A1
100
AcDbEntity
  8
1
100
AcDbLine
 10
8.939103999999998
 20
1.351483999999999
 30
0.0
 11
8.918824
 21
1.343423
 31
0.0
  0
LINE
  5
D6
330
4A1
100
AcDbEntity
  8
1
100
AcDbLine
 10
8.918824
 20
1.343423
 30
0.0
 11
8.897062
 21
1.335315999999999
 31
0.0
  0
LINE
  5
D7
330
4A1
100
AcDbEntity
  8
1
100
AcDbLine
 10
8.897062
 20
1.335315999999999
 30
0.0
 11
8.873742
 21
1.327166999999999
 31
0.0
  0
LINE
  5
D8
330
4A1
100
AcDbEntity
  8
1
100
AcDbLine
 10
8.873742
 20
1.327166999999999
 30
0.0
 11
8.848867
 21
1.319012
 31
0.0
  0
LINE
  5
D9
330
4A1
100
AcDbEntity
  8
1
100
AcDbLine
 10
8.848867
 20
1.319012
 30
0.0
 11
8.822402999999999
 21
1.310879
 31
0.0
  0
LINE
  5
DA
330
4A1
100
AcDbEntity
  8
1
100
AcDbLine
 10
8.822402999999999
 20
1.310879
 30
0.0
 11
8.794214999999999
 21
1.302766
 31
0.0
  0
LINE
  5
DB
330
4A1
100
AcDbEntity
  8
1
100
AcDbLine
 10
8.764257999999999
 20
1.294703
 30
0.0
 11
8.73254
 21
1.286740999999999
 31
0.0
  0
LINE
  5
DC
330
4A1
100
AcDbEntity
  8
1
100
AcDbLine
 10
8.73254
 20
1.286740999999999
 30
0.0
 11
8.698988999999999
 21
1.278913999999999
 31
0.0
  0
LINE
  5
DD
330
4A1
100
AcDbEntity
  8
1
100
AcDbLine
 10
8.698988999999999
 20
1.278913999999999
 30
0.0
 11
8.663561999999998
 21
1.271252999999999
 31
0.0
  0
LINE
  5
DE
330
4A1
100
AcDbEntity
  8
1
100
AcDbLine
 10
8.663561999999998
 20
1.271252999999999
 30
0.0
 11
8.626269
 21
1.263808
 31
0.0
  0
LINE
  5
DF
330
4A1
100
AcDbEntity
  8
1
100
AcDbLine
 10
8.626269
 20
1.263808
 30
0.0
 11
8.58712
 21
1.256654999999999
 31
0.0
  0
LINE
  5
E0
330
4A1
100
AcDbEntity
  8
1
100
AcDbLine
 10
8.58712
 20
1.256654999999999
 30
0.0
 11
8.545972
 21
1.249795999999999
 31
0.0
  0
LINE
  5
E1
330
4A1
100
AcDbEntity
  8
1
100
AcDbLine
 10
8.545972
 20
1.249795999999999
 30
0.0
 11
8.502947
 21
1.2433
 31
0.0
  0
LINE
  5
E2
330
4A1
100
AcDbEntity
  8
1
100
AcDbLine
 10
8.502947
 20
1.2433
 30
0.0
 11
8.458460999999999
 21
1.237322999999999
 31
0.0
  0
LINE
  5
E3
330
4A1
100
AcDbEntity
  8
1
100
AcDbLine
 10
8.458460999999999
 20
1.237322999999999
 30
0.0
 11
8.412402999999999
 21
1.231838999999999
 31
0.0
  0
LINE
  5
E4
330
4A1
100
AcDbEntity
  8
1
100
AcDbLine
 10
8.412402999999999
 20
1.231838999999999
 30
0.0
 11
8.364907
 21
1.226882
 31
0.0
  0
LINE
  5
E5
330
4A1
100
AcDbEntity
  8
1
100
AcDbLine
 10
8.364907
 20
1.226882
 30
0.0
 11
8.3168
 21
1.222627
 31
0.0
  0
LINE
  5
E6
330
4A1
100
AcDbEntity
  8
1
100
AcDbLine
 10
8.3168
 20
1.222627
 30
0.0
 11
8.268317999999998
 21
1.219041999999999
 31
0.0
  0
LINE
  5
E7
330
4A1
100
AcDbEntity
  8
1
100
AcDbLine
 10
7.996554999999999
 20
-6.942700999999999
 30
0.0
 11
7.948761999999999
 21
-6.94678
 31
0.0
  0
LINE
  5
E8
330
4A1
100
AcDbEntity
  8
1
100
AcDbLine
 10
8.219302
 20
1.216067999999999
 30
0.0
 11
8.170009
 21
1.213795
 31
0.0
  0
LINE
  5
E9
330
4A1
100
AcDbEntity
  8
1
100
AcDbLine
 10
8.170009
 20
1.213795
 30
0.0
 11
8.120502
 21
1.21218
 31
0.0
  0
LINE
  5
EA
330
4A1
100
AcDbEntity
  8
1
100
AcDbLine
 10
8.120502
 20
1.21218
 30
0.0
 11
8.070796000000001
 21
1.211168
 31
0.0
  0
LINE
  5
EB
330
4A1
100
AcDbEntity
  8
1
100
AcDbLine
 10
8.070796000000001
 20
1.211168
 30
0.0
 11
8.021078999999998
 21
1.21082
 31
0.0
  0
LINE
  5
EC
330
4A1
100
AcDbEntity
  8
1
100
AcDbLine
 10
8.684537999999999
 20
-5.613482
 30
0.0
 11
8.716917999999999
 21
-5.630821
 31
0.0
  0
LINE
  5
ED
330
4A1
100
AcDbEntity
  8
1
100
AcDbLine
 10
8.021078999999998
 20
1.21082
 30
0.0
 11
7.971366999999999
 21
1.211092
 31
0.0
  0
LINE
  5
EE
330
4A1
100
AcDbEntity
  8
1
100
AcDbLine
 10
7.971366999999999
 20
1.211092
 30
0.0
 11
7.921721999999999
 21
1.211926999999999
 31
0.0
  0
LINE
  5
EF
330
4A1
100
AcDbEntity
  8
1
100
AcDbLine
 10
7.872402
 20
1.213361
 30
0.0
 11
7.823492999999999
 21
1.215345
 31
0.0
  0
LINE
  5
F0
330
4A1
100
AcDbEntity
  8
1
100
AcDbLine
 10
7.823492999999999
 20
1.215345
 30
0.0
 11
7.774986
 21
1.21782
 31
0.0
  0
LINE
  5
F1
330
4A1
100
AcDbEntity
  8
1
100
AcDbLine
 10
7.774986
 20
1.21782
 30
0.0
 11
7.726990999999999
 21
1.220806999999999
 31
0.0
  0
LINE
  5
F2
330
4A1
100
AcDbEntity
  8
1
100
AcDbLine
 10
7.726990999999999
 20
1.220806999999999
 30
0.0
 11
7.679547
 21
1.224256999999999
 31
0.0
  0
LINE
  5
F3
330
4A1
100
AcDbEntity
  8
1
100
AcDbLine
 10
7.679547
 20
1.224256999999999
 30
0.0
 11
7.632686999999999
 21
1.228116999999999
 31
0.0
  0
LINE
  5
F4
330
4A1
100
AcDbEntity
  8
1
100
AcDbLine
 10
7.586505999999999
 20
1.232397999999999
 30
0.0
 11
7.541066999999999
 21
1.237049
 31
0.0
  0
LINE
  5
F5
330
4A1
100
AcDbEntity
  8
1
100
AcDbLine
 10
7.541066999999999
 20
1.237049
 30
0.0
 11
7.496372
 21
1.242022999999999
 31
0.0
  0
LINE
  5
F6
330
4A1
100
AcDbEntity
  8
1
100
AcDbLine
 10
7.496372
 20
1.242022999999999
 30
0.0
 11
7.452425999999999
 21
1.247337999999999
 31
0.0
  0
LINE
  5
F7
330
4A1
100
AcDbEntity
  8
1
100
AcDbLine
 10
7.452425999999999
 20
1.247337999999999
 30
0.0
 11
7.409242999999999
 21
1.252950999999999
 31
0.0
  0
LINE
  5
F8
330
4A1
100
AcDbEntity
  8
1
100
AcDbLine
 10
7.409242999999999
 20
1.252950999999999
 30
0.0
 11
7.366871
 21
1.258812
 31
0.0
  0
LINE
  5
F9
330
4A1
100
AcDbEntity
  8
1
100
AcDbLine
 10
7.366871
 20
1.258812
 30
0.0
 11
7.325366999999999
 21
1.264936
 31
0.0
  0
LINE
  5
FA
330
4A1
100
AcDbEntity
  8
1
100
AcDbLine
 10
7.325366999999999
 20
1.264936
 30
0.0
 11
7.284758999999999
 21
1.271279
 31
0.0
  0
LINE
  5
FB
330
4A1
100
AcDbEntity
  8
1
100
AcDbLine
 10
7.284758999999999
 20
1.271279
 30
0.0
 11
7.245078999999999
 21
1.277795999999999
 31
0.0
  0
LINE
  5
FC
330
4A1
100
AcDbEntity
  8
1
100
AcDbLine
 10
7.245078999999999
 20
1.277795999999999
 30
0.0
 11
7.206396
 21
1.284499999999999
 31
0.0
  0
LINE
  5
FD
330
4A1
100
AcDbEntity
  8
1
100
AcDbLine
 10
7.206396
 20
1.284499999999999
 30
0.0
 11
7.16868
 21
1.291366
 31
0.0
  0
LINE
  5
FE
330
4A1
100
AcDbEntity
  8
1
100
AcDbLine
 10
7.16868
 20
1.291366
 30
0.0
 11
7.132019
 21
1.298332
 31
0.0
  0
LINE
  5
FF
330
4A1
100
AcDbEntity
  8
1
100
AcDbLine
 10
7.132019
 20
1.298332
 30
0.0
 11
7.096658
 21
1.305370999999999
 31
0.0
  0
LINE
  5
100
330
4A1
100
AcDbEntity
  8
1
100
AcDbLine
 10
7.096658
 20
1.305370999999999
 30
0.0
 11
7.062655
 21
1.312448999999999
 31
0.0
  0
LINE
  5
101
330
4A1
100
AcDbEntity
  8
1
100
AcDbLine
 10
7.062655
 20
1.312448999999999
 30
0.0
 11
7.029986999999999
 21
1.319529999999999
 31
0.0
  0
LINE
  5
102
330
4A1
100
AcDbEntity
  8
1
100
AcDbLine
 10
7.029986999999999
 20
1.319529999999999
 30
0.0
 11
6.998755
 21
1.326597999999999
 31
0.0
  0
LINE
  5
103
330
4A1
100
AcDbEntity
  8
1
100
AcDbLine
 10
6.998755
 20
1.326597999999999
 30
0.0
 11
6.968971
 21
1.333633999999999
 31
0.0
  0
LINE
  5
104
330
4A1
100
AcDbEntity
  8
1
100
AcDbLine
 10
6.968971
 20
1.333633999999999
 30
0.0
 11
6.940641999999999
 21
1.340606999999999
 31
0.0
  0
LINE
  5
105
330
4A1
100
AcDbEntity
  8
1
100
AcDbLine
 10
6.940641999999999
 20
1.340606999999999
 30
0.0
 11
6.913858
 21
1.347480999999999
 31
0.0
  0
LINE
  5
106
330
4A1
100
AcDbEntity
  8
1
100
AcDbLine
 10
6.913858
 20
1.347480999999999
 30
0.0
 11
6.888653999999998
 21
1.354241999999999
 31
0.0
  0
LINE
  5
107
330
4A1
100
AcDbEntity
  8
1
100
AcDbLine
 10
6.888653999999998
 20
1.354241999999999
 30
0.0
 11
6.864991
 21
1.360883999999999
 31
0.0
  0
LINE
  5
108
330
4A1
100
AcDbEntity
  8
1
100
AcDbLine
 10
6.864991
 20
1.360883999999999
 30
0.0
 11
6.842844999999999
 21
1.367391
 31
0.0
  0
LINE
  5
109
330
4A1
100
AcDbEntity
  8
1
100
AcDbLine
 10
6.842844999999999
 20
1.367391
 30
0.0
 11
6.822194
 21
1.373766
 31
0.0
  0
LINE
  5
10A
330
4A1
100
AcDbEntity
  8
1
100
AcDbLine
 10
6.822194
 20
1.373766
 30
0.0
 11
6.803047999999999
 21
1.379996
 31
0.0
  0
LINE
  5
10B
330
4A1
100
AcDbEntity
  8
1
100
AcDbLine
 10
6.803047999999999
 20
1.379996
 30
0.0
 11
6.785419999999999
 21
1.386039999999999
 31
0.0
  0
LINE
  5
10C
330
4A1
100
AcDbEntity
  8
1
100
AcDbLine
 10
6.785419999999999
 20
1.386039999999999
 30
0.0
 11
6.769294999999999
 21
1.391920999999999
 31
0.0
  0
LINE
  5
10D
330
4A1
100
AcDbEntity
  8
1
100
AcDbLine
 10
6.769294999999999
 20
1.391920999999999
 30
0.0
 11
6.754658
 21
1.397629
 31
0.0
  0
LINE
  5
10E
330
4A1
100
AcDbEntity
  8
1
100
AcDbLine
 10
6.754658
 20
1.397629
 30
0.0
 11
6.741508
 21
1.403095999999999
 31
0.0
  0
LINE
  5
10F
330
4A1
100
AcDbEntity
  8
1
100
AcDbLine
 10
6.741508
 20
1.403095999999999
 30
0.0
 11
6.729821
 21
1.408315999999999
 31
0.0
  0
LINE
  5
110
330
4A1
100
AcDbEntity
  8
1
100
AcDbLine
 10
6.729821
 20
1.408315999999999
 30
0.0
 11
6.719561999999999
 21
1.413349
 31
0.0
  0
LINE
  5
111
330
4A1
100
AcDbEntity
  8
1
100
AcDbLine
 10
6.719561999999999
 20
1.413349
 30
0.0
 11
6.710702999999999
 21
1.418220999999999
 31
0.0
  0
LINE
  5
112
330
4A1
100
AcDbEntity
  8
1
100
AcDbLine
 10
9.15939
 20
-2.39744
 30
0.0
 11
8.565317999999999
 21
-2.60469
 31
0.0
  0
LINE
  5
113
330
4A1
100
AcDbEntity
  8
1
100
AcDbLine
 10
8.565317999999999
 20
-2.60469
 30
0.0
 11
7.96595
 21
-2.811306999999999
 31
0.0
  0
LINE
  5
114
330
4A1
100
AcDbEntity
  8
1
100
AcDbLine
 10
7.96595
 20
-2.811306999999999
 30
0.0
 11
7.362538999999999
 21
-3.016806
 31
0.0
  0
LINE
  5
115
330
4A1
100
AcDbEntity
  8
1
100
AcDbLine
 10
7.362538999999999
 20
-3.016806
 30
0.0
 11
6.755033999999999
 21
-3.221192999999999
 31
0.0
  0
LINE
  5
116
330
4A1
100
AcDbEntity
  8
1
100
AcDbLine
 10
6.755033999999999
 20
-3.221192999999999
 30
0.0
 11
6.143487
 21
-3.424460999999999
 31
0.0
  0
LINE
  5
117
330
4A1
100
AcDbEntity
  8
1
100
AcDbLine
 10
6.143487
 20
-3.424460999999999
 30
0.0
 11
5.529310999999999
 21
-3.626105
 31
0.0
  0
LINE
  5
118
330
4A1
100
AcDbEntity
  8
1
100
AcDbLine
 10
5.529310999999999
 20
-3.626105
 30
0.0
 11
4.912975
 21
-3.825956999999999
 31
0.0
  0
LINE
  5
119
330
4A1
100
AcDbEntity
  8
1
100
AcDbLine
 10
4.912975
 20
-3.825956999999999
 30
0.0
 11
4.29401
 21
-4.024182999999999
 31
0.0
  0
LINE
  5
11A
330
4A1
100
AcDbEntity
  8
1
100
AcDbLine
 10
4.29401
 20
-4.024182999999999
 30
0.0
 11
3.672413999999999
 21
-4.220787
 31
0.0
  0
LINE
  5
11B
330
4A1
100
AcDbEntity
  8
1
100
AcDbLine
 10
10.089626
 20
1.219520999999999
 30
0.0
 11
9.950966000000001
 21
1.185481999999999
 31
0.0
  0
LINE
  5
11C
330
4A1
100
AcDbEntity
  8
1
100
AcDbLine
 10
9.950966000000001
 20
1.185481999999999
 30
0.0
 11
9.811427999999999
 21
1.155051999999999
 31
0.0
  0
LINE
  5
11D
330
4A1
100
AcDbEntity
  8
1
100
AcDbLine
 10
9.811427999999999
 20
1.155051999999999
 30
0.0
 11
9.671011
 21
1.128237
 31
0.0
  0
LINE
  5
11E
330
4A1
100
AcDbEntity
  8
1
100
AcDbLine
 10
9.671011
 20
1.128237
 30
0.0
 11
9.529742
 21
1.105112
 31
0.0
  0
LINE
  5
11F
330
4A1
100
AcDbEntity
  8
1
100
AcDbLine
 10
9.529742
 20
1.105112
 30
0.0
 11
9.387596
 21
1.085609999999999
 31
0.0
  0
LINE
  5
120
330
4A1
100
AcDbEntity
  8
1
100
AcDbLine
 10
9.387596
 20
1.085609999999999
 30
0.0
 11
9.244488999999999
 21
1.069511
 31
0.0
  0
LINE
  5
121
330
4A1
100
AcDbEntity
  8
1
100
AcDbLine
 10
9.244488999999999
 20
1.069511
 30
0.0
 11
9.100427999999999
 21
1.056807999999999
 31
0.0
  0
LINE
  5
122
330
4A1
100
AcDbEntity
  8
1
100
AcDbLine
 10
9.100427999999999
 20
1.056807999999999
 30
0.0
 11
8.955408
 21
1.047511999999999
 31
0.0
  0
LINE
  5
123
330
4A1
100
AcDbEntity
  8
1
100
AcDbLine
 10
8.955408
 20
1.047511999999999
 30
0.0
 11
8.809324999999999
 21
1.041435
 31
0.0
  0
LINE
  5
124
330
4A1
100
AcDbEntity
  8
1
100
AcDbLine
 10
8.809324999999999
 20
1.041435
 30
0.0
 11
8.662296000000001
 21
1.038556
 31
0.0
  0
LINE
  5
125
330
4A1
100
AcDbEntity
  8
1
100
AcDbLine
 10
8.662296000000001
 20
1.038556
 30
0.0
 11
8.514205
 21
1.038895999999999
 31
0.0
  0
LINE
  5
126
330
4A1
100
AcDbEntity
  8
1
100
AcDbLine
 10
8.514205
 20
1.038895999999999
 30
0.0
 11
8.364605
 21
1.042326
 31
0.0
  0
LINE
  5
127
330
4A1
100
AcDbEntity
  8
1
100
AcDbLine
 10
8.364605
 20
1.042326
 30
0.0
 11
8.213452
 21
1.048818
 31
0.0
  0
LINE
  5
128
330
4A1
100
AcDbEntity
  8
1
100
AcDbLine
 10
8.213452
 20
1.048818
 30
0.0
 11
8.060789999999999
 21
1.058400999999999
 31
0.0
  0
LINE
  5
129
330
4A1
100
AcDbEntity
  8
1
100
AcDbLine
 10
5.510487
 20
8.959155
 30
0.0
 11
5.318369
 21
8.979881999999999
 31
0.0
  0
LINE
  5
12A
330
4A1
100
AcDbEntity
  8
1
100
AcDbLine
 10
8.060789999999999
 20
1.058400999999999
 30
0.0
 11
7.906299999999999
 21
1.071021
 31
0.0
  0
LINE
  5
12B
330
4A1
100
AcDbEntity
  8
1
100
AcDbLine
 10
7.906299999999999
 20
1.071021
 30
0.0
 11
7.749947999999999
 21
1.086665999999999
 31
0.0
  0
LINE
  5
12C
330
4A1
100
AcDbEntity
  8
1
100
AcDbLine
 10
7.749947999999999
 20
1.086665999999999
 30
0.0
 11
7.591767999999999
 21
1.105345
 31
0.0
  0
LINE
  5
12D
330
4A1
100
AcDbEntity
  8
1
100
AcDbLine
 10
9.100427999999999
 20
8.765485999999999
 30
0.0
 11
8.955408
 21
8.761727999999999
 31
0.0
  0
LINE
  5
12E
330
4A1
100
AcDbEntity
  8
1
100
AcDbLine
 10
7.591767999999999
 20
1.105345
 30
0.0
 11
7.431544
 21
1.127038999999999
 31
0.0
  0
LINE
  5
12F
330
4A1
100
AcDbEntity
  8
1
100
AcDbLine
 10
7.431544
 20
1.127038999999999
 30
0.0
 11
7.269294
 21
1.151730999999999
 31
0.0
  0
LINE
  5
130
330
4A1
100
AcDbEntity
  8
1
100
AcDbLine
 10
7.269294
 20
1.151730999999999
 30
0.0
 11
7.105
 21
1.179432
 31
0.0
  0
LINE
  5
131
330
4A1
100
AcDbEntity
  8
1
100
AcDbLine
 10
7.105
 20
1.179432
 30
0.0
 11
6.938391
 21
1.210153
 31
0.0
  0
LINE
  5
132
330
4A1
100
AcDbEntity
  8
1
100
AcDbLine
 10
6.938391
 20
1.210153
 30
0.0
 11
6.769532
 21
1.243862999999999
 31
0.0
  0
LINE
  5
133
330
4A1
100
AcDbEntity
  8
1
100
AcDbLine
 10
6.769532
 20
1.243862999999999
 30
0.0
 11
6.598358999999999
 21
1.280583
 31
0.0
  0
LINE
  5
134
330
4A1
100
AcDbEntity
  8
1
100
AcDbLine
 10
6.598358999999999
 20
1.280583
 30
0.0
 11
6.424404
 21
1.3204
 31
0.0
  0
LINE
  5
135
330
4A1
100
AcDbEntity
  8
1
100
AcDbLine
 10
6.424404
 20
1.3204
 30
0.0
 11
6.247622999999999
 21
1.363305999999999
 31
0.0
  0
LINE
  5
136
330
4A1
100
AcDbEntity
  8
1
100
AcDbLine
 10
6.247622999999999
 20
1.363305999999999
 30
0.0
 11
6.068061
 21
1.409295
 31
0.0
  0
LINE
  5
137
330
4A1
100
AcDbEntity
  8
1
100
AcDbLine
 10
6.068061
 20
1.409295
 30
0.0
 11
5.885387
 21
1.45845
 31
0.0
  0
LINE
  5
138
330
4A1
100
AcDbEntity
  8
1
100
AcDbLine
 10
5.885387
 20
1.45845
 30
0.0
 11
5.699493
 21
1.510791999999999
 31
0.0
  0
LINE
  5
139
330
4A1
100
AcDbEntity
  8
1
100
AcDbLine
 10
5.699493
 20
1.510791999999999
 30
0.0
 11
5.510487
 21
1.566279999999999
 31
0.0
  0
LINE
  5
13A
330
4A1
100
AcDbEntity
  8
1
100
AcDbLine
 10
9.15939
 20
-9.222208
 30
0.0
 11
8.565317999999999
 21
-9.277212999999999
 31
0.0
  0
LINE
  5
13B
330
4A1
100
AcDbEntity
  8
1
100
AcDbLine
 10
8.565317999999999
 20
-9.277212999999999
 30
0.0
 11
7.96595
 21
-9.327747999999999
 31
0.0
  0
LINE
  5
13C
330
4A1
100
AcDbEntity
  8
1
100
AcDbLine
 10
7.96595
 20
-9.327747999999999
 30
0.0
 11
7.362538999999999
 21
-9.373599
 31
0.0
  0
LINE
  5
13D
330
4A1
100
AcDbEntity
  8
1
100
AcDbLine
 10
6.755033999999999
 20
-9.414749
 30
0.0
 11
6.143487
 21
-9.451216
 31
0.0
  0
LINE
  5
13E
330
4A1
100
AcDbEntity
  8
1
100
AcDbLine
 10
6.143487
 20
-9.451216
 30
0.0
 11
5.529310999999999
 21
-9.482841999999999
 31
0.0
  0
LINE
  5
13F
330
4A1
100
AcDbEntity
  8
1
100
AcDbLine
 10
5.529310999999999
 20
-9.482841999999999
 30
0.0
 11
4.912975
 21
-9.509577999999999
 31
0.0
  0
LINE
  5
140
330
4A1
100
AcDbEntity
  8
1
100
AcDbLine
 10
4.29401
 20
-9.531474000000001
 30
0.0
 11
3.672413999999999
 21
-9.548529999999999
 31
0.0
  0
LINE
  5
141
330
4A1
100
AcDbEntity
  8
1
100
AcDbLine
 10
10.089626
 20
-7.610441999999999
 30
0.0
 11
9.950966000000001
 21
-7.631196
 31
0.0
  0
LINE
  5
142
330
4A1
100
AcDbEntity
  8
1
100
AcDbLine
 10
9.950966000000001
 20
-7.631196
 30
0.0
 11
9.811427
 21
-7.649657
 31
0.0
  0
LINE
  5
143
330
4A1
100
AcDbEntity
  8
1
100
AcDbLine
 10
9.811427
 20
-7.649657
 30
0.0
 11
9.671011
 21
-7.665855
 31
0.0
  0
LINE
  5
144
330
4A1
100
AcDbEntity
  8
1
100
AcDbLine
 10
9.671011
 20
-7.665855
 30
0.0
 11
9.529742
 21
-7.679769999999999
 31
0.0
  0
LINE
  5
145
330
4A1
100
AcDbEntity
  8
1
100
AcDbLine
 10
9.529742
 20
-7.679769999999999
 30
0.0
 11
9.387596
 21
-7.691467999999999
 31
0.0
  0
LINE
  5
146
330
4A1
100
AcDbEntity
  8
1
100
AcDbLine
 10
9.387596
 20
-7.691467999999999
 30
0.0
 11
9.244488999999999
 21
-7.701096999999999
 31
0.0
  0
LINE
  5
147
330
4A1
100
AcDbEntity
  8
1
100
AcDbLine
 10
9.244488999999999
 20
-7.701096999999999
 30
0.0
 11
9.100427999999999
 21
-7.708678999999999
 31
0.0
  0
LINE
  5
148
330
4A1
100
AcDbEntity
  8
1
100
AcDbLine
 10
9.100427999999999
 20
-7.708678999999999
 30
0.0
 11
8.955408
 21
-7.714216
 31
0.0
  0
LINE
  5
149
330
4A1
100
AcDbEntity
  8
1
100
AcDbLine
 10
8.955408
 20
-7.714216
 30
0.0
 11
8.809324999999999
 21
-7.717833999999999
 31
0.0
  0
LINE
  5
14A
330
4A1
100
AcDbEntity
  8
1
100
AcDbLine
 10
8.809324999999999
 20
-7.717833999999999
 30
0.0
 11
8.662296000000001
 21
-7.719545
 31
0.0
  0
LINE
  5
14B
330
4A1
100
AcDbEntity
  8
1
100
AcDbLine
 10
8.514205
 20
-7.719342999999999
 30
0.0
 11
8.364605
 21
-7.717303
 31
0.0
  0
LINE
  5
14C
330
4A1
100
AcDbEntity
  8
1
100
AcDbLine
 10
8.364605
 20
-7.717303
 30
0.0
 11
8.213452
 21
-7.713439
 31
0.0
  0
LINE
  5
14D
330
4A1
100
AcDbEntity
  8
1
100
AcDbLine
 10
8.213452
 20
-7.713439
 30
0.0
 11
8.060789999999999
 21
-7.707727999999999
 31
0.0
  0
LINE
  5
14E
330
4A1
100
AcDbEntity
  8
1
100
AcDbLine
 10
8.060789999999999
 20
-7.707727999999999
 30
0.0
 11
7.906299999999999
 21
-7.700194999999999
 31
0.0
  0
LINE
  5
14F
330
4A1
100
AcDbEntity
  8
1
100
AcDbLine
 10
7.906299999999999
 20
-7.700194999999999
 30
0.0
 11
7.749947999999999
 21
-7.690835
 31
0.0
  0
LINE
  5
150
330
4A1
100
AcDbEntity
  8
1
100
AcDbLine
 10
7.749947999999999
 20
-7.690835
 30
0.0
 11
7.591767999999999
 21
-7.67963
 31
0.0
  0
LINE
  5
151
330
4A1
100
AcDbEntity
  8
1
100
AcDbLine
 10
7.591767999999999
 20
-7.67963
 30
0.0
 11
7.431544
 21
-7.666577999999999
 31
0.0
  0
LINE
  5
152
330
4A1
100
AcDbEntity
  8
1
100
AcDbLine
 10
7.431544
 20
-7.666577999999999
 30
0.0
 11
7.269294
 21
-7.651666999999999
 31
0.0
  0
LINE
  5
153
330
4A1
100
AcDbEntity
  8
1
100
AcDbLine
 10
7.269294
 20
-7.651666999999999
 30
0.0
 11
7.105
 21
-7.634872
 31
0.0
  0
LINE
  5
154
330
4A1
100
AcDbEntity
  8
1
100
AcDbLine
 10
7.105
 20
-7.634872
 30
0.0
 11
6.938391
 21
-7.616164999999999
 31
0.0
  0
LINE
  5
155
330
4A1
100
AcDbEntity
  8
1
100
AcDbLine
 10
6.938391
 20
-7.616164999999999
 30
0.0
 11
6.769532
 21
-7.595536
 31
0.0
  0
LINE
  5
156
330
4A1
100
AcDbEntity
  8
1
100
AcDbLine
 10
6.769532
 20
-7.595536
 30
0.0
 11
6.598358999999999
 21
-7.572942999999999
 31
0.0
  0
LINE
  5
157
330
4A1
100
AcDbEntity
  8
1
100
AcDbLine
 10
6.598358999999999
 20
-7.572942999999999
 30
0.0
 11
6.424404
 21
-7.548306
 31
0.0
  0
LINE
  5
158
330
4A1
100
AcDbEntity
  8
1
100
AcDbLine
 10
6.424404
 20
-7.548306
 30
0.0
 11
6.247622999999999
 21
-7.521590999999999
 31
0.0
  0
LINE
  5
159
330
4A1
100
AcDbEntity
  8
1
100
AcDbLine
 10
6.247622999999999
 20
-7.521590999999999
 30
0.0
 11
6.068061
 21
-7.492764999999999
 31
0.0
  0
LINE
  5
15A
330
4A1
100
AcDbEntity
  8
1
100
AcDbLine
 10
6.068061
 20
-7.492764999999999
 30
0.0
 11
5.885387
 21
-7.461736999999999
 31
0.0
  0
LINE
  5
15B
330
4A1
100
AcDbEntity
  8
1
100
AcDbLine
 10
5.885387
 20
-7.461736999999999
 30
0.0
 11
5.699493
 21
-7.428447
 31
0.0
  0
LINE
  5
15C
330
4A1
100
AcDbEntity
  8
1
100
AcDbLine
 10
5.699493
 20
-7.428447
 30
0.0
 11
5.510487
 21
-7.392875
 31
0.0
  0
LINE
  5
15D
330
4A1
100
AcDbEntity
  8
1
100
AcDbLine
 10
5.510487
 20
-7.392875
 30
0.0
 11
5.318369
 21
-7.354978999999999
 31
0.0
  0
LINE
  5
15E
330
4A1
100
AcDbEntity
  8
1
100
AcDbLine
 10
8.251241
 20
-6.896697
 30
0.0
 11
8.235101
 21
-6.900857000000001
 31
0.0
  0
LINE
  5
15F
330
4A1
100
AcDbEntity
  8
1
100
AcDbLine
 10
8.235101
 20
-6.900857000000001
 30
0.0
 11
8.187774
 21
-6.912061
 31
0.0
  0
LINE
  5
160
330
4A1
100
AcDbEntity
  8
1
100
AcDbLine
 10
8.187774
 20
-6.912061
 30
0.0
 11
8.140138
 21
-6.921864999999999
 31
0.0
  0
LINE
  5
161
330
4A1
100
AcDbEntity
  8
1
100
AcDbLine
 10
8.140138
 20
-6.921864999999999
 30
0.0
 11
8.092369999999998
 21
-6.930235999999999
 31
0.0
  0
LINE
  5
162
330
4A1
100
AcDbEntity
  8
1
100
AcDbLine
 10
8.092369999999998
 20
-6.930235999999999
 30
0.0
 11
8.044494
 21
-6.937178999999999
 31
0.0
  0
LINE
  5
163
330
4A1
100
AcDbEntity
  8
1
100
AcDbLine
 10
8.044494
 20
-6.937178999999999
 30
0.0
 11
7.996554999999999
 21
-6.942700999999999
 31
0.0
  0
LINE
  5
164
330
4A1
100
AcDbEntity
  8
1
100
AcDbLine
 10
7.948761999999999
 20
-6.94678
 30
0.0
 11
7.901161
 21
-6.949432
 31
0.0
  0
LINE
  5
165
330
4A1
100
AcDbEntity
  8
1
100
AcDbLine
 10
7.901161
 20
-6.949432
 30
0.0
 11
7.853777
 21
-6.950682
 31
0.0
  0
LINE
  5
166
330
4A1
100
AcDbEntity
  8
1
100
AcDbLine
 10
7.853777
 20
-6.950682
 30
0.0
 11
7.806786999999999
 21
-6.950528
 31
0.0
  0
LINE
  5
167
330
4A1
100
AcDbEntity
  8
1
100
AcDbLine
 10
7.806786999999999
 20
-6.950528
 30
0.0
 11
7.760257000000001
 21
-6.949002
 31
0.0
  0
LINE
  5
168
330
4A1
100
AcDbEntity
  8
1
100
AcDbLine
 10
7.760257000000001
 20
-6.949002
 30
0.0
 11
7.714189
 21
-6.946136999999999
 31
0.0
  0
LINE
  5
169
330
4A1
100
AcDbEntity
  8
1
100
AcDbLine
 10
7.714189
 20
-6.946136999999999
 30
0.0
 11
7.668663999999999
 21
-6.941944999999999
 31
0.0
  0
LINE
  5
16A
330
4A1
100
AcDbEntity
  8
1
100
AcDbLine
 10
7.668663999999999
 20
-6.941944999999999
 30
0.0
 11
7.623723
 21
-6.93646
 31
0.0
  0
LINE
  5
16B
330
4A1
100
AcDbEntity
  8
1
100
AcDbLine
 10
7.623723
 20
-6.93646
 30
0.0
 11
7.579386999999999
 21
-6.929717
 31
0.0
  0
LINE
  5
16C
330
4A1
100
AcDbEntity
  8
1
100
AcDbLine
 10
7.579386999999999
 20
-6.929717
 30
0.0
 11
7.53571
 21
-6.92173
 31
0.0
  0
LINE
  5
16D
330
4A1
100
AcDbEntity
  8
1
100
AcDbLine
 10
7.53571
 20
-6.92173
 30
0.0
 11
7.492732000000001
 21
-6.912535
 31
0.0
  0
LINE
  5
16E
330
4A1
100
AcDbEntity
  8
1
100
AcDbLine
 10
7.45047
 20
-6.902166999999999
 30
0.0
 11
7.408938
 21
-6.890627999999999
 31
0.0
  0
LINE
  5
16F
330
4A1
100
AcDbEntity
  8
1
100
AcDbLine
 10
7.408938
 20
-6.890627999999999
 30
0.0
 11
7.368155
 21
-6.877950999999999
 31
0.0
  0
LINE
  5
170
330
4A1
100
AcDbEntity
  8
1
100
AcDbLine
 10
7.368155
 20
-6.877950999999999
 30
0.0
 11
7.328157
 21
-6.864169999999999
 31
0.0
  0
LINE
  5
171
330
4A1
100
AcDbEntity
  8
1
100
AcDbLine
 10
7.328157
 20
-6.864169999999999
 30
0.0
 11
7.288988999999999
 21
-6.849294
 31
0.0
  0
LINE
  5
172
330
4A1
100
AcDbEntity
  8
1
100
AcDbLine
 10
7.288988999999999
 20
-6.849294
 30
0.0
 11
7.250658
 21
-6.833346999999999
 31
0.0
  0
LINE
  5
173
330
4A1
100
AcDbEntity
  8
1
100
AcDbLine
 10
7.250658
 20
-6.833346999999999
 30
0.0
 11
7.213210000000001
 21
-6.816374999999999
 31
0.0
  0
LINE
  5
174
330
4A1
100
AcDbEntity
  8
1
100
AcDbLine
 10
7.213210000000001
 20
-6.816374999999999
 30
0.0
 11
7.176753999999998
 21
-6.798413
 31
0.0
  0
LINE
  5
175
330
4A1
100
AcDbEntity
  8
1
100
AcDbLine
 10
7.176753999999998
 20
-6.798413
 30
0.0
 11
7.141275
 21
-6.779476999999999
 31
0.0
  0
LINE
  5
176
330
4A1
100
AcDbEntity
  8
1
100
AcDbLine
 10
7.141275
 20
-6.779476999999999
 30
0.0
 11
7.106833999999999
 21
-6.759633
 31
0.0
  0
LINE
  5
177
330
4A1
100
AcDbEntity
  8
1
100
AcDbLine
 10
7.106833999999999
 20
-6.759633
 30
0.0
 11
7.073646
 21
-6.739007
 31
0.0
  0
LINE
  5
178
330
4A1
100
AcDbEntity
  8
1
100
AcDbLine
 10
7.073646
 20
-6.739007
 30
0.0
 11
7.041765999999999
 21
-6.717672
 31
0.0
  0
LINE
  5
179
330
4A1
100
AcDbEntity
  8
1
100
AcDbLine
 10
7.041765999999999
 20
-6.717672
 30
0.0
 11
7.011163
 21
-6.695661999999999
 31
0.0
  0
LINE
  5
17A
330
4A1
100
AcDbEntity
  8
1
100
AcDbLine
 10
7.011163
 20
-6.695661999999999
 30
0.0
 11
6.98191
 21
-6.673058
 31
0.0
  0
LINE
  5
17B
330
4A1
100
AcDbEntity
  8
1
100
AcDbLine
 10
6.98191
 20
-6.673058
 30
0.0
 11
6.954007999999999
 21
-6.649897999999999
 31
0.0
  0
LINE
  5
17C
330
4A1
100
AcDbEntity
  8
1
100
AcDbLine
 10
6.954007999999999
 20
-6.649897999999999
 30
0.0
 11
6.927469
 21
-6.626249999999999
 31
0.0
  0
LINE
  5
17D
330
4A1
100
AcDbEntity
  8
1
100
AcDbLine
 10
6.927469
 20
-6.626249999999999
 30
0.0
 11
6.902371
 21
-6.602230999999999
 31
0.0
  0
LINE
  5
17E
330
4A1
100
AcDbEntity
  8
1
100
AcDbLine
 10
6.902371
 20
-6.602230999999999
 30
0.0
 11
6.878746
 21
-6.577925999999999
 31
0.0
  0
LINE
  5
17F
330
4A1
100
AcDbEntity
  8
1
100
AcDbLine
 10
6.878746
 20
-6.577925999999999
 30
0.0
 11
6.856553999999999
 21
-6.553355999999999
 31
0.0
  0
LINE
  5
180
330
4A1
100
AcDbEntity
  8
1
100
AcDbLine
 10
6.856553999999999
 20
-6.553355999999999
 30
0.0
 11
6.83576
 21
-6.528557
 31
0.0
  0
LINE
  5
181
330
4A1
100
AcDbEntity
  8
1
100
AcDbLine
 10
6.83576
 20
-6.528557
 30
0.0
 11
6.816339
 21
-6.50354
 31
0.0
  0
LINE
  5
182
330
4A1
100
AcDbEntity
  8
1
100
AcDbLine
 10
6.816339
 20
-6.50354
 30
0.0
 11
6.798307
 21
-6.478383
 31
0.0
  0
LINE
  5
183
330
4A1
100
AcDbEntity
  8
1
100
AcDbLine
 10
6.798307
 20
-6.478383
 30
0.0
 11
6.781683
 21
-6.453216
 31
0.0
  0
LINE
  5
184
330
4A1
100
AcDbEntity
  8
1
100
AcDbLine
 10
6.781683
 20
-6.453216
 30
0.0
 11
6.766453999999999
 21
-6.428062
 31
0.0
  0
LINE
  5
185
330
4A1
100
AcDbEntity
  8
1
100
AcDbLine
 10
6.766453999999999
 20
-6.428062
 30
0.0
 11
6.752606
 21
-6.40298
 31
0.0
  0
LINE
  5
186
330
4A1
100
AcDbEntity
  8
1
100
AcDbLine
 10
6.752606
 20
-6.40298
 30
0.0
 11
6.740130999999999
 21
-6.378158999999999
 31
0.0
  0
LINE
  5
187
330
4A1
100
AcDbEntity
  8
1
100
AcDbLine
 10
6.740130999999999
 20
-6.378158999999999
 30
0.0
 11
6.729008999999999
 21
-6.353684999999999
 31
0.0
  0
LINE
  5
188
330
4A1
100
AcDbEntity
  8
1
100
AcDbLine
 10
6.729008999999999
 20
-6.353684999999999
 30
0.0
 11
6.719208
 21
-6.329537999999999
 31
0.0
  0
LINE
  5
189
330
4A1
100
AcDbEntity
  8
1
100
AcDbLine
 10
6.719208
 20
-6.329537999999999
 30
0.0
 11
6.710702999999999
 21
-6.305742999999999
 31
0.0
  0
LINE
  5
18A
330
4A1
100
AcDbEntity
  8
1
100
AcDbLine
 10
5.318369
 20
-7.354978999999999
 30
0.0
 11
5.195033
 21
-7.216813
 31
0.0
  0
LINE
  5
18B
330
4A1
100
AcDbEntity
  8
1
100
AcDbLine
 10
5.195033
 20
-7.216813
 30
0.0
 11
5.075423
 21
-7.073685
 31
0.0
  0
LINE
  5
18C
330
4A1
100
AcDbEntity
  8
1
100
AcDbLine
 10
5.075423
 20
-7.073685
 30
0.0
 11
4.95954
 21
-6.925564999999999
 31
0.0
  0
LINE
  5
18D
330
4A1
100
AcDbEntity
  8
1
100
AcDbLine
 10
4.95954
 20
-6.925564999999999
 30
0.0
 11
4.847391
 21
-6.772249999999999
 31
0.0
  0
LINE
  5
18E
330
4A1
100
AcDbEntity
  8
1
100
AcDbLine
 10
4.847391
 20
-6.772249999999999
 30
0.0
 11
4.738968999999999
 21
-6.613886999999999
 31
0.0
  0
LINE
  5
18F
330
4A1
100
AcDbEntity
  8
1
100
AcDbLine
 10
4.738968999999999
 20
-6.613886999999999
 30
0.0
 11
4.634252
 21
-6.451012
 31
0.0
  0
LINE
  5
190
330
4A1
100
AcDbEntity
  8
1
100
AcDbLine
 10
4.634252
 20
-6.451012
 30
0.0
 11
4.533230999999999
 21
-6.283671
 31
0.0
  0
LINE
  5
191
330
4A1
100
AcDbEntity
  8
1
100
AcDbLine
 10
4.533230999999999
 20
-6.283671
 30
0.0
 11
4.435915
 21
-6.111876
 31
0.0
  0
LINE
  5
192
330
4A1
100
AcDbEntity
  8
1
100
AcDbLine
 10
4.435915
 20
-6.111876
 30
0.0
 11
4.342312
 21
-5.936186
 31
0.0
  0
LINE
  5
193
330
4A1
100
AcDbEntity
  8
1
100
AcDbLine
 10
4.342312
 20
-5.936186
 30
0.0
 11
4.252399999999999
 21
-5.756683999999999
 31
0.0
  0
LINE
  5
194
330
4A1
100
AcDbEntity
  8
1
100
AcDbLine
 10
4.252399999999999
 20
-5.756683999999999
 30
0.0
 11
4.166201
 21
-5.57343
 31
0.0
  0
LINE
  5
195
330
4A1
100
AcDbEntity
  8
1
100
AcDbLine
 10
4.166201
 20
-5.57343
 30
0.0
 11
4.083789
 21
-5.387005999999999
 31
0.0
  0
LINE
  5
196
330
4A1
100
AcDbEntity
  8
1
100
AcDbLine
 10
4.083789
 20
-5.387005999999999
 30
0.0
 11
4.005062999999999
 21
-5.197277999999999
 31
0.0
  0
LINE
  5
197
330
4A1
100
AcDbEntity
  8
1
100
AcDbLine
 10
4.005062999999999
 20
-5.197277999999999
 30
0.0
 11
3.930123
 21
-5.004583999999999
 31
0.0
  0
LINE
  5
198
330
4A1
100
AcDbEntity
  8
1
100
AcDbLine
 10
3.930123
 20
-5.004583999999999
 30
0.0
 11
3.859351
 21
-4.810297
 31
0.0
  0
LINE
  5
199
330
4A1
100
AcDbEntity
  8
1
100
AcDbLine
 10
3.859351
 20
-4.810297
 30
0.0
 11
3.792872
 21
-4.615005
 31
0.0
  0
LINE
  5
19A
330
4A1
100
AcDbEntity
  8
1
100
AcDbLine
 10
3.792872
 20
-4.615005
 30
0.0
 11
3.730559999999999
 21
-4.418449999999999
 31
0.0
  0
LINE
  5
19B
330
4A1
100
AcDbEntity
  8
1
100
AcDbLine
 10
3.730559999999999
 20
-4.418449999999999
 30
0.0
 11
3.672413999999999
 21
-4.220787
 31
0.0
  0
LINE
  5
19C
330
4A1
100
AcDbEntity
  8
1
100
AcDbLine
 10
0.0
 20
-9.569893999999999
 30
0.0
 11
3.850466
 21
-9.569893999999999
 31
0.0
  0
LINE
  5
19D
330
4A1
100
AcDbEntity
  8
1
100
AcDbLine
 10
6.710702999999999
 20
-6.305742999999999
 30
0.0
 11
6.716255
 21
-6.28769
 31
0.0
  0
LINE
  5
19E
330
4A1
100
AcDbEntity
  8
1
100
AcDbLine
 10
6.716255
 20
-6.28769
 30
0.0
 11
6.722158
 21
-6.269562
 31
0.0
  0
LINE
  5
19F
330
4A1
100
AcDbEntity
  8
1
100
AcDbLine
 10
9.023872
 20
-5.907287999999999
 30
0.0
 11
9.034110999999999
 21
-5.925562999999999
 31
0.0
  0
LINE
  5
1A0
330
4A1
100
AcDbEntity
  8
1
100
AcDbLine
 10
6.722158
 20
-6.269562
 30
0.0
 11
6.728411999999999
 21
-6.25136
 31
0.0
  0
LINE
  5
1A1
330
4A1
100
AcDbEntity
  8
1
100
AcDbLine
 10
6.728411999999999
 20
-6.25136
 30
0.0
 11
6.735017999999999
 21
-6.233076
 31
0.0
  0
LINE
  5
1A2
330
4A1
100
AcDbEntity
  8
1
100
AcDbLine
 10
6.735017999999999
 20
-6.233076
 30
0.0
 11
6.741977
 21
-6.214719
 31
0.0
  0
LINE
  5
1A3
330
4A1
100
AcDbEntity
  8
1
100
AcDbLine
 10
6.741977
 20
-6.214719
 30
0.0
 11
6.749292999999998
 21
-6.19632
 31
0.0
  0
LINE
  5
1A4
330
4A1
100
AcDbEntity
  8
1
100
AcDbLine
 10
6.749292999999998
 20
-6.19632
 30
0.0
 11
6.756966999999999
 21
-6.177891
 31
0.0
  0
LINE
  5
1A5
330
4A1
100
AcDbEntity
  8
1
100
AcDbLine
 10
6.756966999999999
 20
-6.177891
 30
0.0
 11
6.764999999999999
 21
-6.159421
 31
0.0
  0
LINE
  5
1A6
330
4A1
100
AcDbEntity
  8
1
100
AcDbLine
 10
6.764999999999999
 20
-6.159421
 30
0.0
 11
6.773392999999999
 21
-6.140912999999999
 31
0.0
  0
LINE
  5
1A7
330
4A1
100
AcDbEntity
  8
1
100
AcDbLine
 10
6.710702999999999
 20
-6.305742999999999
 30
0.0
 11
6.582096
 21
-6.387229
 31
0.0
  0
LINE
  5
1A8
330
4A1
100
AcDbEntity
  8
1
100
AcDbLine
 10
6.582096
 20
-6.387229
 30
0.0
 11
6.455499999999999
 21
-6.469991
 31
0.0
  0
LINE
  5
1A9
330
4A1
100
AcDbEntity
  8
1
100
AcDbLine
 10
6.455499999999999
 20
-6.469991
 30
0.0
 11
6.331001
 21
-6.553972999999999
 31
0.0
  0
LINE
  5
1AA
330
4A1
100
AcDbEntity
  8
1
100
AcDbLine
 10
6.331001
 20
-6.553972999999999
 30
0.0
 11
6.208683
 21
-6.639116
 31
0.0
  0
LINE
  5
1AB
330
4A1
100
AcDbEntity
  8
1
100
AcDbLine
 10
6.208683
 20
-6.639116
 30
0.0
 11
6.088631999999999
 21
-6.725363999999999
 31
0.0
  0
LINE
  5
1AC
330
4A1
100
AcDbEntity
  8
1
100
AcDbLine
 10
6.088631999999999
 20
-6.725363999999999
 30
0.0
 11
5.970926999999999
 21
-6.812655999999999
 31
0.0
  0
LINE
  5
1AD
330
4A1
100
AcDbEntity
  8
1
100
AcDbLine
 10
5.970926999999999
 20
-6.812655999999999
 30
0.0
 11
5.855649999999999
 21
-6.900935
 31
0.0
  0
LINE
  5
1AE
330
4A1
100
AcDbEntity
  8
1
100
AcDbLine
 10
5.855649999999999
 20
-6.900935
 30
0.0
 11
5.742879
 21
-6.990138
 31
0.0
  0
LINE
  5
1AF
330
4A1
100
AcDbEntity
  8
1
100
AcDbLine
 10
5.742879
 20
-6.990138
 30
0.0
 11
5.632691
 21
-7.080205999999999
 31
0.0
  0
LINE
  5
1B0
330
4A1
100
AcDbEntity
  8
1
100
AcDbLine
 10
9.392774000000001
 20
1.809539
 30
0.0
 11
9.255899000000001
 21
1.770911999999999
 31
0.0
  0
LINE
  5
1B1
330
4A1
100
AcDbEntity
  8
1
100
AcDbLine
 10
5.632691
 20
-7.080205999999999
 30
0.0
 11
5.525161999999999
 21
-7.171075999999999
 31
0.0
  0
LINE
  5
1B2
330
4A1
100
AcDbEntity
  8
1
100
AcDbLine
 10
5.525161999999999
 20
-7.171075999999999
 30
0.0
 11
5.420364
 21
-7.262688
 31
0.0
  0
LINE
  5
1B3
330
4A1
100
AcDbEntity
  8
1
100
AcDbLine
 10
5.420364
 20
-7.262688
 30
0.0
 11
5.318369
 21
-7.354978999999999
 31
0.0
  0
LINE
  5
1B4
330
4A1
100
AcDbEntity
  8
1
100
AcDbLine
 10
3.850466
 20
-9.569893999999999
 30
0.0
 11
3.828962
 21
-9.569625
 31
0.0
  0
LINE
  5
1B5
330
4A1
100
AcDbEntity
  8
1
100
AcDbLine
 10
3.828962
 20
-9.569625
 30
0.0
 11
3.807885999999999
 21
-9.56882
 31
0.0
  0
LINE
  5
1B6
330
4A1
100
AcDbEntity
  8
1
100
AcDbLine
 10
3.807885999999999
 20
-9.56882
 30
0.0
 11
3.787241
 21
-9.567482
 31
0.0
  0
LINE
  5
1B7
330
4A1
100
AcDbEntity
  8
1
100
AcDbLine
 10
3.787241
 20
-9.567482
 30
0.0
 11
3.767024999999999
 21
-9.565616999999999
 31
0.0
  0
LINE
  5
1B8
330
4A1
100
AcDbEntity
  8
1
100
AcDbLine
 10
3.767024999999999
 20
-9.565616999999999
 30
0.0
 11
3.747238999999999
 21
-9.563228999999999
 31
0.0
  0
LINE
  5
1B9
330
4A1
100
AcDbEntity
  8
1
100
AcDbLine
 10
3.747238999999999
 20
-9.563228999999999
 30
0.0
 11
3.727884999999999
 21
-9.560319999999999
 31
0.0
  0
LINE
  5
1BA
330
4A1
100
AcDbEntity
  8
1
100
AcDbLine
 10
3.727884999999999
 20
-9.560319999999999
 30
0.0
 11
3.708962999999999
 21
-9.556898
 31
0.0
  0
LINE
  5
1BB
330
4A1
100
AcDbEntity
  8
1
100
AcDbLine
 10
3.708962999999999
 20
-9.556898
 30
0.0
 11
3.690473
 21
-9.552967
 31
0.0
  0
LINE
  5
1BC
330
4A1
100
AcDbEntity
  8
1
100
AcDbLine
 10
3.690473
 20
-9.552967
 30
0.0
 11
3.672413999999999
 21
-9.548529999999999
 31
0.0
  0
LINE
  5
1BD
330
4A1
100
AcDbEntity
  8
1
100
AcDbLine
 10
4.113272
 20
-9.536433
 30
0.0
 11
4.075317
 21
-9.545238000000001
 31
0.0
  0
LINE
  5
1BE
330
4A1
100
AcDbEntity
  8
1
100
AcDbLine
 10
4.075317
 20
-9.545238000000001
 30
0.0
 11
3.996539999999999
 21
-9.55893
 31
0.0
  0
LINE
  5
1BF
330
4A1
100
AcDbEntity
  8
1
100
AcDbLine
 10
3.996539999999999
 20
-9.55893
 30
0.0
 11
3.921588999999999
 21
-9.567152
 31
0.0
  0
LINE
  5
1C0
330
4A1
100
AcDbEntity
  8
1
100
AcDbLine
 10
3.921588999999999
 20
-9.567152
 30
0.0
 11
3.850466
 21
-9.569893999999999
 31
0.0
  0
LINE
  5
1C1
330
4A1
100
AcDbEntity
  8
1
100
AcDbLine
 10
6.710702999999999
 20
1.418220999999999
 30
0.0
 11
6.716255
 21
1.430034999999999
 31
0.0
  0
LINE
  5
1C2
330
4A1
100
AcDbEntity
  8
1
100
AcDbLine
 10
6.716255
 20
1.430034999999999
 30
0.0
 11
6.722158
 21
1.441751
 31
0.0
  0
LINE
  5
1C3
330
4A1
100
AcDbEntity
  8
1
100
AcDbLine
 10
6.722158
 20
1.441751
 30
0.0
 11
6.728411999999999
 21
1.453373
 31
0.0
  0
LINE
  5
1C4
330
4A1
100
AcDbEntity
  8
1
100
AcDbLine
 10
6.728411999999999
 20
1.453373
 30
0.0
 11
6.735017999999999
 21
1.464909999999999
 31
0.0
  0
LINE
  5
1C5
330
4A1
100
AcDbEntity
  8
1
100
AcDbLine
 10
6.735017999999999
 20
1.464909999999999
 30
0.0
 11
6.741977
 21
1.476354
 31
0.0
  0
LINE
  5
1C6
330
4A1
100
AcDbEntity
  8
1
100
AcDbLine
 10
6.741977
 20
1.476354
 30
0.0
 11
6.749292999999998
 21
1.487683
 31
0.0
  0
LINE
  5
1C7
330
4A1
100
AcDbEntity
  8
1
100
AcDbLine
 10
6.749292999999998
 20
1.487683
 30
0.0
 11
6.756966999999999
 21
1.498887
 31
0.0
  0
LINE
  5
1C8
330
4A1
100
AcDbEntity
  8
1
100
AcDbLine
 10
6.756966999999999
 20
1.498887
 30
0.0
 11
6.764999999999999
 21
1.509979
 31
0.0
  0
LINE
  5
1C9
330
4A1
100
AcDbEntity
  8
1
100
AcDbLine
 10
6.764999999999999
 20
1.509979
 30
0.0
 11
6.773392999999999
 21
1.520958999999999
 31
0.0
  0
LINE
  5
1CA
330
4A1
100
AcDbEntity
  8
1
100
AcDbLine
 10
6.773392999999999
 20
1.520958999999999
 30
0.0
 11
6.791361
 21
1.542703
 31
0.0
  0
LINE
  5
1CB
330
4A1
100
AcDbEntity
  8
1
100
AcDbLine
 10
6.791361
 20
1.542703
 30
0.0
 11
6.810864999999999
 21
1.563800999999999
 31
0.0
  0
LINE
  5
1CC
330
4A1
100
AcDbEntity
  8
1
100
AcDbLine
 10
6.810864999999999
 20
1.563800999999999
 30
0.0
 11
6.831914999999999
 21
1.584265999999999
 31
0.0
  0
LINE
  5
1CD
330
4A1
100
AcDbEntity
  8
1
100
AcDbLine
 10
6.831914999999999
 20
1.584265999999999
 30
0.0
 11
6.851933999999999
 21
1.601980999999999
 31
0.0
  0
LINE
  5
1CE
330
4A1
100
AcDbEntity
  8
1
100
AcDbLine
 10
5.379762
 20
1.605933999999999
 30
0.0
 11
5.318369
 21
1.624904
 31
0.0
  0
LINE
  5
1CF
330
4A1
100
AcDbEntity
  8
1
100
AcDbLine
 10
6.710702999999999
 20
1.418220999999999
 30
0.0
 11
6.582096
 21
1.421881999999999
 31
0.0
  0
LINE
  5
1D0
330
4A1
100
AcDbEntity
  8
1
100
AcDbLine
 10
6.582096
 20
1.421881999999999
 30
0.0
 11
6.455499999999999
 21
1.428036999999999
 31
0.0
  0
LINE
  5
1D1
330
4A1
100
AcDbEntity
  8
1
100
AcDbLine
 10
6.455499999999999
 20
1.428036999999999
 30
0.0
 11
6.331001
 21
1.436678999999999
 31
0.0
  0
LINE
  5
1D2
330
4A1
100
AcDbEntity
  8
1
100
AcDbLine
 10
6.331001
 20
1.436678999999999
 30
0.0
 11
6.208683
 21
1.447803
 31
0.0
  0
LINE
  5
1D3
330
4A1
100
AcDbEntity
  8
1
100
AcDbLine
 10
6.208683
 20
1.447803
 30
0.0
 11
6.088631999999999
 21
1.461402999999999
 31
0.0
  0
LINE
  5
1D4
330
4A1
100
AcDbEntity
  8
1
100
AcDbLine
 10
6.088631999999999
 20
1.461402999999999
 30
0.0
 11
5.970926999999999
 21
1.477468
 31
0.0
  0
LINE
  5
1D5
330
4A1
100
AcDbEntity
  8
1
100
AcDbLine
 10
5.970926999999999
 20
1.477468
 30
0.0
 11
5.855649999999999
 21
1.495987
 31
0.0
  0
LINE
  5
1D6
330
4A1
100
AcDbEntity
  8
1
100
AcDbLine
 10
5.855649999999999
 20
1.495987
 30
0.0
 11
5.742879
 21
1.516948999999999
 31
0.0
  0
LINE
  5
1D7
330
4A1
100
AcDbEntity
  8
1
100
AcDbLine
 10
5.742879
 20
1.516948999999999
 30
0.0
 11
5.632691
 21
1.540338
 31
0.0
  0
LINE
  5
1D8
330
4A1
100
AcDbEntity
  8
1
100
AcDbLine
 10
5.632691
 20
1.540338
 30
0.0
 11
5.525161999999999
 21
1.566138999999999
 31
0.0
  0
LINE
  5
1D9
330
4A1
100
AcDbEntity
  8
1
100
AcDbLine
 10
5.525161999999999
 20
1.566138999999999
 30
0.0
 11
5.420364
 21
1.594333999999999
 31
0.0
  0
LINE
  5
1DA
330
4A1
100
AcDbEntity
  8
1
100
AcDbLine
 10
5.420364
 20
1.594333999999999
 30
0.0
 11
5.379857
 21
1.606304999999999
 31
0.0
  0
LINE
  5
1DB
330
4A1
100
AcDbEntity
  8
1
100
AcDbLine
 10
14.0
 20
-7.593658
 30
0.0
 11
14.0
 21
-3.43533
 31
0.0
  0
LINE
  5
1DC
330
4A1
100
AcDbEntity
  8
1
100
AcDbLine
 10
9.039761
 20
-2.531089
 30
0.0
 11
9.037990999999999
 21
-2.626068
 31
0.0
  0
LINE
  5
1DD
330
4A1
100
AcDbEntity
  8
1
100
AcDbLine
 10
9.037990999999999
 20
-2.626068
 30
0.0
 11
9.041392999999999
 21
-2.721824
 31
0.0
  0
LINE
  5
1DE
330
4A1
100
AcDbEntity
  8
1
100
AcDbLine
 10
9.041392999999999
 20
-2.721824
 30
0.0
 11
9.049965999999999
 21
-2.818367999999999
 31
0.0
  0
LINE
  5
1DF
330
4A1
100
AcDbEntity
  8
1
100
AcDbLine
 10
9.049965999999999
 20
-2.818367999999999
 30
0.0
 11
9.063538000000001
 21
-2.916263999999999
 31
0.0
  0
LINE
  5
1E0
330
4A1
100
AcDbEntity
  8
1
100
AcDbLine
 10
9.304857999999999
 20
-4.246827999999999
 30
0.0
 11
9.239891999999999
 21
-4.045151999999999
 31
0.0
  0
LINE
  5
1E1
330
4A1
100
AcDbEntity
  8
1
100
AcDbLine
 10
9.063538000000001
 20
-2.916263999999999
 30
0.0
 11
9.082281
 21
-3.014966999999999
 31
0.0
  0
LINE
  5
1E2
330
4A1
100
AcDbEntity
  8
1
100
AcDbLine
 10
9.082281
 20
-3.014966999999999
 30
0.0
 11
9.106713
 21
-3.112849
 31
0.0
  0
LINE
  5
1E3
330
4A1
100
AcDbEntity
  8
1
100
AcDbLine
 10
9.106713
 20
-3.112849
 30
0.0
 11
9.137119999999999
 21
-3.209845
 31
0.0
  0
LINE
  5
1E4
330
4A1
100
AcDbEntity
  8
1
100
AcDbLine
 10
9.137119999999999
 20
-3.209845
 30
0.0
 11
9.173216
 21
-3.306077999999999
 31
0.0
  0
LINE
  5
1E5
330
4A1
100
AcDbEntity
  8
1
100
AcDbLine
 10
9.173216
 20
-3.306077999999999
 30
0.0
 11
9.214648
 21
-3.400226
 31
0.0
  0
LINE
  5
1E6
330
4A1
100
AcDbEntity
  8
1
100
AcDbLine
 10
9.214648
 20
-3.400226
 30
0.0
 11
9.261503999999998
 21
-3.492016999999999
 31
0.0
  0
LINE
  5
1E7
330
4A1
100
AcDbEntity
  8
1
100
AcDbLine
 10
9.261503999999998
 20
-3.492016999999999
 30
0.0
 11
9.313696999999999
 21
-3.581795999999999
 31
0.0
  0
LINE
  5
1E8
330
4A1
100
AcDbEntity
  8
1
100
AcDbLine
 10
6.247622999999999
 20
8.884896000000001
 30
0.0
 11
6.068061
 21
8.90206
 31
0.0
  0
LINE
  5
1E9
330
4A1
100
AcDbEntity
  8
1
100
AcDbLine
 10
9.313696999999999
 20
-3.581795999999999
 30
0.0
 11
9.370618999999999
 21
-3.669179
 31
0.0
  0
LINE
  5
1EA
330
4A1
100
AcDbEntity
  8
1
100
AcDbLine
 10
9.370618999999999
 20
-3.669179
 30
0.0
 11
9.432216
 21
-3.754023
 31
0.0
  0
LINE
  5
1EB
330
4A1
100
AcDbEntity
  8
1
100
AcDbLine
 10
9.432216
 20
-3.754023
 30
0.0
 11
9.498541000000001
 21
-3.836539
 31
0.0
  0
LINE
  5
1EC
330
4A1
100
AcDbEntity
  8
1
100
AcDbLine
 10
9.498541000000001
 20
-3.836539
 30
0.0
 11
9.569155
 21
-3.916854
 31
0.0
  0
LINE
  5
1ED
330
4A1
100
AcDbEntity
  8
1
100
AcDbLine
 10
9.569155
 20
-3.916854
 30
0.0
 11
9.644169999999999
 21
-3.99508
 31
0.0
  0
LINE
  5
1EE
330
4A1
100
AcDbEntity
  8
1
100
AcDbLine
 10
9.644169999999999
 20
-3.99508
 30
0.0
 11
9.723472000000001
 21
-4.071162999999999
 31
0.0
  0
LINE
  5
1EF
330
4A1
100
AcDbEntity
  8
1
100
AcDbLine
 10
9.723472000000001
 20
-4.071162999999999
 30
0.0
 11
9.80628
 21
-4.144969999999999
 31
0.0
  0
LINE
  5
1F0
330
4A1
100
AcDbEntity
  8
1
100
AcDbLine
 10
9.80628
 20
-4.144969999999999
 30
0.0
 11
9.892661999999999
 21
-4.216510999999999
 31
0.0
  0
LINE
  5
1F1
330
4A1
100
AcDbEntity
  8
1
100
AcDbLine
 10
9.892661999999999
 20
-4.216510999999999
 30
0.0
 11
9.982547999999999
 21
-4.285822
 31
0.0
  0
LINE
  5
1F2
330
4A1
100
AcDbEntity
  8
1
100
AcDbLine
 10
9.982547999999999
 20
-4.285822
 30
0.0
 11
10.074945
 21
-4.352794
 31
0.0
  0
LINE
  5
1F3
330
4A1
100
AcDbEntity
  8
1
100
AcDbLine
 10
10.074945
 20
-4.352794
 30
0.0
 11
10.169521
 21
-4.417400999999999
 31
0.0
  0
LINE
  5
1F4
330
4A1
100
AcDbEntity
  8
1
100
AcDbLine
 10
10.169521
 20
-4.417400999999999
 30
0.0
 11
10.266607
 21
-4.479699
 31
0.0
  0
LINE
  5
1F5
330
4A1
100
AcDbEntity
  8
1
100
AcDbLine
 10
10.266607
 20
-4.479699
 30
0.0
 11
10.366203
 21
-4.539701999999999
 31
0.0
  0
LINE
  5
1F6
330
4A1
100
AcDbEntity
  8
1
100
AcDbLine
 10
9.566202999999999
 20
-5.034062999999999
 30
0.0
 11
9.500638
 21
-4.840151999999999
 31
0.0
  0
LINE
  5
1F7
330
4A1
100
AcDbEntity
  8
1
100
AcDbLine
 10
9.500638
 20
-4.840151999999999
 30
0.0
 11
9.43523
 21
-4.644327999999999
 31
0.0
  0
LINE
  5
1F8
330
4A1
100
AcDbEntity
  8
1
100
AcDbLine
 10
9.43523
 20
-4.644327999999999
 30
0.0
 11
9.369982
 21
-4.44659
 31
0.0
  0
LINE
  5
1F9
330
4A1
100
AcDbEntity
  8
1
100
AcDbLine
 10
9.369982
 20
-4.44659
 30
0.0
 11
9.304857999999999
 21
-4.246827999999999
 31
0.0
  0
LINE
  5
1FA
330
4A1
100
AcDbEntity
  8
1
100
AcDbLine
 10
9.239891999999999
 20
-4.045151999999999
 30
0.0
 11
9.175190999999999
 21
-3.841893
 31
0.0
  0
LINE
  5
1FB
330
4A1
100
AcDbEntity
  8
1
100
AcDbLine
 10
9.175190999999999
 20
-3.841893
 30
0.0
 11
9.110755000000001
 21
-3.637049999999999
 31
0.0
  0
LINE
  5
1FC
330
4A1
100
AcDbEntity
  8
1
100
AcDbLine
 10
9.110755000000001
 20
-3.637049999999999
 30
0.0
 11
9.046583999999999
 21
-3.430623
 31
0.0
  0
LINE
  5
1FD
330
4A1
100
AcDbEntity
  8
1
100
AcDbLine
 10
9.046583999999999
 20
-3.430623
 30
0.0
 11
8.982778999999998
 21
-3.222944
 31
0.0
  0
LINE
  5
1FE
330
4A1
100
AcDbEntity
  8
1
100
AcDbLine
 10
8.982778999999998
 20
-3.222944
 30
0.0
 11
8.919374000000001
 21
-3.014123
 31
0.0
  0
LINE
  5
1FF
330
4A1
100
AcDbEntity
  8
1
100
AcDbLine
 10
8.919374000000001
 20
-3.014123
 30
0.0
 11
8.856334
 21
-2.804050999999999
 31
0.0
  0
LINE
  5
200
330
4A1
100
AcDbEntity
  8
1
100
AcDbLine
 10
8.856334
 20
-2.804050999999999
 30
0.0
 11
8.793661
 21
-2.592725999999999
 31
0.0
  0
LINE
  5
201
330
4A1
100
AcDbEntity
  8
1
100
AcDbLine
 10
13.110896
 20
-4.007673
 30
0.0
 11
12.654922
 21
-4.153761
 31
0.0
  0
LINE
  5
202
330
4A1
100
AcDbEntity
  8
1
100
AcDbLine
 10
12.654922
 20
-4.153761
 30
0.0
 11
12.198358
 21
-4.298748
 31
0.0
  0
LINE
  5
203
330
4A1
100
AcDbEntity
  8
1
100
AcDbLine
 10
12.198358
 20
-4.298748
 30
0.0
 11
11.741204
 21
-4.442635
 31
0.0
  0
LINE
  5
204
330
4A1
100
AcDbEntity
  8
1
100
AcDbLine
 10
11.741204
 20
-4.442635
 30
0.0
 11
11.283461
 21
-4.585422
 31
0.0
  0
LINE
  5
205
330
4A1
100
AcDbEntity
  8
1
100
AcDbLine
 10
11.283461
 20
-4.585422
 30
0.0
 11
10.825127
 21
-4.727108
 31
0.0
  0
LINE
  5
206
330
4A1
100
AcDbEntity
  8
1
100
AcDbLine
 10
10.825127
 20
-4.727108
 30
0.0
 11
10.366203
 21
-4.867693
 31
0.0
  0
LINE
  5
207
330
4A1
100
AcDbEntity
  8
1
100
AcDbLine
 10
12.998294
 20
-3.70128
 30
0.0
 11
12.561361
 21
-3.843050999999999
 31
0.0
  0
LINE
  5
208
330
4A1
100
AcDbEntity
  8
1
100
AcDbLine
 10
12.561361
 20
-3.843050999999999
 30
0.0
 11
12.123729
 21
-3.984056999999999
 31
0.0
  0
LINE
  5
209
330
4A1
100
AcDbEntity
  8
1
100
AcDbLine
 10
12.123729
 20
-3.984056999999999
 30
0.0
 11
11.685397
 21
-4.124259999999999
 31
0.0
  0
LINE
  5
20A
330
4A1
100
AcDbEntity
  8
1
100
AcDbLine
 10
11.685397
 20
-4.124259999999999
 30
0.0
 11
11.246366
 21
-4.263626999999999
 31
0.0
  0
LINE
  5
20B
330
4A1
100
AcDbEntity
  8
1
100
AcDbLine
 10
11.246366
 20
-4.263626999999999
 30
0.0
 11
10.806634
 21
-4.402118999999999
 31
0.0
  0
LINE
  5
20C
330
4A1
100
AcDbEntity
  8
1
100
AcDbLine
 10
10.806634
 20
-4.402118999999999
 30
0.0
 11
10.366203
 21
-4.539701999999999
 31
0.0
  0
LINE
  5
20D
330
4A1
100
AcDbEntity
  8
1
100
AcDbLine
 10
14.0
 20
-4.390178999999999
 30
0.0
 11
14.5
 21
-4.545827
 31
0.0
  0
LINE
  5
20E
330
4A1
100
AcDbEntity
  8
1
100
AcDbLine
 10
9.039761
 20
-9.417113
 30
0.0
 11
9.442638999999999
 21
-9.378702
 31
0.0
  0
LINE
  5
20F
330
4A1
100
AcDbEntity
  8
1
100
AcDbLine
 10
9.442638999999999
 20
-9.378702
 30
0.0
 11
9.842753
 21
-9.338319999999999
 31
0.0
  0
LINE
  5
210
330
4A1
100
AcDbEntity
  8
1
100
AcDbLine
 10
9.842753
 20
-9.338319999999999
 30
0.0
 11
10.240101
 21
-9.295966999999999
 31
0.0
  0
LINE
  5
211
330
4A1
100
AcDbEntity
  8
1
100
AcDbLine
 10
10.240101
 20
-9.295966999999999
 30
0.0
 11
10.634695
 21
-9.251627
 31
0.0
  0
LINE
  5
212
330
4A1
100
AcDbEntity
  8
1
100
AcDbLine
 10
10.634695
 20
-9.251627
 30
0.0
 11
11.026525
 21
-9.205318
 31
0.0
  0
LINE
  5
213
330
4A1
100
AcDbEntity
  8
1
100
AcDbLine
 10
11.026525
 20
-9.205318
 30
0.0
 11
11.415558
 21
-9.15709
 31
0.0
  0
LINE
  5
214
330
4A1
100
AcDbEntity
  8
1
100
AcDbLine
 10
11.415558
 20
-9.15709
 30
0.0
 11
11.801784
 21
-9.10696
 31
0.0
  0
LINE
  5
215
330
4A1
100
AcDbEntity
  8
1
100
AcDbLine
 10
11.801784
 20
-9.10696
 30
0.0
 11
12.185213
 21
-9.054911
 31
0.0
  0
LINE
  5
216
330
4A1
100
AcDbEntity
  8
1
100
AcDbLine
 10
12.185213
 20
-9.054911
 30
0.0
 11
12.565846
 21
-9.000942999999999
 31
0.0
  0
LINE
  5
217
330
4A1
100
AcDbEntity
  8
1
100
AcDbLine
 10
12.6
 20
-7.185055999999999
 30
0.0
 11
12.327299
 21
-7.233766
 31
0.0
  0
LINE
  5
218
330
4A1
100
AcDbEntity
  8
1
100
AcDbLine
 10
12.327299
 20
-7.233766
 30
0.0
 11
12.053026
 21
-7.282117999999999
 31
0.0
  0
LINE
  5
219
330
4A1
100
AcDbEntity
  8
1
100
AcDbLine
 10
11.49974
 20
-7.377764999999999
 30
0.0
 11
11.220728
 21
-7.425057
 31
0.0
  0
LINE
  5
21A
330
4A1
100
AcDbEntity
  8
1
100
AcDbLine
 10
11.220728
 20
-7.425057
 30
0.0
 11
10.940205
 21
-7.471972
 31
0.0
  0
LINE
  5
21B
330
4A1
100
AcDbEntity
  8
1
100
AcDbLine
 10
10.940205
 20
-7.471972
 30
0.0
 11
10.65819
 21
-7.518505999999999
 31
0.0
  0
LINE
  5
21C
330
4A1
100
AcDbEntity
  8
1
100
AcDbLine
 10
10.65819
 20
-7.518505999999999
 30
0.0
 11
10.374663
 21
-7.564661999999999
 31
0.0
  0
LINE
  5
21D
330
4A1
100
AcDbEntity
  8
1
100
AcDbLine
 10
10.374663
 20
-7.564661999999999
 30
0.0
 11
10.089626
 21
-7.610441999999999
 31
0.0
  0
LINE
  5
21E
330
4A1
100
AcDbEntity
  8
1
100
AcDbLine
 10
12.6
 20
-8.801075
 30
0.0
 11
12.042608
 21
-8.881788
 31
0.0
  0
LINE
  5
21F
330
4A1
100
AcDbEntity
  8
1
100
AcDbLine
 10
12.042608
 20
-8.881788
 30
0.0
 11
11.478798
 21
-8.958291
 31
0.0
  0
LINE
  5
220
330
4A1
100
AcDbEntity
  8
1
100
AcDbLine
 10
10.908572
 20
-9.030583999999999
 30
0.0
 11
10.331555
 21
-9.098755
 31
0.0
  0
LINE
  5
221
330
4A1
100
AcDbEntity
  8
1
100
AcDbLine
 10
10.331555
 20
-9.098755
 30
0.0
 11
9.748121000000001
 21
-9.162717
 31
0.0
  0
LINE
  5
222
330
4A1
100
AcDbEntity
  8
1
100
AcDbLine
 10
9.748121000000001
 20
-9.162717
 30
0.0
 11
9.15939
 21
-9.222208
 31
0.0
  0
LINE
  5
223
330
4A1
100
AcDbEntity
  8
1
100
AcDbLine
 10
10.366203
 20
-4.539701999999999
 30
0.0
 11
10.366203
 21
-4.867693
 31
0.0
  0
LINE
  5
224
330
4A1
100
AcDbEntity
  8
1
100
AcDbLine
 10
9.086182
 20
-6.161185999999999
 30
0.0
 11
9.084481
 21
-6.180423
 31
0.0
  0
LINE
  5
225
330
4A1
100
AcDbEntity
  8
1
100
AcDbLine
 10
8.214427
 20
-5.416892999999999
 30
0.0
 11
8.235238
 21
-5.427772
 31
0.0
  0
LINE
  5
226
330
4A1
100
AcDbEntity
  8
1
100
AcDbLine
 10
9.084481
 20
-6.180423
 30
0.0
 11
9.081824000000001
 21
-6.200041999999999
 31
0.0
  0
LINE
  5
227
330
4A1
100
AcDbEntity
  8
1
100
AcDbLine
 10
9.081824000000001
 20
-6.200041999999999
 30
0.0
 11
9.078194999999999
 21
-6.220023
 31
0.0
  0
LINE
  5
228
330
4A1
100
AcDbEntity
  8
1
100
AcDbLine
 10
9.078194999999999
 20
-6.220023
 30
0.0
 11
9.073596
 21
-6.240355999999999
 31
0.0
  0
LINE
  5
229
330
4A1
100
AcDbEntity
  8
1
100
AcDbLine
 10
9.073596
 20
-6.240355999999999
 30
0.0
 11
9.067992999999999
 21
-6.261008999999999
 31
0.0
  0
LINE
  5
22A
330
4A1
100
AcDbEntity
  8
1
100
AcDbLine
 10
9.067992999999999
 20
-6.261008999999999
 30
0.0
 11
9.061325
 21
-6.281932
 31
0.0
  0
LINE
  5
22B
330
4A1
100
AcDbEntity
  8
1
100
AcDbLine
 10
9.061325
 20
-6.281932
 30
0.0
 11
9.05357
 21
-6.303100999999999
 31
0.0
  0
LINE
  5
22C
330
4A1
100
AcDbEntity
  8
1
100
AcDbLine
 10
9.05357
 20
-6.303100999999999
 30
0.0
 11
9.044722999999999
 21
-6.324492
 31
0.0
  0
LINE
  5
22D
330
4A1
100
AcDbEntity
  8
1
100
AcDbLine
 10
9.044722999999999
 20
-6.324492
 30
0.0
 11
9.03475
 21
-6.346057
 31
0.0
  0
LINE
  5
22E
330
4A1
100
AcDbEntity
  8
1
100
AcDbLine
 10
9.03475
 20
-6.346057
 30
0.0
 11
9.023661999999999
 21
-6.367723
 31
0.0
  0
LINE
  5
22F
330
4A1
100
AcDbEntity
  8
1
100
AcDbLine
 10
9.023661999999999
 20
-6.367723
 30
0.0
 11
9.011427000000001
 21
-6.389510999999999
 31
0.0
  0
LINE
  5
230
330
4A1
100
AcDbEntity
  8
1
100
AcDbLine
 10
9.011427000000001
 20
-6.389510999999999
 30
0.0
 11
8.997944
 21
-6.411502999999999
 31
0.0
  0
LINE
  5
231
330
4A1
100
AcDbEntity
  8
1
100
AcDbLine
 10
8.997944
 20
-6.411502999999999
 30
0.0
 11
8.983182000000001
 21
-6.43369
 31
0.0
  0
LINE
  5
232
330
4A1
100
AcDbEntity
  8
1
100
AcDbLine
 10
8.983182000000001
 20
-6.43369
 30
0.0
 11
8.967140999999999
 21
-6.456011
 31
0.0
  0
LINE
  5
233
330
4A1
100
AcDbEntity
  8
1
100
AcDbLine
 10
8.967140999999999
 20
-6.456011
 30
0.0
 11
8.949760000000001
 21
-6.47846
 31
0.0
  0
LINE
  5
234
330
4A1
100
AcDbEntity
  8
1
100
AcDbLine
 10
8.949760000000001
 20
-6.47846
 30
0.0
 11
8.931021000000001
 21
-6.500998
 31
0.0
  0
LINE
  5
235
330
4A1
100
AcDbEntity
  8
1
100
AcDbLine
 10
8.931021000000001
 20
-6.500998
 30
0.0
 11
8.910911999999999
 21
-6.523583
 31
0.0
  0
LINE
  5
236
330
4A1
100
AcDbEntity
  8
1
100
AcDbLine
 10
8.910911999999999
 20
-6.523583
 30
0.0
 11
8.889386999999999
 21
-6.546196
 31
0.0
  0
LINE
  5
237
330
4A1
100
AcDbEntity
  8
1
100
AcDbLine
 10
8.889386999999999
 20
-6.546196
 30
0.0
 11
8.866457
 21
-6.568764999999999
 31
0.0
  0
LINE
  5
238
330
4A1
100
AcDbEntity
  8
1
100
AcDbLine
 10
8.866457
 20
-6.568764999999999
 30
0.0
 11
8.842083
 21
-6.591269
 31
0.0
  0
LINE
  5
239
330
4A1
100
AcDbEntity
  8
1
100
AcDbLine
 10
8.842083
 20
-6.591269
 30
0.0
 11
8.816138999999999
 21
-6.613755999999999
 31
0.0
  0
LINE
  5
23A
330
4A1
100
AcDbEntity
  8
1
100
AcDbLine
 10
8.816138999999999
 20
-6.613755999999999
 30
0.0
 11
8.788584
 21
-6.636180999999999
 31
0.0
  0
LINE
  5
23B
330
4A1
100
AcDbEntity
  8
1
100
AcDbLine
 10
8.788584
 20
-6.636180999999999
 30
0.0
 11
8.759425
 21
-6.658461999999999
 31
0.0
  0
LINE
  5
23C
330
4A1
100
AcDbEntity
  8
1
100
AcDbLine
 10
8.759425
 20
-6.658461999999999
 30
0.0
 11
8.728589999999998
 21
-6.680579999999999
 31
0.0
  0
LINE
  5
23D
330
4A1
100
AcDbEntity
  8
1
100
AcDbLine
 10
8.728589999999998
 20
-6.680579999999999
 30
0.0
 11
8.696047999999999
 21
-6.702463999999999
 31
0.0
  0
LINE
  5
23E
330
4A1
100
AcDbEntity
  8
1
100
AcDbLine
 10
8.696047999999999
 20
-6.702463999999999
 30
0.0
 11
8.661800999999998
 21
-6.724031
 31
0.0
  0
LINE
  5
23F
330
4A1
100
AcDbEntity
  8
1
100
AcDbLine
 10
8.661800999999998
 20
-6.724031
 30
0.0
 11
8.625827000000001
 21
-6.745217999999999
 31
0.0
  0
LINE
  5
240
330
4A1
100
AcDbEntity
  8
1
100
AcDbLine
 10
8.625827000000001
 20
-6.745217999999999
 30
0.0
 11
8.588058
 21
-6.765966999999999
 31
0.0
  0
LINE
  5
241
330
4A1
100
AcDbEntity
  8
1
100
AcDbLine
 10
8.588058
 20
-6.765966999999999
 30
0.0
 11
8.548541
 21
-6.786158
 31
0.0
  0
LINE
  5
242
330
4A1
100
AcDbEntity
  8
1
100
AcDbLine
 10
8.548541
 20
-6.786158
 30
0.0
 11
8.507433999999999
 21
-6.805638
 31
0.0
  0
LINE
  5
243
330
4A1
100
AcDbEntity
  8
1
100
AcDbLine
 10
8.507433999999999
 20
-6.805638
 30
0.0
 11
8.464536999999999
 21
-6.824403999999999
 31
0.0
  0
LINE
  5
244
330
4A1
100
AcDbEntity
  8
1
100
AcDbLine
 10
8.464536999999999
 20
-6.824403999999999
 30
0.0
 11
8.420049
 21
-6.842275999999999
 31
0.0
  0
LINE
  5
245
330
4A1
100
AcDbEntity
  8
1
100
AcDbLine
 10
8.420049
 20
-6.842275999999999
 30
0.0
 11
8.374753999999999
 21
-6.858905
 31
0.0
  0
LINE
  5
246
330
4A1
100
AcDbEntity
  8
1
100
AcDbLine
 10
8.374753999999999
 20
-6.858905
 30
0.0
 11
8.328827999999999
 21
-6.874214
 31
0.0
  0
LINE
  5
247
330
4A1
100
AcDbEntity
  8
1
100
AcDbLine
 10
8.328827999999999
 20
-6.874214
 30
0.0
 11
8.282152999999999
 21
-6.888236
 31
0.0
  0
LINE
  5
248
330
4A1
100
AcDbEntity
  8
1
100
AcDbLine
 10
8.282152999999999
 20
-6.888236
 30
0.0
 11
8.251241
 21
-6.896697
 31
0.0
  0
LINE
  5
249
330
4A1
100
AcDbEntity
  8
1
100
AcDbLine
 10
8.793661
 20
-9.391463999999999
 30
0.0
 11
8.793661
 21
-9.256071
 31
0.0
  0
LINE
  5
24A
330
4A1
100
AcDbEntity
  8
1
100
AcDbLine
 10
9.529728999999999
 20
-5.031673
 30
0.0
 11
9.392774000000001
 21
-5.074041
 31
0.0
  0
LINE
  5
24B
330
4A1
100
AcDbEntity
  8
1
100
AcDbLine
 10
9.392774000000001
 20
-5.074041
 30
0.0
 11
9.255899000000001
 21
-5.118241999999999
 31
0.0
  0
LINE
  5
24C
330
4A1
100
AcDbEntity
  8
1
100
AcDbLine
 10
9.255899000000001
 20
-5.118241999999999
 30
0.0
 11
9.119180999999999
 21
-5.164251
 31
0.0
  0
LINE
  5
24D
330
4A1
100
AcDbEntity
  8
1
100
AcDbLine
 10
9.119180999999999
 20
-5.164251
 30
0.0
 11
8.982699
 21
-5.212044
 31
0.0
  0
LINE
  5
24E
330
4A1
100
AcDbEntity
  8
1
100
AcDbLine
 10
8.982699
 20
-5.212044
 30
0.0
 11
8.846533
 21
-5.261589999999999
 31
0.0
  0
LINE
  5
24F
330
4A1
100
AcDbEntity
  8
1
100
AcDbLine
 10
8.846533
 20
-5.261589999999999
 30
0.0
 11
8.71076
 21
-5.312861999999999
 31
0.0
  0
LINE
  5
250
330
4A1
100
AcDbEntity
  8
1
100
AcDbLine
 10
8.71076
 20
-5.312861999999999
 30
0.0
 11
8.575460000000001
 21
-5.365831
 31
0.0
  0
LINE
  5
251
330
4A1
100
AcDbEntity
  8
1
100
AcDbLine
 10
8.575460000000001
 20
-5.365831
 30
0.0
 11
8.440709
 21
-5.420465
 31
0.0
  0
LINE
  5
252
330
4A1
100
AcDbEntity
  8
1
100
AcDbLine
 10
8.440709
 20
-5.420465
 30
0.0
 11
8.306585
 21
-5.476734999999999
 31
0.0
  0
LINE
  5
253
330
4A1
100
AcDbEntity
  8
1
100
AcDbLine
 10
8.306585
 20
-5.476734999999999
 30
0.0
 11
8.357234
 21
-5.489513999999999
 31
0.0
  0
LINE
  5
254
330
4A1
100
AcDbEntity
  8
1
100
AcDbLine
 10
8.357234
 20
-5.489513999999999
 30
0.0
 11
8.405642999999999
 21
-5.503129
 31
0.0
  0
LINE
  5
255
330
4A1
100
AcDbEntity
  8
1
100
AcDbLine
 10
8.405642999999999
 20
-5.503129
 30
0.0
 11
8.451816
 21
-5.517456
 31
0.0
  0
LINE
  5
256
330
4A1
100
AcDbEntity
  8
1
100
AcDbLine
 10
8.451816
 20
-5.517456
 30
0.0
 11
8.495675999999999
 21
-5.532341999999999
 31
0.0
  0
LINE
  5
257
330
4A1
100
AcDbEntity
  8
1
100
AcDbLine
 10
8.495675999999999
 20
-5.532341999999999
 30
0.0
 11
8.537317999999999
 21
-5.547708
 31
0.0
  0
LINE
  5
258
330
4A1
100
AcDbEntity
  8
1
100
AcDbLine
 10
8.537317999999999
 20
-5.547708
 30
0.0
 11
8.576990999999999
 21
-5.563572999999999
 31
0.0
  0
LINE
  5
259
330
4A1
100
AcDbEntity
  8
1
100
AcDbLine
 10
8.576990999999999
 20
-5.563572999999999
 30
0.0
 11
8.61471
 21
-5.579857999999999
 31
0.0
  0
LINE
  5
25A
330
4A1
100
AcDbEntity
  8
1
100
AcDbLine
 10
8.61471
 20
-5.579857999999999
 30
0.0
 11
8.650482
 21
-5.596480999999999
 31
0.0
  0
LINE
  5
25B
330
4A1
100
AcDbEntity
  8
1
100
AcDbLine
 10
8.650482
 20
-5.596480999999999
 30
0.0
 11
8.684537999999999
 21
-5.613482
 31
0.0
  0
LINE
  5
25C
330
4A1
100
AcDbEntity
  8
1
100
AcDbLine
 10
8.716917999999999
 20
-5.630821
 30
0.0
 11
8.747599000000001
 21
-5.648426
 31
0.0
  0
LINE
  5
25D
330
4A1
100
AcDbEntity
  8
1
100
AcDbLine
 10
8.747599000000001
 20
-5.648426
 30
0.0
 11
8.776714
 21
-5.666311
 31
0.0
  0
LINE
  5
25E
330
4A1
100
AcDbEntity
  8
1
100
AcDbLine
 10
14.5
 20
-3.113465
 30
0.0
 11
14.5
 21
3.558431999999999
 31
0.0
  0
LINE
  5
25F
330
4A1
100
AcDbEntity
  8
1
100
AcDbLine
 10
8.776714
 20
-5.666311
 30
0.0
 11
8.804308
 21
-5.684461999999999
 31
0.0
  0
LINE
  5
260
330
4A1
100
AcDbEntity
  8
1
100
AcDbLine
 10
8.830353999999999
 20
-5.702809999999999
 30
0.0
 11
8.854872
 21
-5.721287
 31
0.0
  0
LINE
  5
261
330
4A1
100
AcDbEntity
  8
1
100
AcDbLine
 10
8.854872
 20
-5.721287
 30
0.0
 11
8.877843999999999
 21
-5.739841999999999
 31
0.0
  0
LINE
  5
262
330
4A1
100
AcDbEntity
  8
1
100
AcDbLine
 10
8.877843999999999
 20
-5.739841999999999
 30
0.0
 11
8.899314999999999
 21
-5.758454
 31
0.0
  0
LINE
  5
263
330
4A1
100
AcDbEntity
  8
1
100
AcDbLine
 10
8.899314999999999
 20
-5.758454
 30
0.0
 11
8.919396
 21
-5.777112999999999
 31
0.0
  0
LINE
  5
264
330
4A1
100
AcDbEntity
  8
1
100
AcDbLine
 10
8.919396
 20
-5.777112999999999
 30
0.0
 11
8.938095
 21
-5.795787999999999
 31
0.0
  0
LINE
  5
265
330
4A1
100
AcDbEntity
  8
1
100
AcDbLine
 10
8.938095
 20
-5.795787999999999
 30
0.0
 11
8.955429999999999
 21
-5.814454
 31
0.0
  0
LINE
  5
266
330
4A1
100
AcDbEntity
  8
1
100
AcDbLine
 10
8.955429999999999
 20
-5.814454
 30
0.0
 11
8.971517999999999
 21
-5.833116
 31
0.0
  0
LINE
  5
267
330
4A1
100
AcDbEntity
  8
1
100
AcDbLine
 10
8.986382
 20
-5.851768999999999
 30
0.0
 11
9.000021
 21
-5.870373
 31
0.0
  0
LINE
  5
268
330
4A1
100
AcDbEntity
  8
1
100
AcDbLine
 10
9.000021
 20
-5.870373
 30
0.0
 11
9.012519000000001
 21
-5.888894999999999
 31
0.0
  0
LINE
  5
269
330
4A1
100
AcDbEntity
  8
1
100
AcDbLine
 10
9.012519000000001
 20
-5.888894999999999
 30
0.0
 11
9.023872
 21
-5.907287999999999
 31
0.0
  0
LINE
  5
26A
330
4A1
100
AcDbEntity
  8
1
100
AcDbLine
 10
9.034110999999999
 20
-5.925562999999999
 30
0.0
 11
9.043355999999999
 21
-5.943769
 31
0.0
  0
LINE
  5
26B
330
4A1
100
AcDbEntity
  8
1
100
AcDbLine
 10
9.043355999999999
 20
-5.943769
 30
0.0
 11
9.051622
 21
-5.961869
 31
0.0
  0
LINE
  5
26C
330
4A1
100
AcDbEntity
  8
1
100
AcDbLine
 10
9.051622
 20
-5.961869
 30
0.0
 11
9.058914999999998
 21
-5.979873
 31
0.0
  0
LINE
  5
26D
330
4A1
100
AcDbEntity
  8
1
100
AcDbLine
 10
9.058914999999998
 20
-5.979873
 30
0.0
 11
9.065341999999999
 21
-5.997893
 31
0.0
  0
LINE
  5
26E
330
4A1
100
AcDbEntity
  8
1
100
AcDbLine
 10
9.065341999999999
 20
-5.997893
 30
0.0
 11
9.070923999999999
 21
-6.015944999999999
 31
0.0
  0
LINE
  5
26F
330
4A1
100
AcDbEntity
  8
1
100
AcDbLine
 10
9.070923999999999
 20
-6.015944999999999
 30
0.0
 11
9.075647
 21
-6.033991999999999
 31
0.0
  0
LINE
  5
270
330
4A1
100
AcDbEntity
  8
1
100
AcDbLine
 10
9.075647
 20
-6.033991999999999
 30
0.0
 11
9.079553
 21
-6.052074
 31
0.0
  0
LINE
  5
271
330
4A1
100
AcDbEntity
  8
1
100
AcDbLine
 10
9.079553
 20
-6.052074
 30
0.0
 11
9.082647999999998
 21
-6.070183999999999
 31
0.0
  0
LINE
  5
272
330
4A1
100
AcDbEntity
  8
1
100
AcDbLine
 10
9.082647999999998
 20
-6.070183999999999
 30
0.0
 11
9.084928999999998
 21
-6.088307
 31
0.0
  0
LINE
  5
273
330
4A1
100
AcDbEntity
  8
1
100
AcDbLine
 10
9.084928999999998
 20
-6.088307
 30
0.0
 11
9.086421000000001
 21
-6.106475999999999
 31
0.0
  0
LINE
  5
274
330
4A1
100
AcDbEntity
  8
1
100
AcDbLine
 10
9.086421000000001
 20
-6.106475999999999
 30
0.0
 11
9.08713
 21
-6.124691
 31
0.0
  0
LINE
  5
275
330
4A1
100
AcDbEntity
  8
1
100
AcDbLine
 10
9.08713
 20
-6.124691
 30
0.0
 11
9.087049999999999
 21
-6.142930999999999
 31
0.0
  0
LINE
  5
276
330
4A1
100
AcDbEntity
  8
1
100
AcDbLine
 10
9.087049999999999
 20
-6.142930999999999
 30
0.0
 11
9.086182
 21
-6.161185999999999
 31
0.0
  0
LINE
  5
277
330
4A1
100
AcDbEntity
  8
1
100
AcDbLine
 10
9.527442
 20
-9.839435999999999
 30
0.0
 11
9.478717999999998
 21
-9.828869
 31
0.0
  0
LINE
  5
278
330
4A1
100
AcDbEntity
  8
1
100
AcDbLine
 10
9.478717999999998
 20
-9.828869
 30
0.0
 11
9.391586
 21
-9.80338
 31
0.0
  0
LINE
  5
279
330
4A1
100
AcDbEntity
  8
1
100
AcDbLine
 10
9.391586
 20
-9.80338
 30
0.0
 11
9.304808999999998
 21
-9.769502000000001
 31
0.0
  0
LINE
  5
27A
330
4A1
100
AcDbEntity
  8
1
100
AcDbLine
 10
9.304808999999998
 20
-9.769502000000001
 30
0.0
 11
9.218308
 21
-9.727183
 31
0.0
  0
LINE
  5
27B
330
4A1
100
AcDbEntity
  8
1
100
AcDbLine
 10
9.218308
 20
-9.727183
 30
0.0
 11
9.132160999999999
 21
-9.676475999999999
 31
0.0
  0
LINE
  5
27C
330
4A1
100
AcDbEntity
  8
1
100
AcDbLine
 10
9.132160999999999
 20
-9.676475999999999
 30
0.0
 11
9.046599999999999
 21
-9.617533999999999
 31
0.0
  0
LINE
  5
27D
330
4A1
100
AcDbEntity
  8
1
100
AcDbLine
 10
9.046599999999999
 20
-9.617533999999999
 30
0.0
 11
8.961702
 21
-9.550411
 31
0.0
  0
LINE
  5
27E
330
4A1
100
AcDbEntity
  8
1
100
AcDbLine
 10
8.961702
 20
-9.550411
 30
0.0
 11
8.877388999999999
 21
-9.475054
 31
0.0
  0
LINE
  5
27F
330
4A1
100
AcDbEntity
  8
1
100
AcDbLine
 10
8.877388999999999
 20
-9.475054
 30
0.0
 11
8.793661
 21
-9.391463999999999
 31
0.0
  0
LINE
  5
280
330
4A1
100
AcDbEntity
  8
1
100
AcDbLine
 10
9.933643
 20
-9.916472
 30
0.0
 11
9.527642
 21
-9.839494
 31
0.0
  0
LINE
  5
281
330
4A1
100
AcDbEntity
  8
1
100
AcDbLine
 10
9.933278999999998
 20
-9.916403
 30
0.0
 11
10.380438
 21
-10.000002
 31
0.0
  0
LINE
  5
282
330
4A1
100
AcDbEntity
  8
1
100
AcDbLine
 10
8.793661
 20
-9.391463999999999
 30
0.0
 11
9.039761
 21
-9.417113
 31
0.0
  0
LINE
  5
283
330
4A1
100
AcDbEntity
  8
1
100
AcDbLine
 10
9.566202999999999
 20
-5.034062999999999
 30
0.0
 11
9.829816
 21
-4.979677999999999
 31
0.0
  0
LINE
  5
284
330
4A1
100
AcDbEntity
  8
1
100
AcDbLine
 10
9.829816
 20
-4.979677999999999
 30
0.0
 11
10.366203
 21
-4.867693
 31
0.0
  0
LINE
  5
285
330
4A1
100
AcDbEntity
  8
1
100
AcDbLine
 10
7.660781
 20
-5.391644999999999
 30
0.0
 11
7.703355
 21
-5.38126
 31
0.0
  0
LINE
  5
286
330
4A1
100
AcDbEntity
  8
1
100
AcDbLine
 10
7.703355
 20
-5.38126
 30
0.0
 11
7.744705999999999
 21
-5.372849999999999
 31
0.0
  0
LINE
  5
287
330
4A1
100
AcDbEntity
  8
1
100
AcDbLine
 10
7.744705999999999
 20
-5.372849999999999
 30
0.0
 11
7.785249999999999
 21
-5.366249999999999
 31
0.0
  0
LINE
  5
288
330
4A1
100
AcDbEntity
  8
1
100
AcDbLine
 10
7.785249999999999
 20
-5.366249999999999
 30
0.0
 11
7.824608999999999
 21
-5.361307
 31
0.0
  0
LINE
  5
289
330
4A1
100
AcDbEntity
  8
1
100
AcDbLine
 10
7.8627
 20
-5.358032999999999
 30
0.0
 11
7.899586
 21
-5.356389
 31
0.0
  0
LINE
  5
28A
330
4A1
100
AcDbEntity
  8
1
100
AcDbLine
 10
7.899586
 20
-5.356389
 30
0.0
 11
7.935100999999999
 21
-5.356144999999999
 31
0.0
  0
LINE
  5
28B
330
4A1
100
AcDbEntity
  8
1
100
AcDbLine
 10
7.935100999999999
 20
-5.356144999999999
 30
0.0
 11
7.969183
 21
-5.357288999999999
 31
0.0
  0
LINE
  5
28C
330
4A1
100
AcDbEntity
  8
1
100
AcDbLine
 10
7.969183
 20
-5.357288999999999
 30
0.0
 11
8.001877999999999
 21
-5.359806999999999
 31
0.0
  0
LINE
  5
28D
330
4A1
100
AcDbEntity
  8
1
100
AcDbLine
 10
8.001877999999999
 20
-5.359806999999999
 30
0.0
 11
8.033189
 21
-5.363469
 31
0.0
  0
LINE
  5
28E
330
4A1
100
AcDbEntity
  8
1
100
AcDbLine
 10
8.033189
 20
-5.363469
 30
0.0
 11
8.063091
 21
-5.368253
 31
0.0
  0
LINE
  5
28F
330
4A1
100
AcDbEntity
  8
1
100
AcDbLine
 10
8.091597
 20
-5.374158999999999
 30
0.0
 11
8.118775999999998
 21
-5.380989999999999
 31
0.0
  0
LINE
  5
290
330
4A1
100
AcDbEntity
  8
1
100
AcDbLine
 10
8.118775999999998
 20
-5.380989999999999
 30
0.0
 11
8.144610999999999
 21
-5.388722
 31
0.0
  0
LINE
  5
291
330
4A1
100
AcDbEntity
  8
1
100
AcDbLine
 10
8.144610999999999
 20
-5.388722
 30
0.0
 11
8.169111
 21
-5.397362999999999
 31
0.0
  0
LINE
  5
292
330
4A1
100
AcDbEntity
  8
1
100
AcDbLine
 10
8.169111
 20
-5.397362999999999
 30
0.0
 11
8.192377
 21
-5.406754
 31
0.0
  0
LINE
  5
293
330
4A1
100
AcDbEntity
  8
1
100
AcDbLine
 10
8.192377
 20
-5.406754
 30
0.0
 11
8.214427
 21
-5.416892999999999
 31
0.0
  0
LINE
  5
294
330
4A1
100
AcDbEntity
  8
1
100
AcDbLine
 10
8.235238
 20
-5.427772
 30
0.0
 11
8.254856
 21
-5.439216
 31
0.0
  0
LINE
  5
295
330
4A1
100
AcDbEntity
  8
1
100
AcDbLine
 10
8.254856
 20
-5.439216
 30
0.0
 11
8.273296
 21
-5.451165
 31
0.0
  0
LINE
  5
296
330
4A1
100
AcDbEntity
  8
1
100
AcDbLine
 10
8.273296
 20
-5.451165
 30
0.0
 11
8.29054
 21
-5.463673
 31
0.0
  0
LINE
  5
297
330
4A1
100
AcDbEntity
  8
1
100
AcDbLine
 10
8.29054
 20
-5.463673
 30
0.0
 11
8.306585
 21
-5.476734999999999
 31
0.0
  0
LINE
  5
298
330
4A1
100
AcDbEntity
  8
1
100
AcDbLine
 10
9.562948
 20
-5.021621999999999
 30
0.0
 11
9.529728999999999
 21
-5.031673
 31
0.0
  0
LINE
  5
299
330
4A1
100
AcDbEntity
  8
1
100
AcDbLine
 10
14.5
 20
-8.990396999999999
 30
0.0
 11
14.5
 21
-4.545827
 31
0.0
  0
LINE
  5
29A
330
4A1
100
AcDbEntity
  8
1
100
AcDbLine
 10
12.6
 20
-7.185055999999999
 30
0.0
 11
12.6
 21
-8.801075
 31
0.0
  0
LINE
  5
29B
330
4A1
100
AcDbEntity
  8
1
100
AcDbLine
 10
14.5
 20
-8.990396999999999
 30
0.0
 11
13.020342
 21
-10.000002
 31
0.0
  0
LINE
  5
29C
330
4A1
100
AcDbEntity
  8
1
100
AcDbLine
 10
14.0
 20
-7.593658
 30
0.0
 11
13.856957
 21
-7.722649
 31
0.0
  0
LINE
  5
29D
330
4A1
100
AcDbEntity
  8
1
100
AcDbLine
 10
13.856957
 20
-7.722649
 30
0.0
 11
13.710838
 21
-7.852897999999999
 31
0.0
  0
LINE
  5
29E
330
4A1
100
AcDbEntity
  8
1
100
AcDbLine
 10
13.710838
 20
-7.852897999999999
 30
0.0
 11
13.561643
 21
-7.984408
 31
0.0
  0
LINE
  5
29F
330
4A1
100
AcDbEntity
  8
1
100
AcDbLine
 10
13.561643
 20
-7.984408
 30
0.0
 11
13.409443
 21
-8.117134
 31
0.0
  0
LINE
  5
2A0
330
4A1
100
AcDbEntity
  8
1
100
AcDbLine
 10
13.409443
 20
-8.117134
 30
0.0
 11
13.254168
 21
-8.251119
 31
0.0
  0
LINE
  5
2A1
330
4A1
100
AcDbEntity
  8
1
100
AcDbLine
 10
13.254168
 20
-8.251119
 30
0.0
 11
13.095607
 21
-8.386492999999999
 31
0.0
  0
LINE
  5
2A2
330
4A1
100
AcDbEntity
  8
1
100
AcDbLine
 10
13.095607
 20
-8.386492999999999
 30
0.0
 11
12.93369
 21
-8.523297999999998
 31
0.0
  0
LINE
  5
2A3
330
4A1
100
AcDbEntity
  8
1
100
AcDbLine
 10
12.93369
 20
-8.523297999999998
 30
0.0
 11
12.768488
 21
-8.661491999999999
 31
0.0
  0
LINE
  5
2A4
330
4A1
100
AcDbEntity
  8
1
100
AcDbLine
 10
12.768488
 20
-8.661491999999999
 30
0.0
 11
12.6
 21
-8.801075
 31
0.0
  0
LINE
  5
2A5
330
4A1
100
AcDbEntity
  8
1
100
AcDbLine
 10
14.0
 20
-5.931513999999999
 30
0.0
 11
13.857366
 21
-6.064178
 31
0.0
  0
LINE
  5
2A6
330
4A1
100
AcDbEntity
  8
1
100
AcDbLine
 10
13.857366
 20
-6.064178
 30
0.0
 11
13.711558
 21
-6.198458
 31
0.0
  0
LINE
  5
2A7
330
4A1
100
AcDbEntity
  8
1
100
AcDbLine
 10
13.711558
 20
-6.198458
 30
0.0
 11
13.562576
 21
-6.334354
 31
0.0
  0
LINE
  5
2A8
330
4A1
100
AcDbEntity
  8
1
100
AcDbLine
 10
13.562576
 20
-6.334354
 30
0.0
 11
13.410495
 21
-6.471813
 31
0.0
  0
LINE
  5
2A9
330
4A1
100
AcDbEntity
  8
1
100
AcDbLine
 10
13.410495
 20
-6.471813
 30
0.0
 11
13.255239
 21
-6.610886999999999
 31
0.0
  0
LINE
  5
2AA
330
4A1
100
AcDbEntity
  8
1
100
AcDbLine
 10
13.096585
 20
-6.751732
 30
0.0
 11
12.934456
 21
-6.894402
 31
0.0
  0
LINE
  5
2AB
330
4A1
100
AcDbEntity
  8
1
100
AcDbLine
 10
12.934456
 20
-6.894402
 30
0.0
 11
12.768927
 21
-7.038842999999999
 31
0.0
  0
LINE
  5
2AC
330
4A1
100
AcDbEntity
  8
1
100
AcDbLine
 10
12.768927
 20
-7.038842999999999
 30
0.0
 11
12.6
 21
-7.185055999999999
 31
0.0
  0
LINE
  5
2AD
330
4A1
100
AcDbEntity
  8
1
100
AcDbLine
 10
14.0
 20
-6.656774999999999
 30
0.0
 11
14.5
 21
-6.812424
 31
0.0
  0
LINE
  5
2AE
330
4A1
100
AcDbEntity
  8
1
100
AcDbLine
 10
12.998294
 20
-9.895817999999998
 30
0.0
 11
12.998941
 21
-9.895960999999999
 31
0.0
  0
LINE
  5
2AF
330
4A1
100
AcDbEntity
  8
1
100
AcDbLine
 10
14.0
 20
-6.881721999999999
 30
0.0
 11
14.5
 21
-6.881721999999999
 31
0.0
  0
LINE
  5
2B0
330
4A1
100
AcDbEntity
  8
1
100
AcDbLine
 10
14.0
 20
-7.06995
 30
0.0
 11
14.5
 21
-7.06995
 31
0.0
  0
LINE
  5
2B1
330
4A1
100
AcDbEntity
  8
1
100
AcDbLine
 10
9.039761
 20
-2.531089
 30
0.0
 11
9.442638999999999
 21
-2.389984
 31
0.0
  0
LINE
  5
2B2
330
4A1
100
AcDbEntity
  8
1
100
AcDbLine
 10
9.442638999999999
 20
-2.389984
 30
0.0
 11
9.842753
 21
-2.248731999999999
 31
0.0
  0
LINE
  5
2B3
330
4A1
100
AcDbEntity
  8
1
100
AcDbLine
 10
9.842753
 20
-2.248731999999999
 30
0.0
 11
10.240101
 21
-2.10733
 31
0.0
  0
LINE
  5
2B4
330
4A1
100
AcDbEntity
  8
1
100
AcDbLine
 10
10.240101
 20
-2.10733
 30
0.0
 11
10.634695
 21
-1.965768999999999
 31
0.0
  0
LINE
  5
2B5
330
4A1
100
AcDbEntity
  8
1
100
AcDbLine
 10
10.634695
 20
-1.965768999999999
 30
0.0
 11
11.026525
 21
-1.824058
 31
0.0
  0
LINE
  5
2B6
330
4A1
100
AcDbEntity
  8
1
100
AcDbLine
 10
11.026525
 20
-1.824058
 30
0.0
 11
11.415558
 21
-1.682236
 31
0.0
  0
LINE
  5
2B7
330
4A1
100
AcDbEntity
  8
1
100
AcDbLine
 10
11.415558
 20
-1.682236
 30
0.0
 11
11.801784
 21
-1.540310999999999
 31
0.0
  0
LINE
  5
2B8
330
4A1
100
AcDbEntity
  8
1
100
AcDbLine
 10
11.801784
 20
-1.540310999999999
 30
0.0
 11
12.185213
 21
-1.398271999999999
 31
0.0
  0
LINE
  5
2B9
330
4A1
100
AcDbEntity
  8
1
100
AcDbLine
 10
12.185213
 20
-1.398271999999999
 30
0.0
 11
12.565846
 21
-1.256120999999999
 31
0.0
  0
LINE
  5
2BA
330
4A1
100
AcDbEntity
  8
1
100
AcDbLine
 10
12.6
 20
-1.145853
 30
0.0
 11
12.042608
 21
-1.354857999999999
 31
0.0
  0
LINE
  5
2BB
330
4A1
100
AcDbEntity
  8
1
100
AcDbLine
 10
12.042608
 20
-1.354857999999999
 30
0.0
 11
11.478798
 21
-1.563701
 31
0.0
  0
LINE
  5
2BC
330
4A1
100
AcDbEntity
  8
1
100
AcDbLine
 10
11.478798
 20
-1.563701
 30
0.0
 11
10.908572
 21
-1.772381
 31
0.0
  0
LINE
  5
2BD
330
4A1
100
AcDbEntity
  8
1
100
AcDbLine
 10
10.908572
 20
-1.772381
 30
0.0
 11
10.331555
 21
-1.981052999999999
 31
0.0
  0
LINE
  5
2BE
330
4A1
100
AcDbEntity
  8
1
100
AcDbLine
 10
10.331555
 20
-1.981052999999999
 30
0.0
 11
9.748121000000001
 21
-2.189563
 31
0.0
  0
LINE
  5
2BF
330
4A1
100
AcDbEntity
  8
1
100
AcDbLine
 10
9.748121000000001
 20
-2.189563
 30
0.0
 11
9.15939
 21
-2.39744
 31
0.0
  0
LINE
  5
2C0
330
4A1
100
AcDbEntity
  8
1
100
AcDbLine
 10
12.053026
 20
1.736233
 30
0.0
 11
11.49974
 21
1.589713999999999
 31
0.0
  0
LINE
  5
2C1
330
4A1
100
AcDbEntity
  8
1
100
AcDbLine
 10
9.086182
 20
1.455729
 30
0.0
 11
9.0844
 21
1.450154999999999
 31
0.0
  0
LINE
  5
2C2
330
4A1
100
AcDbEntity
  8
1
100
AcDbLine
 10
9.0844
 20
1.450154999999999
 30
0.0
 11
9.081583
 21
1.444309
 31
0.0
  0
LINE
  5
2C3
330
4A1
100
AcDbEntity
  8
1
100
AcDbLine
 10
9.081583
 20
1.444309
 30
0.0
 11
9.077714
 21
1.438217
 31
0.0
  0
LINE
  5
2C4
330
4A1
100
AcDbEntity
  8
1
100
AcDbLine
 10
9.077714
 20
1.438217
 30
0.0
 11
9.072791999999999
 21
1.43192
 31
0.0
  0
LINE
  5
2C5
330
4A1
100
AcDbEntity
  8
1
100
AcDbLine
 10
9.072791999999999
 20
1.43192
 30
0.0
 11
9.066783
 21
1.425429999999999
 31
0.0
  0
LINE
  5
2C6
330
4A1
100
AcDbEntity
  8
1
100
AcDbLine
 10
9.066783
 20
1.425429999999999
 30
0.0
 11
9.059617999999998
 21
1.418731
 31
0.0
  0
LINE
  5
2C7
330
4A1
100
AcDbEntity
  8
1
100
AcDbLine
 10
9.059617999999998
 20
1.418731
 30
0.0
 11
9.057382999999999
 21
1.416804999999999
 31
0.0
  0
LINE
  5
2C8
330
4A1
100
AcDbEntity
  8
1
100
AcDbLine
 10
8.793661
 20
-2.592725999999999
 30
0.0
 11
8.793661
 21
-2.525028999999999
 31
0.0
  0
LINE
  5
2C9
330
4A1
100
AcDbEntity
  8
1
100
AcDbLine
 10
8.405333
 20
1.555939999999999
 30
0.0
 11
8.495138999999999
 21
1.556165
 31
0.0
  0
LINE
  5
2CA
330
4A1
100
AcDbEntity
  8
1
100
AcDbLine
 10
8.495138999999999
 20
1.556165
 30
0.0
 11
8.536697999999999
 21
1.556029
 31
0.0
  0
LINE
  5
2CB
330
4A1
100
AcDbEntity
  8
1
100
AcDbLine
 10
8.536697999999999
 20
1.556029
 30
0.0
 11
8.576303999999998
 21
1.555703
 31
0.0
  0
LINE
  5
2CC
330
4A1
100
AcDbEntity
  8
1
100
AcDbLine
 10
8.576303999999998
 20
1.555703
 30
0.0
 11
8.613972
 21
1.555193
 31
0.0
  0
LINE
  5
2CD
330
4A1
100
AcDbEntity
  8
1
100
AcDbLine
 10
8.613972
 20
1.555193
 30
0.0
 11
8.649708
 21
1.554502999999999
 31
0.0
  0
LINE
  5
2CE
330
4A1
100
AcDbEntity
  8
1
100
AcDbLine
 10
8.649708
 20
1.554502999999999
 30
0.0
 11
8.683738999999999
 21
1.553627
 31
0.0
  0
LINE
  5
2CF
330
4A1
100
AcDbEntity
  8
1
100
AcDbLine
 10
8.683738999999999
 20
1.553627
 30
0.0
 11
8.716101
 21
1.552564999999999
 31
0.0
  0
LINE
  5
2D0
330
4A1
100
AcDbEntity
  8
1
100
AcDbLine
 10
8.716101
 20
1.552564999999999
 30
0.0
 11
8.746774999999999
 21
1.551317
 31
0.0
  0
LINE
  5
2D1
330
4A1
100
AcDbEntity
  8
1
100
AcDbLine
 10
8.746774999999999
 20
1.551317
 30
0.0
 11
8.775892999999999
 21
1.549886
 31
0.0
  0
LINE
  5
2D2
330
4A1
100
AcDbEntity
  8
1
100
AcDbLine
 10
8.775892999999999
 20
1.549886
 30
0.0
 11
8.803499
 21
1.548262
 31
0.0
  0
LINE
  5
2D3
330
4A1
100
AcDbEntity
  8
1
100
AcDbLine
 10
8.803499
 20
1.548262
 30
0.0
 11
8.829565999999999
 21
1.546451
 31
0.0
  0
LINE
  5
2D4
330
4A1
100
AcDbEntity
  8
1
100
AcDbLine
 10
8.829565999999999
 20
1.546451
 30
0.0
 11
8.854110999999999
 21
1.544477
 31
0.0
  0
LINE
  5
2D5
330
4A1
100
AcDbEntity
  8
1
100
AcDbLine
 10
8.854110999999999
 20
1.544477
 30
0.0
 11
8.877117
 21
1.542326
 31
0.0
  0
LINE
  5
2D6
330
4A1
100
AcDbEntity
  8
1
100
AcDbLine
 10
8.877117
 20
1.542326
 30
0.0
 11
8.898628
 21
1.539995
 31
0.0
  0
LINE
  5
2D7
330
4A1
100
AcDbEntity
  8
1
100
AcDbLine
 10
8.898628
 20
1.539995
 30
0.0
 11
8.918749999999999
 21
1.537515999999999
 31
0.0
  0
LINE
  5
2D8
330
4A1
100
AcDbEntity
  8
1
100
AcDbLine
 10
8.918749999999999
 20
1.537515999999999
 30
0.0
 11
8.937494
 21
1.53488
 31
0.0
  0
LINE
  5
2D9
330
4A1
100
AcDbEntity
  8
1
100
AcDbLine
 10
8.063091
 20
-5.368253
 30
0.0
 11
8.091597
 21
-5.374158999999999
 31
0.0
  0
LINE
  5
2DA
330
4A1
100
AcDbEntity
  8
1
100
AcDbLine
 10
8.937494
 20
1.53488
 30
0.0
 11
8.954874999999999
 21
1.532075999999999
 31
0.0
  0
LINE
  5
2DB
330
4A1
100
AcDbEntity
  8
1
100
AcDbLine
 10
8.954874999999999
 20
1.532075999999999
 30
0.0
 11
8.971011
 21
1.529137999999999
 31
0.0
  0
LINE
  5
2DC
330
4A1
100
AcDbEntity
  8
1
100
AcDbLine
 10
8.268317999999998
 20
1.219041999999999
 30
0.0
 11
8.219302
 21
1.216067999999999
 31
0.0
  0
LINE
  5
2DD
330
4A1
100
AcDbEntity
  8
1
100
AcDbLine
 10
8.985922999999999
 20
1.526054
 30
0.0
 11
8.999613
 21
1.522817
 31
0.0
  0
LINE
  5
2DE
330
4A1
100
AcDbEntity
  8
1
100
AcDbLine
 10
8.999613
 20
1.522817
 30
0.0
 11
9.012159999999999
 21
1.519476
 31
0.0
  0
LINE
  5
2DF
330
4A1
100
AcDbEntity
  8
1
100
AcDbLine
 10
9.023561
 20
1.516021999999999
 30
0.0
 11
9.033846
 21
1.512437
 31
0.0
  0
LINE
  5
2E0
330
4A1
100
AcDbEntity
  8
1
100
AcDbLine
 10
9.033846
 20
1.512437
 30
0.0
 11
9.043134
 21
1.508752
 31
0.0
  0
LINE
  5
2E1
330
4A1
100
AcDbEntity
  8
1
100
AcDbLine
 10
9.043134
 20
1.508752
 30
0.0
 11
9.051439
 21
1.504971999999999
 31
0.0
  0
LINE
  5
2E2
330
4A1
100
AcDbEntity
  8
1
100
AcDbLine
 10
7.921721999999999
 20
1.211926999999999
 30
0.0
 11
7.872402
 21
1.213361
 31
0.0
  0
LINE
  5
2E3
330
4A1
100
AcDbEntity
  8
1
100
AcDbLine
 10
9.058767999999998
 20
1.501072999999999
 30
0.0
 11
9.065227
 21
1.497057999999999
 31
0.0
  0
LINE
  5
2E4
330
4A1
100
AcDbEntity
  8
1
100
AcDbLine
 10
9.065227
 20
1.497057999999999
 30
0.0
 11
9.070836999999999
 21
1.492925999999999
 31
0.0
  0
LINE
  5
2E5
330
4A1
100
AcDbEntity
  8
1
100
AcDbLine
 10
9.070836999999999
 20
1.492925999999999
 30
0.0
 11
9.075585
 21
1.488672
 31
0.0
  0
LINE
  5
2E6
330
4A1
100
AcDbEntity
  8
1
100
AcDbLine
 10
9.075585
 20
1.488672
 30
0.0
 11
9.079511
 21
1.484304999999999
 31
0.0
  0
LINE
  5
2E7
330
4A1
100
AcDbEntity
  8
1
100
AcDbLine
 10
9.079511
 20
1.484304999999999
 30
0.0
 11
9.082622
 21
1.479822999999999
 31
0.0
  0
LINE
  5
2E8
330
4A1
100
AcDbEntity
  8
1
100
AcDbLine
 10
7.632686999999999
 20
1.228116999999999
 30
0.0
 11
7.586505999999999
 21
1.232397999999999
 31
0.0
  0
LINE
  5
2E9
330
4A1
100
AcDbEntity
  8
1
100
AcDbLine
 10
9.084914999999998
 20
1.475225
 30
0.0
 11
9.086414999999998
 21
1.470513999999999
 31
0.0
  0
LINE
  5
2EA
330
4A1
100
AcDbEntity
  8
1
100
AcDbLine
 10
9.086414999999998
 20
1.470513999999999
 30
0.0
 11
9.087128999999999
 21
1.465695999999999
 31
0.0
  0
LINE
  5
2EB
330
4A1
100
AcDbEntity
  8
1
100
AcDbLine
 10
9.087128999999999
 20
1.465695999999999
 30
0.0
 11
9.087050999999998
 21
1.460766999999999
 31
0.0
  0
LINE
  5
2EC
330
4A1
100
AcDbEntity
  8
1
100
AcDbLine
 10
8.306585
 20
1.55494
 30
0.0
 11
8.405333
 21
1.555939999999999
 31
0.0
  0
LINE
  5
2ED
330
4A1
100
AcDbEntity
  8
1
100
AcDbLine
 10
10.940205
 20
1.442272999999999
 30
0.0
 11
10.374664
 21
1.293986
 31
0.0
  0
LINE
  5
2EE
330
4A1
100
AcDbEntity
  8
1
100
AcDbLine
 10
10.374664
 20
1.293986
 30
0.0
 11
10.089626
 21
1.219520999999999
 31
0.0
  0
LINE
  5
2EF
330
4A1
100
AcDbEntity
  8
1
100
AcDbLine
 10
11.49974
 20
1.589713999999999
 30
0.0
 11
10.940205
 21
1.442272999999999
 31
0.0
  0
LINE
  5
2F0
330
4A1
100
AcDbEntity
  8
1
100
AcDbLine
 10
8.793661
 20
-2.592725999999999
 30
0.0
 11
9.039761
 21
-2.531089
 31
0.0
  0
LINE
  5
2F1
330
4A1
100
AcDbEntity
  8
1
100
AcDbLine
 10
12.998294
 20
-3.70128
 30
0.0
 11
12.94236
 21
-3.411160999999999
 31
0.0
  0
LINE
  5
2F2
330
4A1
100
AcDbEntity
  8
1
100
AcDbLine
 10
12.94236
 20
-3.411160999999999
 30
0.0
 11
12.888396
 21
-3.125647
 31
0.0
  0
LINE
  5
2F3
330
4A1
100
AcDbEntity
  8
1
100
AcDbLine
 10
12.888396
 20
-3.125647
 30
0.0
 11
12.836402
 21
-2.844736
 31
0.0
  0
LINE
  5
2F4
330
4A1
100
AcDbEntity
  8
1
100
AcDbLine
 10
12.836402
 20
-2.844736
 30
0.0
 11
12.786376
 21
-2.568423
 31
0.0
  0
LINE
  5
2F5
330
4A1
100
AcDbEntity
  8
1
100
AcDbLine
 10
12.786376
 20
-2.568423
 30
0.0
 11
12.73832
 21
-2.296715
 31
0.0
  0
LINE
  5
2F6
330
4A1
100
AcDbEntity
  8
1
100
AcDbLine
 10
12.73832
 20
-2.296715
 30
0.0
 11
12.692238
 21
-2.029628999999999
 31
0.0
  0
LINE
  5
2F7
330
4A1
100
AcDbEntity
  8
1
100
AcDbLine
 10
5.073507
 20
9.119961999999999
 30
0.0
 11
4.956596
 21
9.184037
 31
0.0
  0
LINE
  5
2F8
330
4A1
100
AcDbEntity
  8
1
100
AcDbLine
 10
12.692238
 20
-2.029628999999999
 30
0.0
 11
12.648133
 21
-1.767170999999999
 31
0.0
  0
LINE
  5
2F9
330
4A1
100
AcDbEntity
  8
1
100
AcDbLine
 10
12.648133
 20
-1.767170999999999
 30
0.0
 11
12.606002
 21
-1.509335
 31
0.0
  0
LINE
  5
2FA
330
4A1
100
AcDbEntity
  8
1
100
AcDbLine
 10
12.606002
 20
-1.509335
 30
0.0
 11
12.565846
 21
-1.256120999999999
 31
0.0
  0
LINE
  5
2FB
330
4A1
100
AcDbEntity
  8
1
100
AcDbLine
 10
12.998941
 20
-3.702201999999999
 30
0.0
 11
13.016135
 21
-3.753173
 31
0.0
  0
LINE
  5
2FC
330
4A1
100
AcDbEntity
  8
1
100
AcDbLine
 10
13.016135
 20
-3.753173
 30
0.0
 11
13.033915
 21
-3.804119999999999
 31
0.0
  0
LINE
  5
2FD
330
4A1
100
AcDbEntity
  8
1
100
AcDbLine
 10
13.033915
 20
-3.804119999999999
 30
0.0
 11
13.052281
 21
-3.855043
 31
0.0
  0
LINE
  5
2FE
330
4A1
100
AcDbEntity
  8
1
100
AcDbLine
 10
13.052281
 20
-3.855043
 30
0.0
 11
13.071233
 21
-3.905944
 31
0.0
  0
LINE
  5
2FF
330
4A1
100
AcDbEntity
  8
1
100
AcDbLine
 10
13.071233
 20
-3.905944
 30
0.0
 11
13.090771
 21
-3.956819999999999
 31
0.0
  0
LINE
  5
300
330
4A1
100
AcDbEntity
  8
1
100
AcDbLine
 10
13.090771
 20
-3.956819999999999
 30
0.0
 11
13.110896
 21
-4.007673
 31
0.0
  0
LINE
  5
301
330
4A1
100
AcDbEntity
  8
1
100
AcDbLine
 10
12.998294
 20
-3.70128
 30
0.0
 11
12.998941
 21
-3.702201999999999
 31
0.0
  0
LINE
  5
302
330
4A1
100
AcDbEntity
  8
1
100
AcDbLine
 10
14.5
 20
-3.113465
 30
0.0
 11
13.110896
 21
-4.007673
 31
0.0
  0
LINE
  5
303
330
4A1
100
AcDbEntity
  8
1
100
AcDbLine
 10
12.998941
 20
-3.702201999999999
 30
0.0
 11
14.5
 21
-2.735924999999999
 31
0.0
  0
LINE
  5
304
330
4A1
100
AcDbEntity
  8
1
100
AcDbLine
 10
14.5
 20
-0.011047
 30
0.0
 11
12.565846
 21
-1.256120999999999
 31
0.0
  0
LINE
  5
305
330
4A1
100
AcDbEntity
  8
1
100
AcDbLine
 10
14.0
 20
-0.118548
 30
0.0
 11
13.856957
 21
-0.226324
 31
0.0
  0
LINE
  5
306
330
4A1
100
AcDbEntity
  8
1
100
AcDbLine
 10
13.856957
 20
-0.226324
 30
0.0
 11
13.710838
 21
-0.33566
 31
0.0
  0
LINE
  5
307
330
4A1
100
AcDbEntity
  8
1
100
AcDbLine
 10
13.710838
 20
-0.33566
 30
0.0
 11
13.561643
 21
-0.4465560000000001
 31
0.0
  0
LINE
  5
308
330
4A1
100
AcDbEntity
  8
1
100
AcDbLine
 10
13.561643
 20
-0.4465560000000001
 30
0.0
 11
13.409443
 21
-0.55897
 31
0.0
  0
LINE
  5
309
330
4A1
100
AcDbEntity
  8
1
100
AcDbLine
 10
13.409443
 20
-0.55897
 30
0.0
 11
13.254168
 21
-0.6729440000000001
 31
0.0
  0
LINE
  5
30A
330
4A1
100
AcDbEntity
  8
1
100
AcDbLine
 10
13.254168
 20
-0.6729440000000001
 30
0.0
 11
13.095607
 21
-0.788607
 31
0.0
  0
LINE
  5
30B
330
4A1
100
AcDbEntity
  8
1
100
AcDbLine
 10
13.095607
 20
-0.788607
 30
0.0
 11
12.93369
 21
-0.906
 31
0.0
  0
LINE
  5
30C
330
4A1
100
AcDbEntity
  8
1
100
AcDbLine
 10
12.93369
 20
-0.906
 30
0.0
 11
12.768488
 21
-1.025082
 31
0.0
  0
LINE
  5
30D
330
4A1
100
AcDbEntity
  8
1
100
AcDbLine
 10
12.768488
 20
-1.025082
 30
0.0
 11
12.6
 21
-1.145853
 31
0.0
  0
LINE
  5
30E
330
4A1
100
AcDbEntity
  8
1
100
AcDbLine
 10
14.0
 20
0.4230100000000001
 30
0.0
 11
14.469632
 21
0.285402
 31
0.0
  0
LINE
  5
30F
330
4A1
100
AcDbEntity
  8
1
100
AcDbLine
 10
14.0
 20
0.2884739999999999
 30
0.0
 11
14.243743
 21
0.217055
 31
0.0
  0
LINE
  5
310
330
4A1
100
AcDbEntity
  8
1
100
AcDbLine
 10
14.0
 20
0.143305
 30
0.0
 11
14.5
 21
0.29459
 31
0.0
  0
LINE
  5
311
330
4A1
100
AcDbEntity
  8
1
100
AcDbLine
 10
8.793661
 20
9.256071
 30
0.0
 11
8.565317999999999
 21
9.277212999999999
 31
0.0
  0
LINE
  5
312
330
4A1
100
AcDbEntity
  8
1
100
AcDbLine
 10
8.565317999999999
 20
9.277212999999999
 30
0.0
 11
7.96595
 21
9.327747999999999
 31
0.0
  0
LINE
  5
313
330
4A1
100
AcDbEntity
  8
1
100
AcDbLine
 10
7.96595
 20
9.327747999999999
 30
0.0
 11
7.362538999999999
 21
9.373599
 31
0.0
  0
LINE
  5
314
330
4A1
100
AcDbEntity
  8
1
100
AcDbLine
 10
7.362538999999999
 20
9.373599
 30
0.0
 11
6.755033999999999
 21
9.414749
 31
0.0
  0
LINE
  5
315
330
4A1
100
AcDbEntity
  8
1
100
AcDbLine
 10
6.755033999999999
 20
9.414749
 30
0.0
 11
6.143487
 21
9.451216
 31
0.0
  0
LINE
  5
316
330
4A1
100
AcDbEntity
  8
1
100
AcDbLine
 10
6.143487
 20
9.451216
 30
0.0
 11
5.529310999999999
 21
9.482841999999999
 31
0.0
  0
LINE
  5
317
330
4A1
100
AcDbEntity
  8
1
100
AcDbLine
 10
5.529310999999999
 20
9.482841999999999
 30
0.0
 11
4.912975
 21
9.509577999999999
 31
0.0
  0
LINE
  5
318
330
4A1
100
AcDbEntity
  8
1
100
AcDbLine
 10
4.912975
 20
9.509577999999999
 30
0.0
 11
4.29401
 21
9.531474000000001
 31
0.0
  0
LINE
  5
319
330
4A1
100
AcDbEntity
  8
1
100
AcDbLine
 10
4.29401
 20
9.531474000000001
 30
0.0
 11
4.113271
 21
9.536433
 31
0.0
  0
LINE
  5
31A
330
4A1
100
AcDbEntity
  8
1
100
AcDbLine
 10
10.089626
 20
8.829963000000001
 30
0.0
 11
9.950966000000001
 21
8.816677
 31
0.0
  0
LINE
  5
31B
330
4A1
100
AcDbEntity
  8
1
100
AcDbLine
 10
9.950966000000001
 20
8.816677
 30
0.0
 11
9.811427999999999
 21
8.804708999999999
 31
0.0
  0
LINE
  5
31C
330
4A1
100
AcDbEntity
  8
1
100
AcDbLine
 10
9.811427999999999
 20
8.804708999999999
 30
0.0
 11
9.671011
 21
8.794091999999999
 31
0.0
  0
LINE
  5
31D
330
4A1
100
AcDbEntity
  8
1
100
AcDbLine
 10
9.671011
 20
8.794091999999999
 30
0.0
 11
9.529742
 21
8.784882000000001
 31
0.0
  0
LINE
  5
31E
330
4A1
100
AcDbEntity
  8
1
100
AcDbLine
 10
9.387596
 20
8.777077999999999
 30
0.0
 11
9.244488999999999
 21
8.770607999999999
 31
0.0
  0
LINE
  5
31F
330
4A1
100
AcDbEntity
  8
1
100
AcDbLine
 10
9.244488999999999
 20
8.770607999999999
 30
0.0
 11
9.100427999999999
 21
8.765485999999999
 31
0.0
  0
LINE
  5
320
330
4A1
100
AcDbEntity
  8
1
100
AcDbLine
 10
8.955408
 20
8.761727999999999
 30
0.0
 11
8.809324999999999
 21
8.759267999999998
 31
0.0
  0
LINE
  5
321
330
4A1
100
AcDbEntity
  8
1
100
AcDbLine
 10
8.809324999999999
 20
8.759267999999998
 30
0.0
 11
8.662296000000001
 21
8.758100999999999
 31
0.0
  0
LINE
  5
322
330
4A1
100
AcDbEntity
  8
1
100
AcDbLine
 10
8.662296000000001
 20
8.758100999999999
 30
0.0
 11
8.514205
 21
8.758238999999999
 31
0.0
  0
LINE
  5
323
330
4A1
100
AcDbEntity
  8
1
100
AcDbLine
 10
8.514205
 20
8.758238999999999
 30
0.0
 11
8.364605
 21
8.759627999999999
 31
0.0
  0
LINE
  5
324
330
4A1
100
AcDbEntity
  8
1
100
AcDbLine
 10
8.364605
 20
8.759627999999999
 30
0.0
 11
8.213452
 21
8.762256999999999
 31
0.0
  0
LINE
  5
325
330
4A1
100
AcDbEntity
  8
1
100
AcDbLine
 10
8.213452
 20
8.762256999999999
 30
0.0
 11
8.060789999999999
 21
8.766128999999999
 31
0.0
  0
LINE
  5
326
330
4A1
100
AcDbEntity
  8
1
100
AcDbLine
 10
8.060789999999999
 20
8.766128999999999
 30
0.0
 11
7.906299999999999
 21
8.771214999999999
 31
0.0
  0
LINE
  5
327
330
4A1
100
AcDbEntity
  8
1
100
AcDbLine
 10
7.906299999999999
 20
8.771214999999999
 30
0.0
 11
7.749947999999999
 21
8.777500999999999
 31
0.0
  0
LINE
  5
328
330
4A1
100
AcDbEntity
  8
1
100
AcDbLine
 10
7.749947999999999
 20
8.777500999999999
 30
0.0
 11
7.591767999999999
 21
8.784976
 31
0.0
  0
LINE
  5
329
330
4A1
100
AcDbEntity
  8
1
100
AcDbLine
 10
7.591767999999999
 20
8.784976
 30
0.0
 11
7.431544
 21
8.793616999999999
 31
0.0
  0
LINE
  5
32A
330
4A1
100
AcDbEntity
  8
1
100
AcDbLine
 10
7.431544
 20
8.793616999999999
 30
0.0
 11
7.269294
 21
8.803397999999999
 31
0.0
  0
LINE
  5
32B
330
4A1
100
AcDbEntity
  8
1
100
AcDbLine
 10
7.269294
 20
8.803397999999999
 30
0.0
 11
7.105
 21
8.814305
 31
0.0
  0
LINE
  5
32C
330
4A1
100
AcDbEntity
  8
1
100
AcDbLine
 10
7.105
 20
8.814305
 30
0.0
 11
6.938391
 21
8.826317999999998
 31
0.0
  0
LINE
  5
32D
330
4A1
100
AcDbEntity
  8
1
100
AcDbLine
 10
6.938391
 20
8.826317999999998
 30
0.0
 11
6.769532
 21
8.839397999999999
 31
0.0
  0
LINE
  5
32E
330
4A1
100
AcDbEntity
  8
1
100
AcDbLine
 10
7.362538999999999
 20
-9.373599
 30
0.0
 11
6.755033999999999
 21
-9.414749
 31
0.0
  0
LINE
  5
32F
330
4A1
100
AcDbEntity
  8
1
100
AcDbLine
 10
6.598358999999999
 20
8.853526999999999
 30
0.0
 11
6.424404
 21
8.868705999999999
 31
0.0
  0
LINE
  5
330
330
4A1
100
AcDbEntity
  8
1
100
AcDbLine
 10
6.424404
 20
8.868705999999999
 30
0.0
 11
6.247622999999999
 21
8.884896000000001
 31
0.0
  0
LINE
  5
331
330
4A1
100
AcDbEntity
  8
1
100
AcDbLine
 10
12.998294
 20
6.194537999999999
 30
0.0
 11
12.561361
 21
6.073412
 31
0.0
  0
LINE
  5
332
330
4A1
100
AcDbEntity
  8
1
100
AcDbLine
 10
6.068061
 20
8.90206
 30
0.0
 11
5.885387
 21
8.920185999999999
 31
0.0
  0
LINE
  5
333
330
4A1
100
AcDbEntity
  8
1
100
AcDbLine
 10
5.885387
 20
8.920185999999999
 30
0.0
 11
5.699493
 21
8.939239
 31
0.0
  0
LINE
  5
334
330
4A1
100
AcDbEntity
  8
1
100
AcDbLine
 10
5.699493
 20
8.939239
 30
0.0
 11
5.510487
 21
8.959155
 31
0.0
  0
LINE
  5
335
330
4A1
100
AcDbEntity
  8
1
100
AcDbLine
 10
8.793661
 20
6.731041999999999
 30
0.0
 11
8.565317999999999
 21
6.672524
 31
0.0
  0
LINE
  5
336
330
4A1
100
AcDbEntity
  8
1
100
AcDbLine
 10
8.565317999999999
 20
6.672524
 30
0.0
 11
7.96595
 21
6.516441
 31
0.0
  0
LINE
  5
337
330
4A1
100
AcDbEntity
  8
1
100
AcDbLine
 10
7.96595
 20
6.516441
 30
0.0
 11
7.362538999999999
 21
6.356793999999999
 31
0.0
  0
LINE
  5
338
330
4A1
100
AcDbEntity
  8
1
100
AcDbLine
 10
7.362538999999999
 20
6.356793999999999
 30
0.0
 11
6.755033999999999
 21
6.193556
 31
0.0
  0
LINE
  5
339
330
4A1
100
AcDbEntity
  8
1
100
AcDbLine
 10
6.143487
 20
6.026755
 30
0.0
 11
5.529310999999999
 21
5.856737999999999
 31
0.0
  0
LINE
  5
33A
330
4A1
100
AcDbEntity
  8
1
100
AcDbLine
 10
5.529310999999999
 20
5.856737999999999
 30
0.0
 11
4.912975
 21
5.683620999999999
 31
0.0
  0
LINE
  5
33B
330
4A1
100
AcDbEntity
  8
1
100
AcDbLine
 10
4.912975
 20
5.683620999999999
 30
0.0
 11
4.29401
 21
5.50729
 31
0.0
  0
LINE
  5
33C
330
4A1
100
AcDbEntity
  8
1
100
AcDbLine
 10
8.662296000000001
 20
-7.719545
 30
0.0
 11
8.514205
 21
-7.719342999999999
 31
0.0
  0
LINE
  5
33D
330
4A1
100
AcDbEntity
  8
1
100
AcDbLine
 10
8.293661
 20
5.392583
 30
0.0
 11
8.130219999999999
 21
5.344459999999999
 31
0.0
  0
LINE
  5
33E
330
4A1
100
AcDbEntity
  8
1
100
AcDbLine
 10
8.130219999999999
 20
5.344459999999999
 30
0.0
 11
7.967185
 21
5.299087
 31
0.0
  0
LINE
  5
33F
330
4A1
100
AcDbEntity
  8
1
100
AcDbLine
 10
7.967185
 20
5.299087
 30
0.0
 11
7.804553
 21
5.256465
 31
0.0
  0
LINE
  5
340
330
4A1
100
AcDbEntity
  8
1
100
AcDbLine
 10
7.804553
 20
5.256465
 30
0.0
 11
7.642195
 21
5.216562999999999
 31
0.0
  0
LINE
  5
341
330
4A1
100
AcDbEntity
  8
1
100
AcDbLine
 10
7.642195
 20
5.216562999999999
 30
0.0
 11
7.480241999999999
 21
5.179412999999999
 31
0.0
  0
LINE
  5
342
330
4A1
100
AcDbEntity
  8
1
100
AcDbLine
 10
7.480241999999999
 20
5.179412999999999
 30
0.0
 11
7.319085
 21
5.145101
 31
0.0
  0
LINE
  5
343
330
4A1
100
AcDbEntity
  8
1
100
AcDbLine
 10
9.012159999999999
 20
1.519476
 30
0.0
 11
9.023561
 21
1.516021999999999
 31
0.0
  0
LINE
  5
344
330
4A1
100
AcDbEntity
  8
1
100
AcDbLine
 10
7.319085
 20
5.145101
 30
0.0
 11
7.158727
 21
5.113635999999999
 31
0.0
  0
LINE
  5
345
330
4A1
100
AcDbEntity
  8
1
100
AcDbLine
 10
7.158727
 20
5.113635999999999
 30
0.0
 11
6.999166999999999
 21
5.085011999999999
 31
0.0
  0
LINE
  5
346
330
4A1
100
AcDbEntity
  8
1
100
AcDbLine
 10
6.999166999999999
 20
5.085011999999999
 30
0.0
 11
6.840794999999999
 21
5.059298
 31
0.0
  0
LINE
  5
347
330
4A1
100
AcDbEntity
  8
1
100
AcDbLine
 10
6.840794999999999
 20
5.059298
 30
0.0
 11
6.683616999999999
 21
5.036501
 31
0.0
  0
LINE
  5
348
330
4A1
100
AcDbEntity
  8
1
100
AcDbLine
 10
6.683616999999999
 20
5.036501
 30
0.0
 11
6.527626999999999
 21
5.016613999999999
 31
0.0
  0
LINE
  5
349
330
4A1
100
AcDbEntity
  8
1
100
AcDbLine
 10
6.527626999999999
 20
5.016613999999999
 30
0.0
 11
6.373208999999999
 21
4.999687
 31
0.0
  0
LINE
  5
34A
330
4A1
100
AcDbEntity
  8
1
100
AcDbLine
 10
6.373208999999999
 20
4.999687
 30
0.0
 11
6.220366
 21
4.985725
 31
0.0
  0
LINE
  5
34B
330
4A1
100
AcDbEntity
  8
1
100
AcDbLine
 10
6.220366
 20
4.985725
 30
0.0
 11
6.069094
 21
4.974720999999999
 31
0.0
  0
LINE
  5
34C
330
4A1
100
AcDbEntity
  8
1
100
AcDbLine
 10
6.069094
 20
4.974720999999999
 30
0.0
 11
5.919762999999999
 21
4.966704
 31
0.0
  0
LINE
  5
34D
330
4A1
100
AcDbEntity
  8
1
100
AcDbLine
 10
5.919762999999999
 20
4.966704
 30
0.0
 11
5.772378999999999
 21
4.961679
 31
0.0
  0
LINE
  5
34E
330
4A1
100
AcDbEntity
  8
1
100
AcDbLine
 10
5.772378999999999
 20
4.961679
 30
0.0
 11
5.626935999999999
 21
4.95964
 31
0.0
  0
LINE
  5
34F
330
4A1
100
AcDbEntity
  8
1
100
AcDbLine
 10
5.626935999999999
 20
4.95964
 30
0.0
 11
5.483791
 21
4.960590999999999
 31
0.0
  0
LINE
  5
350
330
4A1
100
AcDbEntity
  8
1
100
AcDbLine
 10
5.483791
 20
4.960590999999999
 30
0.0
 11
5.342948999999999
 21
4.96454
 31
0.0
  0
LINE
  5
351
330
4A1
100
AcDbEntity
  8
1
100
AcDbLine
 10
5.342948999999999
 20
4.96454
 30
0.0
 11
5.204404
 21
4.971479
 31
0.0
  0
LINE
  5
352
330
4A1
100
AcDbEntity
  8
1
100
AcDbLine
 10
5.204404
 20
4.971479
 30
0.0
 11
5.068495999999999
 21
4.981391
 31
0.0
  0
LINE
  5
353
330
4A1
100
AcDbEntity
  8
1
100
AcDbLine
 10
5.068495999999999
 20
4.981391
 30
0.0
 11
4.935230999999999
 21
4.994284999999999
 31
0.0
  0
LINE
  5
354
330
4A1
100
AcDbEntity
  8
1
100
AcDbLine
 10
4.935230999999999
 20
4.994284999999999
 30
0.0
 11
4.804603
 21
5.010151
 31
0.0
  0
LINE
  5
355
330
4A1
100
AcDbEntity
  8
1
100
AcDbLine
 10
4.804603
 20
5.010151
 30
0.0
 11
4.676931999999999
 21
5.028951999999999
 31
0.0
  0
LINE
  5
356
330
4A1
100
AcDbEntity
  8
1
100
AcDbLine
 10
4.676931999999999
 20
5.028951999999999
 30
0.0
 11
4.552223999999999
 21
5.050694999999999
 31
0.0
  0
LINE
  5
357
330
4A1
100
AcDbEntity
  8
1
100
AcDbLine
 10
4.552223999999999
 20
5.050694999999999
 30
0.0
 11
4.430473
 21
5.075374
 31
0.0
  0
LINE
  5
358
330
4A1
100
AcDbEntity
  8
1
100
AcDbLine
 10
4.311976999999999
 20
5.102926
 30
0.0
 11
4.196742999999999
 21
5.133358999999999
 31
0.0
  0
LINE
  5
359
330
4A1
100
AcDbEntity
  8
1
100
AcDbLine
 10
4.196742999999999
 20
5.133358999999999
 30
0.0
 11
4.084763999999999
 21
5.166666
 31
0.0
  0
LINE
  5
35A
330
4A1
100
AcDbEntity
  8
1
100
AcDbLine
 10
4.084763999999999
 20
5.166666
 30
0.0
 11
3.976314999999999
 21
5.202766
 31
0.0
  0
LINE
  5
35B
330
4A1
100
AcDbEntity
  8
1
100
AcDbLine
 10
8.971517999999999
 20
-5.833116
 30
0.0
 11
8.986382
 21
-5.851768999999999
 31
0.0
  0
LINE
  5
35C
330
4A1
100
AcDbEntity
  8
1
100
AcDbLine
 10
3.871484999999999
 20
5.241632
 30
0.0
 11
3.770184999999999
 21
5.283291
 31
0.0
  0
LINE
  5
35D
330
4A1
100
AcDbEntity
  8
1
100
AcDbLine
 10
3.770184999999999
 20
5.283291
 30
0.0
 11
3.672413999999999
 21
5.327742999999999
 31
0.0
  0
LINE
  5
35E
330
4A1
100
AcDbEntity
  8
1
100
AcDbLine
 10
0.0
 20
9.569893999999999
 30
0.0
 11
3.850466
 21
9.569893999999999
 31
0.0
  0
LINE
  5
35F
330
4A1
100
AcDbEntity
  8
1
100
AcDbLine
 10
5.318369
 20
8.979881999999999
 30
0.0
 11
5.194098
 21
9.051849
 31
0.0
  0
LINE
  5
360
330
4A1
100
AcDbEntity
  8
1
100
AcDbLine
 10
5.194098
 20
9.051849
 30
0.0
 11
5.073507
 21
9.119961999999999
 31
0.0
  0
LINE
  5
361
330
4A1
100
AcDbEntity
  8
1
100
AcDbLine
 10
7.492732000000001
 20
-6.912535
 30
0.0
 11
7.45047
 21
-6.902166999999999
 31
0.0
  0
LINE
  5
362
330
4A1
100
AcDbEntity
  8
1
100
AcDbLine
 10
4.956596
 20
9.184037
 30
0.0
 11
4.843312
 21
9.243983999999999
 31
0.0
  0
LINE
  5
363
330
4A1
100
AcDbEntity
  8
1
100
AcDbLine
 10
4.843312
 20
9.243983999999999
 30
0.0
 11
4.733706999999999
 21
9.299502
 31
0.0
  0
LINE
  5
364
330
4A1
100
AcDbEntity
  8
1
100
AcDbLine
 10
4.733706999999999
 20
9.299502
 30
0.0
 11
4.627942
 21
9.350164999999998
 31
0.0
  0
LINE
  5
365
330
4A1
100
AcDbEntity
  8
1
100
AcDbLine
 10
4.627942
 20
9.350164999999998
 30
0.0
 11
4.526074999999999
 21
9.395832999999999
 31
0.0
  0
LINE
  5
366
330
4A1
100
AcDbEntity
  8
1
100
AcDbLine
 10
4.526074999999999
 20
9.395832999999999
 30
0.0
 11
4.428047
 21
9.436431999999999
 31
0.0
  0
LINE
  5
367
330
4A1
100
AcDbEntity
  8
1
100
AcDbLine
 10
4.33384
 20
9.471757999999999
 30
0.0
 11
4.243387
 21
9.501766999999999
 31
0.0
  0
LINE
  5
368
330
4A1
100
AcDbEntity
  8
1
100
AcDbLine
 10
4.243387
 20
9.501766999999999
 30
0.0
 11
4.156755
 21
9.526383
 31
0.0
  0
LINE
  5
369
330
4A1
100
AcDbEntity
  8
1
100
AcDbLine
 10
4.156755
 20
9.526383
 30
0.0
 11
4.074127999999999
 21
9.545478999999998
 31
0.0
  0
LINE
  5
36A
330
4A1
100
AcDbEntity
  8
1
100
AcDbLine
 10
4.074127999999999
 20
9.545478999999998
 30
0.0
 11
3.995569
 21
9.559063
 31
0.0
  0
LINE
  5
36B
330
4A1
100
AcDbEntity
  8
1
100
AcDbLine
 10
3.995569
 20
9.559063
 30
0.0
 11
3.921015
 21
9.567192
 31
0.0
  0
LINE
  5
36C
330
4A1
100
AcDbEntity
  8
1
100
AcDbLine
 10
3.921015
 20
9.567192
 30
0.0
 11
3.850466
 21
9.569893999999999
 31
0.0
  0
LINE
  5
36D
330
4A1
100
AcDbEntity
  8
1
100
AcDbLine
 10
14.5
 20
4.822594
 30
0.0
 11
14.5
 21
8.990396999999999
 31
0.0
  0
LINE
  5
36E
330
4A1
100
AcDbEntity
  8
1
100
AcDbLine
 10
14.5
 20
8.990396999999999
 30
0.0
 11
14.5
 21
9.191710999999999
 31
0.0
  0
LINE
  5
36F
330
4A1
100
AcDbEntity
  8
1
100
AcDbLine
 10
14.0
 20
8.478499000000001
 30
0.0
 11
14.0
 21
7.689474
 31
0.0
  0
LINE
  5
370
330
4A1
100
AcDbEntity
  8
1
100
AcDbLine
 10
12.6
 20
9.066866
 30
0.0
 11
12.6
 21
7.743504999999999
 31
0.0
  0
LINE
  5
371
330
4A1
100
AcDbEntity
  8
1
100
AcDbLine
 10
9.039761
 20
6.886025
 30
0.0
 11
9.442638999999999
 21
6.988716999999999
 31
0.0
  0
LINE
  5
372
330
4A1
100
AcDbEntity
  8
1
100
AcDbLine
 10
9.442638999999999
 20
6.988716999999999
 30
0.0
 11
9.842753
 21
7.089588
 31
0.0
  0
LINE
  5
373
330
4A1
100
AcDbEntity
  8
1
100
AcDbLine
 10
9.842753
 20
7.089588
 30
0.0
 11
10.240101
 21
7.188636999999999
 31
0.0
  0
LINE
  5
374
330
4A1
100
AcDbEntity
  8
1
100
AcDbLine
 10
10.240101
 20
7.188636999999999
 30
0.0
 11
10.634695
 21
7.285858999999999
 31
0.0
  0
LINE
  5
375
330
4A1
100
AcDbEntity
  8
1
100
AcDbLine
 10
10.634695
 20
7.285858999999999
 30
0.0
 11
11.026525
 21
7.381259
 31
0.0
  0
LINE
  5
376
330
4A1
100
AcDbEntity
  8
1
100
AcDbLine
 10
11.026525
 20
7.381259
 30
0.0
 11
11.415558
 21
7.474855
 31
0.0
  0
LINE
  5
377
330
4A1
100
AcDbEntity
  8
1
100
AcDbLine
 10
11.415558
 20
7.474855
 30
0.0
 11
11.801784
 21
7.56665
 31
0.0
  0
LINE
  5
378
330
4A1
100
AcDbEntity
  8
1
100
AcDbLine
 10
11.801784
 20
7.56665
 30
0.0
 11
12.185213
 21
7.656639
 31
0.0
  0
LINE
  5
379
330
4A1
100
AcDbEntity
  8
1
100
AcDbLine
 10
12.185213
 20
7.656639
 30
0.0
 11
12.565846
 21
7.744822
 31
0.0
  0
LINE
  5
37A
330
4A1
100
AcDbEntity
  8
1
100
AcDbLine
 10
12.561361
 20
6.073412
 30
0.0
 11
12.123729
 21
5.950741
 31
0.0
  0
LINE
  5
37B
330
4A1
100
AcDbEntity
  8
1
100
AcDbLine
 10
12.123729
 20
5.950741
 30
0.0
 11
11.685397
 21
5.826548999999999
 31
0.0
  0
LINE
  5
37C
330
4A1
100
AcDbEntity
  8
1
100
AcDbLine
 10
11.685397
 20
5.826548999999999
 30
0.0
 11
11.246366
 21
5.700863
 31
0.0
  0
LINE
  5
37D
330
4A1
100
AcDbEntity
  8
1
100
AcDbLine
 10
7.824608999999999
 20
-5.361307
 30
0.0
 11
7.8627
 21
-5.358032999999999
 31
0.0
  0
LINE
  5
37E
330
4A1
100
AcDbEntity
  8
1
100
AcDbLine
 10
10.806634
 20
5.573706999999999
 30
0.0
 11
10.366203
 21
5.445108
 31
0.0
  0
LINE
  5
37F
330
4A1
100
AcDbEntity
  8
1
100
AcDbLine
 10
13.110896
 20
5.930541999999999
 30
0.0
 11
12.654922
 21
5.800702999999999
 31
0.0
  0
LINE
  5
380
330
4A1
100
AcDbEntity
  8
1
100
AcDbLine
 10
3.976314999999999
 20
5.202766
 30
0.0
 11
3.871484999999999
 21
5.241632
 31
0.0
  0
LINE
  5
381
330
4A1
100
AcDbEntity
  8
1
100
AcDbLine
 10
12.198358
 20
5.669406999999999
 30
0.0
 11
11.741204
 21
5.536654
 31
0.0
  0
LINE
  5
382
330
4A1
100
AcDbEntity
  8
1
100
AcDbLine
 10
11.741204
 20
5.536654
 30
0.0
 11
11.283461
 21
5.402442999999999
 31
0.0
  0
LINE
  5
383
330
4A1
100
AcDbEntity
  8
1
100
AcDbLine
 10
11.283461
 20
5.402442999999999
 30
0.0
 11
10.825127
 21
5.266773999999999
 31
0.0
  0
LINE
  5
384
330
4A1
100
AcDbEntity
  8
1
100
AcDbLine
 10
10.825127
 20
5.266773999999999
 30
0.0
 11
10.366203
 21
5.129647
 31
0.0
  0
LINE
  5
385
330
4A1
100
AcDbEntity
  8
1
100
AcDbLine
 10
4.428047
 20
9.436431999999999
 30
0.0
 11
4.33384
 21
9.471757999999999
 31
0.0
  0
LINE
  5
386
330
4A1
100
AcDbEntity
  8
1
100
AcDbLine
 10
9.566202999999999
 20
3.329783
 30
0.0
 11
14.5
 21
4.822594
 31
0.0
  0
LINE
  5
387
330
4A1
100
AcDbEntity
  8
1
100
AcDbLine
 10
14.0
 20
3.202611
 30
0.0
 11
9.529728999999999
 21
1.850049
 31
0.0
  0
LINE
  5
388
330
4A1
100
AcDbEntity
  8
1
100
AcDbLine
 10
9.566202999999999
 20
4.811906999999999
 30
0.0
 11
9.500638
 21
4.993816
 31
0.0
  0
LINE
  5
389
330
4A1
100
AcDbEntity
  8
1
100
AcDbLine
 10
9.500638
 20
4.993816
 30
0.0
 11
9.43523
 21
5.172901
 31
0.0
  0
LINE
  5
38A
330
4A1
100
AcDbEntity
  8
1
100
AcDbLine
 10
9.43523
 20
5.172901
 30
0.0
 11
9.369982
 21
5.349162
 31
0.0
  0
LINE
  5
38B
330
4A1
100
AcDbEntity
  8
4
100
AcDbLine
 10
15.950441
 20
0.0
 30
0.0
 11
0.0
 21
0.0
 31
0.0
  0
LINE
  5
38C
330
4A1
100
AcDbEntity
  8
1
100
AcDbLine
 10
9.369982
 20
5.349162
 30
0.0
 11
9.304857999999999
 21
5.522689999999999
 31
0.0
  0
LINE
  5
38D
330
4A1
100
AcDbEntity
  8
1
100
AcDbLine
 10
9.304857999999999
 20
5.522689999999999
 30
0.0
 11
9.239891999999999
 21
5.693395999999999
 31
0.0
  0
LINE
  5
38E
330
4A1
100
AcDbEntity
  8
1
100
AcDbLine
 10
11.246366
 20
5.700863
 30
0.0
 11
10.806634
 21
5.573706999999999
 31
0.0
  0
LINE
  5
38F
330
4A1
100
AcDbEntity
  8
1
100
AcDbLine
 10
9.175190999999999
 20
5.860999999999999
 30
0.0
 11
9.110755000000001
 21
6.025497
 31
0.0
  0
LINE
  5
390
330
4A1
100
AcDbEntity
  8
1
100
AcDbLine
 10
9.110755000000001
 20
6.025497
 30
0.0
 11
9.046583999999999
 21
6.186894
 31
0.0
  0
LINE
  5
391
330
4A1
100
AcDbEntity
  8
1
100
AcDbLine
 10
9.046583999999999
 20
6.186894
 30
0.0
 11
8.982778999999998
 21
6.344941
 31
0.0
  0
LINE
  5
392
330
4A1
100
AcDbEntity
  8
1
100
AcDbLine
 10
8.982778999999998
 20
6.344941
 30
0.0
 11
8.919374000000001
 21
6.499556
 31
0.0
  0
LINE
  5
393
330
4A1
100
AcDbEntity
  8
1
100
AcDbLine
 10
8.919374000000001
 20
6.499556
 30
0.0
 11
8.856334
 21
6.650821999999999
 31
0.0
  0
LINE
  5
394
330
4A1
100
AcDbEntity
  8
1
100
AcDbLine
 10
8.856334
 20
6.650821999999999
 30
0.0
 11
8.793661
 21
6.798738
 31
0.0
  0
LINE
  5
395
330
4A1
100
AcDbEntity
  8
1
100
AcDbLine
 10
9.076781
 20
6.545245999999999
 30
0.0
 11
9.096957000000001
 21
6.481192
 31
0.0
  0
LINE
  5
396
330
4A1
100
AcDbEntity
  8
1
100
AcDbLine
 10
10.366203
 20
5.445108
 30
0.0
 11
10.366203
 21
5.129647
 31
0.0
  0
LINE
  5
397
330
4A1
100
AcDbEntity
  8
1
100
AcDbLine
 10
9.042099999999999
 20
6.744407999999999
 30
0.0
 11
9.049540999999999
 21
6.676041999999999
 31
0.0
  0
LINE
  5
398
330
4A1
100
AcDbEntity
  8
1
100
AcDbLine
 10
8.793661
 20
5.637980999999999
 30
0.0
 11
8.870915
 21
5.322458999999999
 31
0.0
  0
LINE
  5
399
330
4A1
100
AcDbEntity
  8
1
100
AcDbLine
 10
9.566202999999999
 20
3.329783
 30
0.0
 11
8.870915
 21
5.322458999999999
 31
0.0
  0
LINE
  5
39A
330
4A1
100
AcDbEntity
  8
1
100
AcDbLine
 10
9.039761
 20
6.886025
 30
0.0
 11
9.038839999999998
 21
6.814416
 31
0.0
  0
LINE
  5
39B
330
4A1
100
AcDbEntity
  8
1
100
AcDbLine
 10
9.038839999999998
 20
6.814416
 30
0.0
 11
9.042099999999999
 21
6.744407999999999
 31
0.0
  0
LINE
  5
39C
330
4A1
100
AcDbEntity
  8
1
100
AcDbLine
 10
9.529742
 20
8.784882000000001
 30
0.0
 11
9.387596
 21
8.777077999999999
 31
0.0
  0
LINE
  5
39D
330
4A1
100
AcDbEntity
  8
1
100
AcDbLine
 10
9.049540999999999
 20
6.676041999999999
 30
0.0
 11
9.061069999999999
 21
6.609780999999999
 31
0.0
  0
LINE
  5
39E
330
4A1
100
AcDbEntity
  8
1
100
AcDbLine
 10
9.061069999999999
 20
6.609780999999999
 30
0.0
 11
9.076781
 21
6.545245999999999
 31
0.0
  0
LINE
  5
39F
330
4A1
100
AcDbEntity
  8
1
100
AcDbLine
 10
9.096957000000001
 20
6.481192
 30
0.0
 11
9.12142
 21
6.417308999999999
 31
0.0
  0
LINE
  5
3A0
330
4A1
100
AcDbEntity
  8
1
100
AcDbLine
 10
9.12142
 20
6.417308999999999
 30
0.0
 11
9.150347999999999
 21
6.353901
 31
0.0
  0
LINE
  5
3A1
330
4A1
100
AcDbEntity
  8
1
100
AcDbLine
 10
9.150347999999999
 20
6.353901
 30
0.0
 11
9.184563
 21
6.290591
 31
0.0
  0
LINE
  5
3A2
330
4A1
100
AcDbEntity
  8
1
100
AcDbLine
 10
9.184563
 20
6.290591
 30
0.0
 11
9.224258999999999
 21
6.226984999999999
 31
0.0
  0
LINE
  5
3A3
330
4A1
100
AcDbEntity
  8
1
100
AcDbLine
 10
9.224258999999999
 20
6.226984999999999
 30
0.0
 11
9.269241
 21
6.163439
 31
0.0
  0
LINE
  5
3A4
330
4A1
100
AcDbEntity
  8
1
100
AcDbLine
 10
9.269241
 20
6.163439
 30
0.0
 11
9.319751
 21
6.100697
 31
0.0
  0
LINE
  5
3A5
330
4A1
100
AcDbEntity
  8
1
100
AcDbLine
 10
9.319751
 20
6.100697
 30
0.0
 11
9.375904
 21
6.038839
 31
0.0
  0
LINE
  5
3A6
330
4A1
100
AcDbEntity
  8
1
100
AcDbLine
 10
9.375904
 20
6.038839
 30
0.0
 11
9.437585
 21
5.977787
 31
0.0
  0
LINE
  5
3A7
330
4A1
100
AcDbEntity
  8
1
100
AcDbLine
 10
9.437585
 20
5.977787
 30
0.0
 11
9.504686999999998
 21
5.918080999999999
 31
0.0
  0
LINE
  5
3A8
330
4A1
100
AcDbEntity
  8
1
100
AcDbLine
 10
9.504686999999998
 20
5.918080999999999
 30
0.0
 11
9.577017999999998
 21
5.859936
 31
0.0
  0
LINE
  5
3A9
330
4A1
100
AcDbEntity
  8
1
100
AcDbLine
 10
9.577017999999998
 20
5.859936
 30
0.0
 11
9.654769999999999
 21
5.803169
 31
0.0
  0
LINE
  5
3AA
330
4A1
100
AcDbEntity
  8
1
100
AcDbLine
 10
9.654769999999999
 20
5.803169
 30
0.0
 11
9.738417999999999
 21
5.747722
 31
0.0
  0
LINE
  5
3AB
330
4A1
100
AcDbEntity
  8
1
100
AcDbLine
 10
9.738417999999999
 20
5.747722
 30
0.0
 11
9.828075999999999
 21
5.693509999999999
 31
0.0
  0
LINE
  5
3AC
330
4A1
100
AcDbEntity
  8
1
100
AcDbLine
 10
9.828075999999999
 20
5.693509999999999
 30
0.0
 11
9.923631
 21
5.640633
 31
0.0
  0
LINE
  5
3AD
330
4A1
100
AcDbEntity
  8
1
100
AcDbLine
 10
6.769532
 20
8.839397999999999
 30
0.0
 11
6.598358999999999
 21
8.853526999999999
 31
0.0
  0
LINE
  5
3AE
330
4A1
100
AcDbEntity
  8
1
100
AcDbLine
 10
10.025208
 20
5.589319
 30
0.0
 11
10.13285
 21
5.539655999999999
 31
0.0
  0
LINE
  5
3AF
330
4A1
100
AcDbEntity
  8
1
100
AcDbLine
 10
10.13285
 20
5.539655999999999
 30
0.0
 11
10.246515
 21
5.491582
 31
0.0
  0
LINE
  5
3B0
330
4A1
100
AcDbEntity
  8
1
100
AcDbLine
 10
10.246515
 20
5.491582
 30
0.0
 11
10.366203
 21
5.445108
 31
0.0
  0
LINE
  5
3B1
330
4A1
100
AcDbEntity
  8
1
100
AcDbLine
 10
9.566202999999999
 20
4.811906999999999
 30
0.0
 11
9.566202999999999
 21
3.329783
 31
0.0
  0
LINE
  5
3B2
330
4A1
100
AcDbEntity
  8
1
100
AcDbLine
 10
8.793661
 20
6.798738
 30
0.0
 11
8.793661
 21
5.637980999999999
 31
0.0
  0
LINE
  5
3B3
330
4A1
100
AcDbEntity
  8
1
100
AcDbLine
 10
8.816482999999999
 20
5.550772
 30
0.0
 11
8.293661
 21
5.392583
 31
0.0
  0
LINE
  5
3B4
330
4A1
100
AcDbEntity
  8
1
100
AcDbLine
 10
9.962766999999999
 20
4.969903999999999
 30
0.0
 11
10.366203
 21
5.129647
 31
0.0
  0
LINE
  5
3B5
330
4A1
100
AcDbEntity
  8
1
100
AcDbLine
 10
9.566202999999999
 20
4.811906999999999
 30
0.0
 11
9.962766999999999
 21
4.969903999999999
 31
0.0
  0
LINE
  5
3B6
330
4A1
100
AcDbEntity
  8
1
100
AcDbLine
 10
8.793661
 20
6.798738
 30
0.0
 11
9.039761
 21
6.886025
 31
0.0
  0
LINE
  5
3B7
330
4A1
100
AcDbEntity
  8
1
100
AcDbLine
 10
12.998294
 20
6.194537999999999
 30
0.0
 11
12.94236
 21
6.380333999999999
 31
0.0
  0
LINE
  5
3B8
330
4A1
100
AcDbEntity
  8
1
100
AcDbLine
 10
12.94236
 20
6.380333999999999
 30
0.0
 11
12.888396
 21
6.562746999999999
 31
0.0
  0
LINE
  5
3B9
330
4A1
100
AcDbEntity
  8
1
100
AcDbLine
 10
12.888396
 20
6.562746999999999
 30
0.0
 11
12.836402
 21
6.741778999999999
 31
0.0
  0
LINE
  5
3BA
330
4A1
100
AcDbEntity
  8
1
100
AcDbLine
 10
12.836402
 20
6.741778999999999
 30
0.0
 11
12.786376
 21
6.917430999999999
 31
0.0
  0
LINE
  5
3BB
330
4A1
100
AcDbEntity
  8
1
100
AcDbLine
 10
4.29401
 20
5.50729
 30
0.0
 11
3.672413999999999
 21
5.327742999999999
 31
0.0
  0
LINE
  5
3BC
330
4A1
100
AcDbEntity
  8
1
100
AcDbLine
 10
9.082622
 20
1.479822999999999
 30
0.0
 11
9.084914999999998
 21
1.475225
 31
0.0
  0
LINE
  5
3BD
330
4A1
100
AcDbEntity
  8
1
100
AcDbLine
 10
13.071212
 20
6.019391999999999
 30
0.0
 11
13.090758
 21
5.975105999999999
 31
0.0
  0
LINE
  5
3BE
330
4A1
100
AcDbEntity
  8
1
100
AcDbLine
 10
12.053026
 20
-7.282117999999999
 30
0.0
 11
11.777179
 21
-7.330116
 31
0.0
  0
LINE
  5
3BF
330
4A1
100
AcDbEntity
  8
1
100
AcDbLine
 10
9.239891999999999
 20
5.693395999999999
 30
0.0
 11
9.175190999999999
 21
5.860999999999999
 31
0.0
  0
LINE
  5
3C0
330
4A1
100
AcDbEntity
  8
1
100
AcDbLine
 10
8.804308
 20
-5.684461999999999
 30
0.0
 11
8.830353999999999
 21
-5.702809999999999
 31
0.0
  0
LINE
  5
3C1
330
4A1
100
AcDbEntity
  8
1
100
AcDbLine
 10
13.255239
 20
-6.610886999999999
 30
0.0
 11
13.096585
 21
-6.751732
 31
0.0
  0
LINE
  5
3C2
330
4A1
100
AcDbEntity
  8
1
100
AcDbLine
 10
14.5
 20
-7.681225
 30
0.0
 11
12.565846
 21
-9.000942999999999
 31
0.0
  0
LINE
  5
3C3
330
4A1
100
AcDbEntity
  8
1
100
AcDbLine
 10
8.971011
 20
1.529137999999999
 30
0.0
 11
8.985922999999999
 21
1.526054
 31
0.0
  0
LINE
  5
3C4
330
4A1
100
AcDbEntity
  8
1
100
AcDbLine
 10
4.430473
 20
5.075374
 30
0.0
 11
4.311976999999999
 21
5.102926
 31
0.0
  0
LINE
  5
3C5
330
4A1
100
AcDbEntity
  8
1
100
AcDbLine
 10
9.923631
 20
5.640633
 30
0.0
 11
10.025208
 21
5.589319
 31
0.0
  0
LINE
  5
3C6
330
4A1
100
AcDbEntity
  8
1
100
AcDbLine
 10
9.051439
 20
1.504971999999999
 30
0.0
 11
9.058767999999998
 21
1.501072999999999
 31
0.0
  0
LINE
  5
3C7
330
4A1
100
AcDbEntity
  8
1
100
AcDbLine
 10
9.087050999999998
 20
1.460766999999999
 30
0.0
 11
9.086182
 21
1.455729
 31
0.0
  0
LINE
  5
3C8
330
4A1
100
AcDbEntity
  8
1
100
AcDbLine
 10
6.755033999999999
 20
6.193556
 30
0.0
 11
6.143487
 21
6.026755
 31
0.0
  0
POINT
  5
3C9
330
4A1
100
AcDbEntity
  8
81
100
AcDbPoint
 10
14.5
 20
10.0
 30
0.0
  0
POINT
  5
3CA
330
4A1
100
AcDbEntity
  8
80
100
AcDbPoint
 10
0.0
 20
0.0
 30
0.0
  0
POINT
  5
3CB
330
4A1
100
AcDbEntity
  8
1
100
AcDbPoint
 10
14.5
 20
-3.113465
 30
0.0
  0
TEXT
  5
3CC
330
4A1
100
AcDbEntity
  8
SK6
100
AcDbText
 10
-17.970172
 20
-32.591864
 30
0.0
 40
3.5
  1
830A-E06D2000H7S12
 41
0.79878205
  7
SANDVIK_STYLE
 72
     5
 11
29.956751
 21
-32.591864
 31
0.0
100
AcDbText
  0
TEXT
  5
3CD
330
4A1
100
AcDbEntity
  8
SK6
100
AcDbText
 10
-14.353377
 20
14.197492
 30
0.0
 40
3.5
  1
HFS12
 41
0.7922612000000006
  7
SANDVIK_STYLE
 72
     5
 11
-2.469459
 21
14.197492
 31
0.0
100
AcDbText
  0
TEXT
  5
3CE
330
4A1
100
AcDbEntity
  8
2
100
AcDbText
 10
7.407778999999999
 20
25.189165
 30
0.0
 40
3.5
  1
L=14.5 
100
AcDbText
  0
INSERT
  5
3CF
330
4A1
100
AcDbEntity
  8
2
100
AcDbBlockReference
  2
*D0
 10
0.0
 20
0.0
 30
0.0
  0
TEXT
  5
3D0
330
4A1
100
AcDbEntity
  8
2
100
AcDbText
 10
33.212826
 20
1.652777999999999
 30
0.0
 40
3.5
  1
%%d20H7
 50
90.0
100
AcDbText
  0
INSERT
  5
3D1
330
4A1
100
AcDbEntity
  8
2
100
AcDbBlockReference
  2
*D1
 10
0.0
 20
0.0
 30
0.0
  0
ENDSEC
  0
SECTION
  2
OBJECTS
  0
DICTIONARY
  5
43D
330
0
100
AcDbDictionary
281
     1
  3
ACAD_CIP_PREVIOUS_PRODUCT_INFO
350
4D4
  3
ACAD_COLOR
350
493
  3
ACAD_DETAILVIEWSTYLE
350
49B
  3
ACAD_GROUP
350
43E
  3
ACAD_LAYOUT
350
492
  3
ACAD_MATERIAL
350
441
  3
ACAD_MLEADERSTYLE
350
496
  3
ACAD_MLINESTYLE
350
48F
  3
ACAD_PLOTSETTINGS
350
491
  3
ACAD_PLOTSTYLENAME
350
43F
  3
ACAD_SCALELIST
350
473
  3
ACAD_SECTIONVIEWSTYLE
350
498
  3
ACAD_TABLESTYLE
350
494
  3
ACAD_VISUALSTYLE
350
45A
  3
ACDB_RECOMPOSE_DATA
350
530
  3
AcDbVariableDictionary
350
523
  3
DWGPROPS
350
531
  0
DICTIONARY
  5
4D7
330
485
100
AcDbDictionary
280
     1
281
     1
  3
ADSK_XREC_LAYER_RECONCILED
360
4D8
  0
DICTIONARY
  5
4D9
330
4A5
100
AcDbDictionary
280
     1
281
     1
  3
ADSK_XREC_LAYER_RECONCILED
360
4DA
  0
DICTIONARY
  5
4DB
330
4A9
100
AcDbDictionary
280
     1
281
     1
  3
ADSK_XREC_LAYER_RECONCILED
360
4DC
  0
DICTIONARY
  5
4DD
330
4AA
100
AcDbDictionary
280
     1
281
     1
  3
ADSK_XREC_LAYER_RECONCILED
360
4DE
  0
DICTIONARY
  5
4DF
330
4AB
100
AcDbDictionary
280
     1
281
     1
  3
ADSK_XREC_LAYER_RECONCILED
360
4E0
  0
DICTIONARY
  5
4E1
330
4AC
100
AcDbDictionary
280
     1
281
     1
  3
ADSK_XREC_LAYER_RECONCILED
360
4E2
  0
DICTIONARY
  5
4E3
330
4AD
100
AcDbDictionary
280
     1
281
     1
  3
ADSK_XREC_LAYER_RECONCILED
360
4E4
  0
DICTIONARY
  5
4E5
330
4AE
100
AcDbDictionary
280
     1
281
     1
  3
ADSK_XREC_LAYER_RECONCILED
360
4E6
  0
DICTIONARY
  5
4E7
330
4AF
100
AcDbDictionary
280
     1
281
     1
  3
ADSK_XREC_LAYER_RECONCILED
360
4E8
  0
DICTIONARY
  5
4E9
330
4B0
100
AcDbDictionary
280
     1
281
     1
  3
ADSK_XREC_LAYER_RECONCILED
360
4EA
  0
DICTIONARY
  5
4EB
330
4B1
100
AcDbDictionary
280
     1
281
     1
  3
ADSK_XREC_LAYER_RECONCILED
360
4EC
  0
DICTIONARY
  5
4ED
330
4B2
100
AcDbDictionary
280
     1
281
     1
  3
ADSK_XREC_LAYER_RECONCILED
360
4EE
  0
DICTIONARY
  5
4EF
330
4B3
100
AcDbDictionary
280
     1
281
     1
  3
ADSK_XREC_LAYER_RECONCILED
360
4F0
  0
DICTIONARY
  5
4F1
330
4B4
100
AcDbDictionary
280
     1
281
     1
  3
ADSK_XREC_LAYER_RECONCILED
360
4F2
  0
DICTIONARY
  5
4F3
330
4B5
100
AcDbDictionary
280
     1
281
     1
  3
ADSK_XREC_LAYER_RECONCILED
360
4F4
  0
DICTIONARY
  5
4F5
330
4B6
100
AcDbDictionary
280
     1
281
     1
  3
ADSK_XREC_LAYER_RECONCILED
360
4F6
  0
DICTIONARY
  5
4F7
330
4B7
100
AcDbDictionary
280
     1
281
     1
  3
ADSK_XREC_LAYER_RECONCILED
360
4F8
  0
DICTIONARY
  5
4F9
330
4B8
100
AcDbDictionary
280
     1
281
     1
  3
ADSK_XREC_LAYER_RECONCILED
360
4FA
  0
DICTIONARY
  5
4FB
330
4B9
100
AcDbDictionary
280
     1
281
     1
  3
ADSK_XREC_LAYER_RECONCILED
360
4FC
  0
DICTIONARY
  5
4FD
330
4BA
100
AcDbDictionary
280
     1
281
     1
  3
ADSK_XREC_LAYER_RECONCILED
360
4FE
  0
DICTIONARY
  5
4FF
330
4BB
100
AcDbDictionary
280
     1
281
     1
  3
ADSK_XREC_LAYER_RECONCILED
360
500
  0
DICTIONARY
  5
501
330
4BC
100
AcDbDictionary
280
     1
281
     1
  3
ADSK_XREC_LAYER_RECONCILED
360
502
  0
DICTIONARY
  5
503
330
4BD
100
AcDbDictionary
280
     1
281
     1
  3
ADSK_XREC_LAYER_RECONCILED
360
504
  0
DICTIONARY
  5
505
330
4BE
100
AcDbDictionary
280
     1
281
     1
  3
ADSK_XREC_LAYER_RECONCILED
360
506
  0
DICTIONARY
  5
507
330
4BF
100
AcDbDictionary
280
     1
281
     1
  3
ADSK_XREC_LAYER_RECONCILED
360
508
  0
DICTIONARY
  5
509
330
4C0
100
AcDbDictionary
280
     1
281
     1
  3
ADSK_XREC_LAYER_RECONCILED
360
50A
  0
DICTIONARY
  5
50B
330
4C1
100
AcDbDictionary
280
     1
281
     1
  3
ADSK_XREC_LAYER_RECONCILED
360
50C
  0
DICTIONARY
  5
50D
330
4C2
100
AcDbDictionary
280
     1
281
     1
  3
ADSK_XREC_LAYER_RECONCILED
360
50E
  0
DICTIONARY
  5
50F
330
4C3
100
AcDbDictionary
280
     1
281
     1
  3
ADSK_XREC_LAYER_RECONCILED
360
510
  0
DICTIONARY
  5
511
330
4C4
100
AcDbDictionary
280
     1
281
     1
  3
ADSK_XREC_LAYER_RECONCILED
360
512
  0
DICTIONARY
  5
513
330
4C5
100
AcDbDictionary
280
     1
281
     1
  3
ADSK_XREC_LAYER_RECONCILED
360
514
  0
DICTIONARY
  5
515
330
4C6
100
AcDbDictionary
280
     1
281
     1
  3
ADSK_XREC_LAYER_RECONCILED
360
516
  0
DICTIONARY
  5
517
330
4C7
100
AcDbDictionary
280
     1
281
     1
  3
ADSK_XREC_LAYER_RECONCILED
360
518
  0
DICTIONARY
  5
519
330
4C8
100
AcDbDictionary
280
     1
281
     1
  3
ADSK_XREC_LAYER_RECONCILED
360
51A
  0
DICTIONARY
  5
51B
330
4C9
100
AcDbDictionary
280
     1
281
     1
  3
ADSK_XREC_LAYER_RECONCILED
360
51C
  0
DICTIONARY
  5
51D
330
4CA
100
AcDbDictionary
280
     1
281
     1
  3
ADSK_XREC_LAYER_RECONCILED
360
51E
  0
DICTIONARY
  5
51F
330
4CB
100
AcDbDictionary
280
     1
281
     1
  3
ADSK_XREC_LAYER_RECONCILED
360
520
  0
DICTIONARY
  5
521
330
4CC
100
AcDbDictionary
280
     1
281
     1
  3
ADSK_XREC_LAYER_RECONCILED
360
522
  0
XRECORD
  5
4D4
102
{ACAD_REACTORS
330
43D
102
}
330
43D
100
AcDbXrecord
280
     1
300
AMECH_PP
300
2013
300
PDSU_F_S
  0
DICTIONARY
  5
493
102
{ACAD_REACTORS
330
43D
102
}
330
43D
100
AcDbDictionary
281
     1
  0
DICTIONARY
  5
49B
102
{ACAD_REACTORS
330
43D
102
}
330
43D
100
AcDbDictionary
281
     1
  3
Imperial24
350
49C
  0
DICTIONARY
  5
43E
102
{ACAD_REACTORS
330
43D
102
}
330
43D
100
AcDbDictionary
281
     1
  0
DICTIONARY
  5
492
102
{ACAD_REACTORS
330
43D
102
}
330
43D
100
AcDbDictionary
281
     1
  3
Layout1
350
4A0
  3
Model
350
4A4
  0
DICTIONARY
  5
441
102
{ACAD_REACTORS
330
43D
102
}
330
43D
100
AcDbDictionary
281
     1
  3
ByBlock
350
44A
  3
ByLayer
350
442
  3
Global
350
452
  0
DICTIONARY
  5
496
102
{ACAD_REACTORS
330
43D
102
}
330
43D
100
AcDbDictionary
281
     1
  3
Standard
350
497
  0
DICTIONARY
  5
48F
102
{ACAD_REACTORS
330
43D
102
}
330
43D
100
AcDbDictionary
281
     1
  3
Standard
350
490
  0
DICTIONARY
  5
491
102
{ACAD_REACTORS
330
43D
102
}
330
43D
100
AcDbDictionary
281
     1
  0
ACDBDICTIONARYWDFLT
  5
43F
102
{ACAD_REACTORS
330
43D
102
}
330
43D
100
AcDbDictionary
281
     1
  3
Normal
350
440
100
AcDbDictionaryWithDefault
340
440
  0
DICTIONARY
  5
473
102
{ACAD_REACTORS
330
43D
102
}
330
43D
100
AcDbDictionary
281
     1
  3
A0
350
474
  3
A1
350
475
  3
A2
350
476
  3
A3
350
477
  3
A4
350
478
  3
A5
350
479
  3
A6
350
47A
  3
A7
350
47B
  3
A8
350
47C
  3
A9
350
47D
  3
B0
350
47E
  3
B1
350
47F
  3
B2
350
480
  3
B3
350
481
  3
B4
350
482
  3
B5
350
483
  3
B6
350
484
  0
DICTIONARY
  5
498
102
{ACAD_REACTORS
330
43D
102
}
330
43D
100
AcDbDictionary
281
     1
  3
Imperial24
350
49A
  0
DICTIONARY
  5
494
102
{ACAD_REACTORS
330
43D
102
}
330
43D
100
AcDbDictionary
281
     1
  3
Standard
350
495
  0
DICTIONARY
  5
45A
102
{ACAD_REACTORS
330
43D
102
}
330
43D
100
AcDbDictionary
281
     1
  3
2dWireframe
350
460
  3
Basic
350
45F
  3
Brighten
350
466
  3
ColorChange
350
46A
  3
Conceptual
350
463
  3
Dim
350
465
  3
EdgeColorOff
350
472
  3
Facepattern
350
469
  3
Flat
350
45B
  3
FlatWithEdges
350
45C
  3
Gouraud
350
45D
  3
GouraudWithEdges
350
45E
  3
Hidden
350
462
  3
JitterOff
350
470
  3
Linepattern
350
468
  3
OverhangOff
350
471
  3
Realistic
350
464
  3
Shaded
350
46F
  3
Shaded with edges
350
46E
  3
Shades of Gray
350
46B
  3
Sketchy
350
46C
  3
Thicken
350
467
  3
Wireframe
350
461
  3
X-Ray
350
46D
  0
XRECORD
  5
530
102
{ACAD_REACTORS
330
43D
102
}
330
43D
100
AcDbXrecord
280
     1
 90
        1
330
495
  0
DICTIONARY
  5
523
102
{ACAD_REACTORS
330
43D
102
}
330
43D
100
AcDbDictionary
281
     1
  3
CANNOSCALE
350
528
  3
CMLEADERSTYLE
350
525
  3
CTABLESTYLE
350
524
  3
CVIEWDETAILSTYLE
350
526
  3
CVIEWSECTIONSTYLE
350
527
  3
DIMASSOC
350
52B
  3
INDEXCTL
350
52A
  3
SORTENTS
350
529
  3
XCLIPFRAME
350
52C
  0
XRECORD
  5
531
102
{ACAD_REACTORS
330
43D
102
}
330
43D
100
AcDbXrecord
280
     1
  1
DWGPROPS COOKIE
  2

  3

  4

  6

  7

  8
Micke
  9

300
=
301
=
302
=
303
=
304
=
305
=
306
=
307
=
308
=
309
=
 40
0.0000042708333333
 41
2456818.317941829
 42
2456818.3179461
  1

 90
        0
  0
XRECORD
  5
4D8
102
{ACAD_REACTORS
330
4D7
102
}
330
4D7
100
AcDbXrecord
280
     1
290
     1
  0
XRECORD
  5
4DA
102
{ACAD_REACTORS
330
4D9
102
}
330
4D9
100
AcDbXrecord
280
     1
290
     1
  0
XRECORD
  5
4DC
102
{ACAD_REACTORS
330
4DB
102
}
330
4DB
100
AcDbXrecord
280
     1
290
     1
  0
XRECORD
  5
4DE
102
{ACAD_REACTORS
330
4DD
102
}
330
4DD
100
AcDbXrecord
280
     1
290
     1
  0
XRECORD
  5
4E0
102
{ACAD_REACTORS
330
4DF
102
}
330
4DF
100
AcDbXrecord
280
     1
290
     1
  0
XRECORD
  5
4E2
102
{ACAD_REACTORS
330
4E1
102
}
330
4E1
100
AcDbXrecord
280
     1
290
     1
  0
XRECORD
  5
4E4
102
{ACAD_REACTORS
330
4E3
102
}
330
4E3
100
AcDbXrecord
280
     1
290
     1
  0
XRECORD
  5
4E6
102
{ACAD_REACTORS
330
4E5
102
}
330
4E5
100
AcDbXrecord
280
     1
290
     1
  0
XRECORD
  5
4E8
102
{ACAD_REACTORS
330
4E7
102
}
330
4E7
100
AcDbXrecord
280
     1
290
     1
  0
XRECORD
  5
4EA
102
{ACAD_REACTORS
330
4E9
102
}
330
4E9
100
AcDbXrecord
280
     1
290
     1
  0
XRECORD
  5
4EC
102
{ACAD_REACTORS
330
4EB
102
}
330
4EB
100
AcDbXrecord
280
     1
290
     1
  0
XRECORD
  5
4EE
102
{ACAD_REACTORS
330
4ED
102
}
330
4ED
100
AcDbXrecord
280
     1
290
     1
  0
XRECORD
  5
4F0
102
{ACAD_REACTORS
330
4EF
102
}
330
4EF
100
AcDbXrecord
280
     1
290
     1
  0
XRECORD
  5
4F2
102
{ACAD_REACTORS
330
4F1
102
}
330
4F1
100
AcDbXrecord
280
     1
290
     1
  0
XRECORD
  5
4F4
102
{ACAD_REACTORS
330
4F3
102
}
330
4F3
100
AcDbXrecord
280
     1
290
     1
  0
XRECORD
  5
4F6
102
{ACAD_REACTORS
330
4F5
102
}
330
4F5
100
AcDbXrecord
280
     1
290
     1
  0
XRECORD
  5
4F8
102
{ACAD_REACTORS
330
4F7
102
}
330
4F7
100
AcDbXrecord
280
     1
290
     1
  0
XRECORD
  5
4FA
102
{ACAD_REACTORS
330
4F9
102
}
330
4F9
100
AcDbXrecord
280
     1
290
     1
  0
XRECORD
  5
4FC
102
{ACAD_REACTORS
330
4FB
102
}
330
4FB
100
AcDbXrecord
280
     1
290
     1
  0
XRECORD
  5
4FE
102
{ACAD_REACTORS
330
4FD
102
}
330
4FD
100
AcDbXrecord
280
     1
290
     1
  0
XRECORD
  5
500
102
{ACAD_REACTORS
330
4FF
102
}
330
4FF
100
AcDbXrecord
280
     1
290
     1
  0
XRECORD
  5
502
102
{ACAD_REACTORS
330
501
102
}
330
501
100
AcDbXrecord
280
     1
290
     1
  0
XRECORD
  5
504
102
{ACAD_REACTORS
330
503
102
}
330
503
100
AcDbXrecord
280
     1
290
     1
  0
XRECORD
  5
506
102
{ACAD_REACTORS
330
505
102
}
330
505
100
AcDbXrecord
280
     1
290
     1
  0
XRECORD
  5
508
102
{ACAD_REACTORS
330
507
102
}
330
507
100
AcDbXrecord
280
     1
290
     1
  0
XRECORD
  5
50A
102
{ACAD_REACTORS
330
509
102
}
330
509
100
AcDbXrecord
280
     1
290
     1
  0
XRECORD
  5
50C
102
{ACAD_REACTORS
330
50B
102
}
330
50B
100
AcDbXrecord
280
     1
290
     1
  0
XRECORD
  5
50E
102
{ACAD_REACTORS
330
50D
102
}
330
50D
100
AcDbXrecord
280
     1
290
     1
  0
XRECORD
  5
510
102
{ACAD_REACTORS
330
50F
102
}
330
50F
100
AcDbXrecord
280
     1
290
     1
  0
XRECORD
  5
512
102
{ACAD_REACTORS
330
511
102
}
330
511
100
AcDbXrecord
280
     1
290
     1
  0
XRECORD
  5
514
102
{ACAD_REACTORS
330
513
102
}
330
513
100
AcDbXrecord
280
     1
290
     1
  0
XRECORD
  5
516
102
{ACAD_REACTORS
330
515
102
}
330
515
100
AcDbXrecord
280
     1
290
     1
  0
XRECORD
  5
518
102
{ACAD_REACTORS
330
517
102
}
330
517
100
AcDbXrecord
280
     1
290
     1
  0
XRECORD
  5
51A
102
{ACAD_REACTORS
330
519
102
}
330
519
100
AcDbXrecord
280
     1
290
     1
  0
XRECORD
  5
51C
102
{ACAD_REACTORS
330
51B
102
}
330
51B
100
AcDbXrecord
280
     1
290
     1
  0
XRECORD
  5
51E
102
{ACAD_REACTORS
330
51D
102
}
330
51D
100
AcDbXrecord
280
     1
290
     1
  0
XRECORD
  5
520
102
{ACAD_REACTORS
330
51F
102
}
330
51F
100
AcDbXrecord
280
     1
290
     1
  0
XRECORD
  5
522
102
{ACAD_REACTORS
330
521
102
}
330
521
100
AcDbXrecord
280
     1
290
     1
  0
ACDBDETAILVIEWSTYLE
  5
49C
102
{ACAD_REACTORS
330
49B
102
}
330
49B
100
AcDbModelDocViewStyle
 70
     0
  3
Imperial24
290
     0
100
AcDbDetailViewStyle
 70
     0
 71
     0
 90
        3
 71
     1
340
486
 40
0.24
340
0
 40
0.24
300

 40
0.36
280
     3
 71
     2
340
48D
 90
       25
 71
     3
340
486
 40
0.24
 90
        1
 40
0.75
 90
        1
300
%<\AcVar ViewType \f "%tc1">% %<\AcVar ViewDetailId>%\PSCALE %<\AcVar ViewScale \f "%sn">%
 71
     4
340
48D
 90
       25
340
48D
 90
       25
280
     0
  0
LAYOUT
  5
4A0
102
{ACAD_XDICTIONARY
360
567
102
}
102
{ACAD_REACTORS
330
492
102
}
330
492
100
AcDbPlotSettings
  1

  2
Brother DCP-9020CDW Printer
  4

  6

 40
0.0
 41
0.0
 42
0.0
 43
0.0
 44
0.0
 45
0.0
 46
0.0
 47
0.0
 48
0.0
 49
0.0
140
0.0
141
0.0
142
1.0
143
1.0
 70
   688
 72
     0
 73
     0
 74
     5
  7

 75
    16
147
1.0
148
0.0
149
0.0
100
AcDbLayout
  1
Layout1
 70
     1
 71
     1
 10
0.0
 20
0.0
 11
12.0
 21
9.0
 12
0.0
 22
0.0
 32
0.0
 14
1.000000000000000E+20
 24
1.000000000000000E+20
 34
1.000000000000000E+20
 15
-1.000000000000000E+20
 25
-1.000000000000000E+20
 35
-1.000000000000000E+20
146
0.0
 13
0.0
 23
0.0
 33
0.0
 16
1.0
 26
0.0
 36
0.0
 17
0.0
 27
1.0
 37
0.0
 76
     0
330
49D
  0
LAYOUT
  5
4A4
102
{ACAD_XDICTIONARY
360
569
102
}
102
{ACAD_REACTORS
330
492
102
}
330
492
100
AcDbPlotSettings
  1

  2
Brother DCP-9020CDW Printer
  4

  6

 40
0.0
 41
0.0
 42
0.0
 43
0.0
 44
0.0
 45
0.0
 46
0.0
 47
0.0
 48
0.0
 49
0.0
140
0.0
141
0.0
142
1.0
143
1.0
 70
  1712
 72
     0
 73
     0
 74
     0
  7

 75
     0
147
1.0
148
0.0
149
0.0
100
AcDbLayout
  1
Model
 70
     1
 71
     0
 10
0.0
 20
0.0
 11
12.0
 21
9.0
 12
0.0
 22
0.0
 32
0.0
 14
0.0
 24
0.0
 34
0.0
 15
0.0
 25
0.0
 35
0.0
146
0.0
 13
0.0
 23
0.0
 33
0.0
 16
1.0
 26
0.0
 36
0.0
 17
0.0
 27
1.0
 37
0.0
 76
     0
330
4A1
331
4D0
  0
MATERIAL
  5
44A
102
{ACAD_XDICTIONARY
360
44B
102
}
102
{ACAD_REACTORS
330
441
102
}
330
441
100
AcDbMaterial
  1
ByBlock
 72
     0
 43
0.0208333333333333
 43
0.0
 43
0.0
 43
0.0
 43
0.0
 43
0.0208333333333333
 43
0.0
 43
0.0
 43
0.0
 43
0.0
 43
1.0
 43
0.0
 43
0.0
 43
0.0
 43
0.0
 43
1.0
 77
     0
 47
0.0208333333333333
 47
0.0
 47
0.0
 47
0.0
 47
0.0
 47
0.0208333333333333
 47
0.0
 47
0.0
 47
0.0
 47
0.0
 47
1.0
 47
0.0
 47
0.0
 47
0.0
 47
0.0
 47
1.0
171
     0
 49
0.0208333333333333
 49
0.0
 49
0.0
 49
0.0
 49
0.0
 49
0.0208333333333333
 49
0.0
 49
0.0
 49
0.0
 49
0.0
 49
1.0
 49
0.0
 49
0.0
 49
0.0
 49
0.0
 49
1.0
175
     0
142
0.0208333333333333
142
0.0
142
0.0
142
0.0
142
0.0
142
0.0208333333333333
142
0.0
142
0.0
142
0.0
142
0.0
142
1.0
142
0.0
142
0.0
142
0.0
142
0.0
142
1.0
179
     0
144
0.0208333333333333
144
0.0
144
0.0
144
0.0
144
0.0
144
0.0208333333333333
144
0.0
144
0.0
144
0.0
144
0.0
144
1.0
144
0.0
144
0.0
144
0.0
144
0.0
144
1.0
147
0.0208333333333333
147
0.0
147
0.0
147
0.0
147
0.0
147
0.0208333333333333
147
0.0
147
0.0
147
0.0
147
0.0
147
1.0
147
0.0
147
0.0
147
0.0
147
0.0
147
1.0
  0
MATERIAL
  5
442
102
{ACAD_XDICTIONARY
360
443
102
}
102
{ACAD_REACTORS
330
441
102
}
330
441
100
AcDbMaterial
  1
ByLayer
 72
     0
 43
0.0208333333333333
 43
0.0
 43
0.0
 43
0.0
 43
0.0
 43
0.0208333333333333
 43
0.0
 43
0.0
 43
0.0
 43
0.0
 43
1.0
 43
0.0
 43
0.0
 43
0.0
 43
0.0
 43
1.0
 77
     0
 47
0.0208333333333333
 47
0.0
 47
0.0
 47
0.0
 47
0.0
 47
0.0208333333333333
 47
0.0
 47
0.0
 47
0.0
 47
0.0
 47
1.0
 47
0.0
 47
0.0
 47
0.0
 47
0.0
 47
1.0
171
     0
 49
0.0208333333333333
 49
0.0
 49
0.0
 49
0.0
 49
0.0
 49
0.0208333333333333
 49
0.0
 49
0.0
 49
0.0
 49
0.0
 49
1.0
 49
0.0
 49
0.0
 49
0.0
 49
0.0
 49
1.0
175
     0
142
0.0208333333333333
142
0.0
142
0.0
142
0.0
142
0.0
142
0.0208333333333333
142
0.0
142
0.0
142
0.0
142
0.0
142
1.0
142
0.0
142
0.0
142
0.0
142
0.0
142
1.0
179
     0
144
0.0208333333333333
144
0.0
144
0.0
144
0.0
144
0.0
144
0.0208333333333333
144
0.0
144
0.0
144
0.0
144
0.0
144
1.0
144
0.0
144
0.0
144
0.0
144
0.0
144
1.0
147
0.0208333333333333
147
0.0
147
0.0
147
0.0
147
0.0
147
0.0208333333333333
147
0.0
147
0.0
147
0.0
147
0.0
147
1.0
147
0.0
147
0.0
147
0.0
147
0.0
147
1.0
  0
MATERIAL
  5
452
102
{ACAD_XDICTIONARY
360
453
102
}
102
{ACAD_REACTORS
330
441
102
}
330
441
100
AcDbMaterial
  1
Global
 72
     0
 43
0.0208333333333333
 43
0.0
 43
0.0
 43
0.0
 43
0.0
 43
0.0208333333333333
 43
0.0
 43
0.0
 43
0.0
 43
0.0
 43
1.0
 43
0.0
 43
0.0
 43
0.0
 43
0.0
 43
1.0
 77
     0
 47
0.0208333333333333
 47
0.0
 47
0.0
 47
0.0
 47
0.0
 47
0.0208333333333333
 47
0.0
 47
0.0
 47
0.0
 47
0.0
 47
1.0
 47
0.0
 47
0.0
 47
0.0
 47
0.0
 47
1.0
171
     0
 49
0.0208333333333333
 49
0.0
 49
0.0
 49
0.0
 49
0.0
 49
0.0208333333333333
 49
0.0
 49
0.0
 49
0.0
 49
0.0
 49
1.0
 49
0.0
 49
0.0
 49
0.0
 49
0.0
 49
1.0
175
     0
142
0.0208333333333333
142
0.0
142
0.0
142
0.0
142
0.0
142
0.0208333333333333
142
0.0
142
0.0
142
0.0
142
0.0
142
1.0
142
0.0
142
0.0
142
0.0
142
0.0
142
1.0
179
     0
144
0.0208333333333333
144
0.0
144
0.0
144
0.0
144
0.0
144
0.0208333333333333
144
0.0
144
0.0
144
0.0
144
0.0
144
1.0
144
0.0
144
0.0
144
0.0
144
0.0
144
1.0
147
0.0208333333333333
147
0.0
147
0.0
147
0.0
147
0.0
147
0.0208333333333333
147
0.0
147
0.0
147
0.0
147
0.0
147
1.0
147
0.0
147
0.0
147
0.0
147
0.0
147
1.0
  0
MLEADERSTYLE
  5
497
102
{ACAD_REACTORS
330
496
102
}
330
496
100
AcDbMLeaderStyle
170
     2
171
     1
172
     0
 90
        2
 40
0.0
 41
0.0
173
     1
 91
-1056964608
340
48B
 92
       -2
290
     1
 42
0.09
291
     1
 43
0.36
  3
Standard
 44
0.18
300

342
486
174
     1
178
     6
175
     1
176
     0
 93
-1056964608
 45
0.18
292
     0
297
     0
 46
0.18
 94
-1056964608
 47
1.0
 49
1.0
140
1.0
293
     1
141
0.0
294
     1
177
     0
142
1.0
295
     0
296
     0
143
0.125
1001
ACAD_MLEADERVER
1070
     2
  0
MLINESTYLE
  5
490
102
{ACAD_REACTORS
330
48F
102
}
330
48F
100
AcDbMlineStyle
  2
STANDARD
 70
     0
  3

 62
   256
 51
90.0
 52
90.0
 71
     2
 49
0.5
 62
   256
  6
BYLAYER
 49
-0.5
 62
   256
  6
BYLAYER
  0
ACDBPLACEHOLDER
  5
440
102
{ACAD_REACTORS
330
43F
102
}
330
43F
  0
SCALE
  5
474
102
{ACAD_REACTORS
330
473
102
}
330
473
100
AcDbScale
 70
     0
300
1:1
140
1.0
141
1.0
290
     1
  0
SCALE
  5
475
102
{ACAD_REACTORS
330
473
102
}
330
473
100
AcDbScale
 70
     0
300
1/128" = 1'-0"
140
0.0078125
141
12.0
290
     0
  0
SCALE
  5
476
102
{ACAD_REACTORS
330
473
102
}
330
473
100
AcDbScale
 70
     0
300
1/64" = 1'-0"
140
0.015625
141
12.0
290
     0
  0
SCALE
  5
477
102
{ACAD_REACTORS
330
473
102
}
330
473
100
AcDbScale
 70
     0
300
1/32" = 1'-0"
140
0.03125
141
12.0
290
     0
  0
SCALE
  5
478
102
{ACAD_REACTORS
330
473
102
}
330
473
100
AcDbScale
 70
     0
300
1/16" = 1'-0"
140
0.0625
141
12.0
290
     0
  0
SCALE
  5
479
102
{ACAD_REACTORS
330
473
102
}
330
473
100
AcDbScale
 70
     0
300
3/32" = 1'-0"
140
0.09375
141
12.0
290
     0
  0
SCALE
  5
47A
102
{ACAD_REACTORS
330
473
102
}
330
473
100
AcDbScale
 70
     0
300
1/8" = 1'-0"
140
0.125
141
12.0
290
     0
  0
SCALE
  5
47B
102
{ACAD_REACTORS
330
473
102
}
330
473
100
AcDbScale
 70
     0
300
3/16" = 1'-0"
140
0.1875
141
12.0
290
     0
  0
SCALE
  5
47C
102
{ACAD_REACTORS
330
473
102
}
330
473
100
AcDbScale
 70
     0
300
1/4" = 1'-0"
140
0.25
141
12.0
290
     0
  0
SCALE
  5
47D
102
{ACAD_REACTORS
330
473
102
}
330
473
100
AcDbScale
 70
     0
300
3/8" = 1'-0"
140
0.375
141
12.0
290
     0
  0
SCALE
  5
47E
102
{ACAD_REACTORS
330
473
102
}
330
473
100
AcDbScale
 70
     0
300
1/2" = 1'-0"
140
0.5
141
12.0
290
     0
  0
SCALE
  5
47F
102
{ACAD_REACTORS
330
473
102
}
330
473
100
AcDbScale
 70
     0
300
3/4" = 1'-0"
140
0.75
141
12.0
290
     0
  0
SCALE
  5
480
102
{ACAD_REACTORS
330
473
102
}
330
473
100
AcDbScale
 70
     0
300
1" = 1'-0"
140
1.0
141
12.0
290
     0
  0
SCALE
  5
481
102
{ACAD_REACTORS
330
473
102
}
330
473
100
AcDbScale
 70
     0
300
1-1/2" = 1'-0"
140
1.5
141
12.0
290
     0
  0
SCALE
  5
482
102
{ACAD_REACTORS
330
473
102
}
330
473
100
AcDbScale
 70
     0
300
3" = 1'-0"
140
3.0
141
12.0
290
     0
  0
SCALE
  5
483
102
{ACAD_REACTORS
330
473
102
}
330
473
100
AcDbScale
 70
     0
300
6" = 1'-0"
140
6.0
141
12.0
290
     0
  0
SCALE
  5
484
102
{ACAD_REACTORS
330
473
102
}
330
473
100
AcDbScale
 70
     0
300
1'-0" = 1'-0"
140
12.0
141
12.0
290
     0
  0
ACDBSECTIONVIEWSTYLE
  5
49A
102
{ACAD_REACTORS
330
498
102
}
330
498
100
AcDbModelDocViewStyle
 70
     0
  3
Imperial24
290
     0
100
AcDbSectionViewStyle
 70
     0
 71
     0
 90
       78
 71
     1
340
486
 40
0.24
340
0
340
0
 40
0.24
300
I, O, Q, S, X, Z
 40
0.48
 90
        3
 40
0.18
 90
        1
 71
     2
340
499
 90
       25
340
48D
 90
       50
 40
0.24
 40
0.0
 40
0.24
 71
     3
340
486
 40
0.24
 90
        1
 40
0.75
 90
        1
300
%<\AcVar ViewType \f "%tc1">% %<\AcVar ViewSectionStartId>%-%<\AcVar ViewSectionEndId>%\PSCALE %<\AcVar ViewScale \f "%sn">%
 71
     4
300
ANSI31
 40
1.0
 90
        0
290
     0
290
     0
 90
        6
 40
0.0
 40
1.570796326794896
 40
0.2617993877991494
 40
1.308996938995747
 40
-0.2617993877991494
 40
1.832595714594046
  0
TABLESTYLE
  5
495
102
{ACAD_XDICTIONARY
360
52E
102
}
102
{ACAD_REACTORS
330
494
102
}
330
494
100
AcDbTableStyle
  3
Standard
 70
     0
 71
     0
 40
0.06
 41
0.06
280
     0
281
     0
  7
STANDARD
140
0.18
170
     2
 62
     0
 63
     7
283
     0
274
    -2
284
     1
 64
     0
275
    -2
285
     1
 65
     0
276
    -2
286
     1
 66
     0
277
    -2
287
     1
 67
     0
278
    -2
288
     1
 68
     0
279
    -2
289
     1
 69
     0
  7
STANDARD
140
0.25
170
     5
 62
     0
 63
     7
283
     0
274
    -2
284
     1
 64
     0
275
    -2
285
     1
 65
     0
276
    -2
286
     1
 66
     0
277
    -2
287
     1
 67
     0
278
    -2
288
     1
 68
     0
279
    -2
289
     1
 69
     0
  7
STANDARD
140
0.18
170
     5
 62
     0
 63
     7
283
     0
274
    -2
284
     1
 64
     0
275
    -2
285
     1
 65
     0
276
    -2
286
     1
 66
     0
277
    -2
287
     1
 67
     0
278
    -2
288
     1
 68
     0
279
    -2
289
     1
 69
     0
  0
VISUALSTYLE
  5
460
102
{ACAD_XDICTIONARY
360
53F
102
}
102
{ACAD_REACTORS
330
45A
102
}
330
45A
100
AcDbVisualStyle
  2
2dWireframe
 70
     4
 71
     0
 72
     2
 73
     0
 90
        0
 40
-0.6
 41
-30.0
 62
     5
 63
     7
 74
     1
 91
        4
 64
     7
 65
   257
 75
     1
175
     1
 42
1.0
 92
        0
 66
   257
 43
1.0
 76
     1
 77
     6
 78
     2
 67
     7
 79
     5
170
     0
171
     0
290
     0
174
     0
 93
        1
 44
0.0
173
     0
291
     0
 45
0.0
1001
ACAD
1000
AcDbSavedByObjectVersion
1070
     0
  0
VISUALSTYLE
  5
45F
102
{ACAD_XDICTIONARY
360
53D
102
}
102
{ACAD_REACTORS
330
45A
102
}
330
45A
100
AcDbVisualStyle
  2
Basic
 70
     7
 71
     1
 72
     0
 73
     1
 90
        0
 40
-0.6
 41
-30.0
 62
     5
 63
     7
 74
     0
 91
        4
 64
     7
 65
   257
 75
     1
175
     1
 42
1.0
 92
        8
 66
     7
 43
1.0
 76
     1
 77
     6
 78
     2
 67
     7
 79
     5
170
     0
171
     0
290
     0
174
     0
 93
        1
 44
0.0
173
     0
291
     1
 45
0.0
1001
ACAD
1000
AcDbSavedByObjectVersion
1070
     0
  0
VISUALSTYLE
  5
466
102
{ACAD_XDICTIONARY
360
54B
102
}
102
{ACAD_REACTORS
330
45A
102
}
330
45A
100
AcDbVisualStyle
  2
Brighten
 70
    12
 71
     2
 72
     2
 73
     0
 90
        0
 40
-0.6
 41
-30.0
 62
     5
 63
     7
 74
     1
 91
        4
 64
     7
 65
   257
 75
     1
175
     1
 42
1.0
 92
        8
 66
     7
 43
1.0
 76
     1
 77
     6
 78
     2
 67
     7
 79
     5
170
     0
171
     0
290
     0
174
     0
 93
        1
 44
50.0
173
     0
291
     1
 45
0.0
1001
ACAD
1000
AcDbSavedByObjectVersion
1070
     0
  0
VISUALSTYLE
  5
46A
102
{ACAD_XDICTIONARY
360
553
102
}
102
{ACAD_REACTORS
330
45A
102
}
330
45A
100
AcDbVisualStyle
  2
ColorChange
 70
    16
 71
     2
 72
     2
 73
     3
 90
        0
 40
-0.6
 41
-30.0
 62
     5
 63
     8
 74
     1
 91
        4
 64
     7
 65
   257
 75
     1
175
     1
 42
1.0
 92
        8
 66
     8
 43
1.0
 76
     1
 77
     6
 78
     2
 67
     7
 79
     5
170
     0
171
     0
290
     0
174
     0
 93
        1
 44
0.0
173
     0
291
     1
 45
0.0
1001
ACAD
1000
AcDbSavedByObjectVersion
1070
     0
  0
VISUALSTYLE
  5
463
102
{ACAD_XDICTIONARY
360
545
102
}
102
{ACAD_REACTORS
330
45A
102
}
330
45A
100
AcDbVisualStyle
  2
Conceptual
 70
     9
 71
     3
 72
     2
 73
     0
 90
        0
 40
-0.6
 41
-30.0
 62
     5
 63
     7
 74
     2
 91
        2
 64
     7
 65
   257
 75
     1
175
     1
 42
179.0
 92
        8
 66
     7
 43
1.0
 76
     1
 77
     6
 78
     2
 67
     7
 79
     3
170
     0
171
     0
290
     0
174
     0
 93
        1
 44
0.0
173
     0
291
     0
 45
0.0
1001
ACAD
1000
AcDbSavedByObjectVersion
1070
     0
  0
VISUALSTYLE
  5
465
102
{ACAD_XDICTIONARY
360
549
102
}
102
{ACAD_REACTORS
330
45A
102
}
330
45A
100
AcDbVisualStyle
  2
Dim
 70
    11
 71
     2
 72
     2
 73
     0
 90
        0
 40
-0.6
 41
-30.0
 62
     5
 63
     7
 74
     1
 91
        4
 64
     7
 65
   257
 75
     1
175
     1
 42
1.0
 92
        8
 66
     7
 43
1.0
 76
     1
 77
     6
 78
     2
 67
     7
 79
     5
170
     0
171
     0
290
     0
174
     0
 93
        1
 44
-50.0
173
     0
291
     1
 45
0.0
1001
ACAD
1000
AcDbSavedByObjectVersion
1070
     0
  0
VISUALSTYLE
  5
472
102
{ACAD_XDICTIONARY
360
563
102
}
102
{ACAD_REACTORS
330
45A
102
}
330
45A
100
AcDbVisualStyle
  2
EdgeColorOff
 70
    22
 71
     2
 72
     2
 73
     0
 90
        0
 40
-0.6
 41
-30.0
 62
     5
 63
     7
 74
     1
 91
        4
 64
     7
 65
   257
 75
     1
175
     1
 42
1.0
 92
        8
 66
     7
 43
1.0
 76
     1
 77
     6
 78
     2
 67
     7
 79
     5
170
     0
171
     0
290
     0
174
     0
 93
        1
 44
0.0
173
     0
291
     1
 45
0.0
1001
ACAD
1000
AcDbSavedByObjectVersion
1070
     0
  0
VISUALSTYLE
  5
469
102
{ACAD_XDICTIONARY
360
551
102
}
102
{ACAD_REACTORS
330
45A
102
}
330
45A
100
AcDbVisualStyle
  2
Facepattern
 70
    15
 71
     2
 72
     2
 73
     0
 90
        0
 40
-0.6
 41
-30.0
 62
     5
 63
     7
 74
     1
 91
        4
 64
     7
 65
   257
 75
     1
175
     1
 42
1.0
 92
        8
 66
     7
 43
1.0
 76
     1
 77
     6
 78
     2
 67
     7
 79
     5
170
     0
171
     0
290
     0
174
     0
 93
        1
 44
0.0
173
     0
291
     1
 45
0.0
1001
ACAD
1000
AcDbSavedByObjectVersion
1070
     0
  0
VISUALSTYLE
  5
45B
102
{ACAD_XDICTIONARY
360
535
102
}
102
{ACAD_REACTORS
330
45A
102
}
330
45A
100
AcDbVisualStyle
  2
Flat
 70
     0
 71
     2
 72
     1
 73
     1
 90
        2
 40
-0.6
 41
30.0
 62
     5
 63
     7
 74
     0
 91
        0
 64
     7
 65
   257
 75
     1
175
     1
 42
1.0
 92
        8
 66
     7
 43
1.0
 76
     1
 77
     6
 78
     2
 67
     7
 79
     5
170
     0
171
     0
290
     0
174
     0
 93
       13
 44
0.0
173
     0
291
     1
 45
0.0
1001
ACAD
1000
AcDbSavedByObjectVersion
1070
     0
  0
VISUALSTYLE
  5
45C
102
{ACAD_XDICTIONARY
360
537
102
}
102
{ACAD_REACTORS
330
45A
102
}
330
45A
100
AcDbVisualStyle
  2
FlatWithEdges
 70
     1
 71
     2
 72
     1
 73
     1
 90
        2
 40
-0.6
 41
30.0
 62
     5
 63
     7
 74
     1
 91
        0
 64
     7
 65
   257
 75
     1
175
     1
 42
1.0
 92
        0
 66
   257
 43
1.0
 76
     1
 77
     6
 78
     2
 67
     7
 79
     5
170
     0
171
     0
290
     0
174
     0
 93
       13
 44
0.0
173
     0
291
     1
 45
0.0
1001
ACAD
1000
AcDbSavedByObjectVersion
1070
     0
  0
VISUALSTYLE
  5
45D
102
{ACAD_XDICTIONARY
360
539
102
}
102
{ACAD_REACTORS
330
45A
102
}
330
45A
100
AcDbVisualStyle
  2
Gouraud
 70
     2
 71
     2
 72
     2
 73
     1
 90
        2
 40
-0.6
 41
30.0
 62
     5
 63
     7
 74
     0
 91
        0
 64
     7
 65
   257
 75
     1
175
     1
 42
1.0
 92
        0
 66
     7
 43
1.0
 76
     1
 77
     6
 78
     2
 67
     7
 79
     5
170
     0
171
     0
290
     0
174
     0
 93
       13
 44
0.0
173
     0
291
     1
 45
0.0
1001
ACAD
1000
AcDbSavedByObjectVersion
1070
     0
  0
VISUALSTYLE
  5
45E
102
{ACAD_XDICTIONARY
360
53B
102
}
102
{ACAD_REACTORS
330
45A
102
}
330
45A
100
AcDbVisualStyle
  2
GouraudWithEdges
 70
     3
 71
     2
 72
     2
 73
     1
 90
        2
 40
-0.6
 41
30.0
 62
     5
 63
     7
 74
     1
 91
        0
 64
     7
 65
   257
 75
     1
175
     1
 42
1.0
 92
        0
 66
   257
 43
1.0
 76
     1
 77
     6
 78
     2
 67
     7
 79
     5
170
     0
171
     0
290
     0
174
     0
 93
       13
 44
0.0
173
     0
291
     1
 45
0.0
1001
ACAD
1000
AcDbSavedByObjectVersion
1070
     0
  0
VISUALSTYLE
  5
462
102
{ACAD_XDICTIONARY
360
543
102
}
102
{ACAD_REACTORS
330
45A
102
}
330
45A
100
AcDbVisualStyle
  2
Hidden
 70
     6
 71
     1
 72
     2
 73
     2
 90
        0
 40
-0.6
 41
-30.0
 62
     5
 63
     7
 74
     2
 91
        2
 64
     7
 65
   257
 75
     2
175
     1
 42
40.0
 92
        0
 66
   257
 43
1.0
 76
     1
 77
     6
 78
     2
 67
     7
 79
     3
170
     0
171
     0
290
     0
174
     0
 93
        1
 44
0.0
173
     0
291
     0
 45
0.0
1001
ACAD
1000
AcDbSavedByObjectVersion
1070
     0
  0
VISUALSTYLE
  5
470
102
{ACAD_XDICTIONARY
360
55F
102
}
102
{ACAD_REACTORS
330
45A
102
}
330
45A
100
AcDbVisualStyle
  2
JitterOff
 70
    20
 71
     2
 72
     2
 73
     0
 90
        0
 40
-0.6
 41
-30.0
 62
     5
 63
     7
 74
     1
 91
        4
 64
     7
 65
   257
 75
     1
175
     1
 42
1.0
 92
       10
 66
     7
 43
1.0
 76
     1
 77
     6
 78
     2
 67
     7
 79
     5
170
     0
171
     0
290
     0
174
     0
 93
        1
 44
0.0
173
     0
291
     1
 45
0.0
1001
ACAD
1000
AcDbSavedByObjectVersion
1070
     0
  0
VISUALSTYLE
  5
468
102
{ACAD_XDICTIONARY
360
54F
102
}
102
{ACAD_REACTORS
330
45A
102
}
330
45A
100
AcDbVisualStyle
  2
Linepattern
 70
    14
 71
     2
 72
     2
 73
     0
 90
        0
 40
-0.6
 41
-30.0
 62
     5
 63
     7
 74
     1
 91
        4
 64
     7
 65
   257
 75
     7
175
     7
 42
1.0
 92
        8
 66
     7
 43
1.0
 76
     1
 77
     6
 78
     2
 67
     7
 79
     5
170
     0
171
     0
290
     0
174
     0
 93
        1
 44
0.0
173
     0
291
     1
 45
0.0
1001
ACAD
1000
AcDbSavedByObjectVersion
1070
     0
  0
VISUALSTYLE
  5
471
102
{ACAD_XDICTIONARY
360
561
102
}
102
{ACAD_REACTORS
330
45A
102
}
330
45A
100
AcDbVisualStyle
  2
OverhangOff
 70
    21
 71
     2
 72
     2
 73
     0
 90
        0
 40
-0.6
 41
-30.0
 62
     5
 63
     7
 74
     1
 91
        4
 64
     7
 65
   257
 75
     1
175
     1
 42
1.0
 92
        9
 66
     7
 43
1.0
 76
     1
 77
     6
 78
     2
 67
     7
 79
     5
170
     0
171
     0
290
     0
174
     0
 93
        1
 44
0.0
173
     0
291
     1
 45
0.0
1001
ACAD
1000
AcDbSavedByObjectVersion
1070
     0
  0
VISUALSTYLE
  5
464
102
{ACAD_XDICTIONARY
360
547
102
}
102
{ACAD_REACTORS
330
45A
102
}
330
45A
100
AcDbVisualStyle
  2
Realistic
 70
     8
 71
     2
 72
     3
 73
     0
 90
        2
 40
-0.6
 41
30.0
 62
     5
 63
     7
 74
     0
 91
        0
 64
     7
 65
   257
 75
     1
175
     1
 42
1.0
 92
        8
 66
   257
 43
1.0
 76
     1
 77
     6
 78
     2
 67
     7
 79
     3
170
     0
171
     0
290
     0
174
     0
 93
       13
 44
0.0
173
     0
291
     0
 45
0.0
1001
ACAD
1000
AcDbSavedByObjectVersion
1070
     0
  0
VISUALSTYLE
  5
46F
102
{ACAD_XDICTIONARY
360
55D
102
}
102
{ACAD_REACTORS
330
45A
102
}
330
45A
100
AcDbVisualStyle
  2
Shaded
 70
    27
 71
     2
 72
     2
 73
     1
 90
        2
 40
-0.6
 41
30.0
 62
     5
 63
     7
 74
     0
 91
        4
 64
     7
 65
   257
 75
     1
175
     1
 42
1.0
 92
        8
 66
   257
 43
1.0
 76
     1
 77
     6
 78
     2
 67
     8
 79
     3
170
     0
171
     0
290
     0
174
     0
 93
        5
 44
0.0
173
     0
291
     0
 45
0.0
1001
ACAD
1000
AcDbSavedByObjectVersion
1070
     0
  0
VISUALSTYLE
  5
46E
102
{ACAD_XDICTIONARY
360
55B
102
}
102
{ACAD_REACTORS
330
45A
102
}
330
45A
100
AcDbVisualStyle
  2
Shaded with edges
 70
    26
 71
     2
 72
     2
 73
     1
 90
        2
 40
-0.6
 41
30.0
 62
     5
 63
     7
 74
     1
 91
       10
 64
     7
 65
   257
 75
     2
175
     1
 42
1.0
 92
        8
 66
   257
 43
1.0
 76
     1
 77
     6
 78
     2
 67
     7
 79
     3
170
     0
171
     0
290
     0
174
     0
 93
        5
 44
0.0
173
     0
291
     0
 45
0.0
1001
ACAD
1000
AcDbSavedByObjectVersion
1070
     0
  0
VISUALSTYLE
  5
46B
102
{ACAD_XDICTIONARY
360
555
102
}
102
{ACAD_REACTORS
330
45A
102
}
330
45A
100
AcDbVisualStyle
  2
Shades of Gray
 70
    23
 71
     2
 72
     2
 73
     3
 90
        0
 40
-0.6
 41
-30.0
 62
     5
 63
     7
 74
     2
 91
        2
 64
     7
 65
     7
 75
     1
175
     1
 42
40.0
 92
        8
 66
     7
 43
1.0
 76
     1
 77
     6
 78
     2
 67
     7
 79
     3
170
     0
171
     0
290
     0
174
     0
 93
        1
 44
0.0
173
     0
291
     0
 45
0.0
1001
ACAD
1000
AcDbSavedByObjectVersion
1070
     0
  0
VISUALSTYLE
  5
46C
102
{ACAD_XDICTIONARY
360
557
102
}
102
{ACAD_REACTORS
330
45A
102
}
330
45A
100
AcDbVisualStyle
  2
Sketchy
 70
    24
 71
     1
 72
     2
 73
     2
 90
        0
 40
-0.6
 41
-30.0
 62
     5
 63
     7
 74
     2
 91
        2
 64
     7
 65
     7
 75
     1
175
     1
 42
40.0
 92
       11
 66
     7
 43
1.0
 76
     1
 77
     6
 78
     2
 67
     7
 79
     6
170
     0
171
     0
290
     0
174
     0
 93
        1
 44
0.0
173
     0
291
     0
 45
0.0
1001
ACAD
1000
AcDbSavedByObjectVersion
1070
     0
  0
VISUALSTYLE
  5
467
102
{ACAD_XDICTIONARY
360
54D
102
}
102
{ACAD_REACTORS
330
45A
102
}
330
45A
100
AcDbVisualStyle
  2
Thicken
 70
    13
 71
     2
 72
     2
 73
     0
 90
        0
 40
-0.6
 41
-30.0
 62
     5
 63
     7
 74
     1
 91
        4
 64
     7
 65
   257
 75
     1
175
     1
 42
1.0
 92
       12
 66
     7
 43
1.0
 76
     1
 77
     6
 78
     2
 67
     7
 79
     5
170
     0
171
     0
290
     0
174
     0
 93
        1
 44
0.0
173
     0
291
     1
 45
0.0
1001
ACAD
1000
AcDbSavedByObjectVersion
1070
     0
  0
VISUALSTYLE
  5
461
102
{ACAD_XDICTIONARY
360
541
102
}
102
{ACAD_REACTORS
330
45A
102
}
330
45A
100
AcDbVisualStyle
  2
Wireframe
 70
     5
 71
     0
 72
     2
 73
     0
 90
        0
 40
-0.6
 41
-30.0
 62
     5
 63
     7
 74
     1
 91
        4
 64
     7
 65
   257
 75
     1
175
     1
 42
1.0
 92
        0
 66
   257
 43
1.0
 76
     1
 77
     6
 78
     2
 67
     7
 79
     3
170
     0
171
     0
290
     0
174
     0
 93
        1
 44
0.0
173
     0
291
     0
 45
0.0
1001
ACAD
1000
AcDbSavedByObjectVersion
1070
     0
  0
VISUALSTYLE
  5
46D
102
{ACAD_XDICTIONARY
360
559
102
}
102
{ACAD_REACTORS
330
45A
102
}
330
45A
100
AcDbVisualStyle
  2
X-Ray
 70
    25
 71
     2
 72
     2
 73
     1
 90
        1
 40
0.5
 41
-30.0
 62
     5
 63
     7
 74
     1
 91
        0
 64
     7
 65
   257
 75
     1
175
     1
 42
1.0
 92
        8
 66
     7
 43
1.0
 76
     1
 77
     6
 78
     2
 67
     7
 79
     3
170
     0
171
     0
290
     0
174
     0
 93
       13
 44
0.0
173
     0
291
     0
 45
0.0
1001
ACAD
1000
AcDbSavedByObjectVersion
1070
     0
  0
DICTIONARYVAR
  5
528
102
{ACAD_REACTORS
330
523
102
}
330
523
100
DictionaryVariables
280
     0
  1
1:1
  0
DICTIONARYVAR
  5
525
102
{ACAD_REACTORS
330
523
102
}
330
523
100
DictionaryVariables
280
     0
  1
STANDARD
  0
DICTIONARYVAR
  5
524
102
{ACAD_REACTORS
330
523
102
}
330
523
100
DictionaryVariables
280
     0
  1
STANDARD
  0
DICTIONARYVAR
  5
526
102
{ACAD_REACTORS
330
523
102
}
330
523
100
DictionaryVariables
280
     0
  1
Imperial24
  0
DICTIONARYVAR
  5
527
102
{ACAD_REACTORS
330
523
102
}
330
523
100
DictionaryVariables
280
     0
  1
Imperial24
  0
DICTIONARYVAR
  5
52B
102
{ACAD_REACTORS
330
523
102
}
330
523
100
DictionaryVariables
280
     0
  1
1
  0
DICTIONARYVAR
  5
52A
102
{ACAD_REACTORS
330
523
102
}
330
523
100
DictionaryVariables
280
     0
  1
0
  0
DICTIONARYVAR
  5
529
102
{ACAD_REACTORS
330
523
102
}
330
523
100
DictionaryVariables
280
     0
  1
127
  0
DICTIONARYVAR
  5
52C
102
{ACAD_REACTORS
330
523
102
}
330
523
100
DictionaryVariables
280
     0
  1
2
  0
DICTIONARY
  5
567
330
4A0
100
AcDbDictionary
280
     1
281
     1
  3
ACAD_XREC_ROUNDTRIP
360
568
  0
DICTIONARY
  5
569
330
4A4
100
AcDbDictionary
280
     1
281
     1
  3
ACAD_XREC_ROUNDTRIP
360
56A
  0
DICTIONARY
  5
44B
330
44A
100
AcDbDictionary
280
     1
281
     1
  3
ACAD_XREC_ROUNDTRIP
360
533
  3
BUMPTILE
360
44D
  3
DIFFUSETILE
360
44C
  3
OPACITYTILE
360
450
  3
REFLECTIONTILE
360
44F
  3
REFRACTIONTILE
360
451
  3
SPECULARTILE
360
44E
  0
DICTIONARY
  5
443
330
442
100
AcDbDictionary
280
     1
281
     1
  3
ACAD_XREC_ROUNDTRIP
360
532
  3
BUMPTILE
360
445
  3
DIFFUSETILE
360
444
  3
OPACITYTILE
360
448
  3
REFLECTIONTILE
360
447
  3
REFRACTIONTILE
360
449
  3
SPECULARTILE
360
446
  0
DICTIONARY
  5
453
330
452
100
AcDbDictionary
280
     1
281
     1
  3
ACAD_XREC_ROUNDTRIP
360
534
  3
BUMPTILE
360
455
  3
DIFFUSETILE
360
454
  3
OPACITYTILE
360
458
  3
REFLECTIONTILE
360
457
  3
REFRACTIONTILE
360
459
  3
SPECULARTILE
360
456
  0
DICTIONARY
  5
52E
330
495
100
AcDbDictionary
280
     1
281
     1
  3
ACAD_ROUNDTRIP_2008_TABLESTYLE_CELLSTYLEMAP
360
52F
  3
ACAD_XREC_ROUNDTRIP
360
565
  0
DICTIONARY
  5
53F
330
460
100
AcDbDictionary
280
     1
281
     1
  3
ACAD_XREC_ROUNDTRIP
360
540
  0
DICTIONARY
  5
53D
330
45F
100
AcDbDictionary
280
     1
281
     1
  3
ACAD_XREC_ROUNDTRIP
360
53E
  0
DICTIONARY
  5
54B
330
466
100
AcDbDictionary
280
     1
281
     1
  3
ACAD_XREC_ROUNDTRIP
360
54C
  0
DICTIONARY
  5
553
330
46A
100
AcDbDictionary
280
     1
281
     1
  3
ACAD_XREC_ROUNDTRIP
360
554
  0
DICTIONARY
  5
545
330
463
100
AcDbDictionary
280
     1
281
     1
  3
ACAD_XREC_ROUNDTRIP
360
546
  0
DICTIONARY
  5
549
330
465
100
AcDbDictionary
280
     1
281
     1
  3
ACAD_XREC_ROUNDTRIP
360
54A
  0
DICTIONARY
  5
563
330
472
100
AcDbDictionary
280
     1
281
     1
  3
ACAD_XREC_ROUNDTRIP
360
564
  0
DICTIONARY
  5
551
330
469
100
AcDbDictionary
280
     1
281
     1
  3
ACAD_XREC_ROUNDTRIP
360
552
  0
DICTIONARY
  5
535
330
45B
100
AcDbDictionary
280
     1
281
     1
  3
ACAD_XREC_ROUNDTRIP
360
536
  0
DICTIONARY
  5
537
330
45C
100
AcDbDictionary
280
     1
281
     1
  3
ACAD_XREC_ROUNDTRIP
360
538
  0
DICTIONARY
  5
539
330
45D
100
AcDbDictionary
280
     1
281
     1
  3
ACAD_XREC_ROUNDTRIP
360
53A
  0
DICTIONARY
  5
53B
330
45E
100
AcDbDictionary
280
     1
281
     1
  3
ACAD_XREC_ROUNDTRIP
360
53C
  0
DICTIONARY
  5
543
330
462
100
AcDbDictionary
280
     1
281
     1
  3
ACAD_XREC_ROUNDTRIP
360
544
  0
DICTIONARY
  5
55F
330
470
100
AcDbDictionary
280
     1
281
     1
  3
ACAD_XREC_ROUNDTRIP
360
560
  0
DICTIONARY
  5
54F
330
468
100
AcDbDictionary
280
     1
281
     1
  3
ACAD_XREC_ROUNDTRIP
360
550
  0
DICTIONARY
  5
561
330
471
100
AcDbDictionary
280
     1
281
     1
  3
ACAD_XREC_ROUNDTRIP
360
562
  0
DICTIONARY
  5
547
330
464
100
AcDbDictionary
280
     1
281
     1
  3
ACAD_XREC_ROUNDTRIP
360
548
  0
DICTIONARY
  5
55D
330
46F
100
AcDbDictionary
280
     1
281
     1
  3
ACAD_XREC_ROUNDTRIP
360
55E
  0
DICTIONARY
  5
55B
330
46E
100
AcDbDictionary
280
     1
281
     1
  3
ACAD_XREC_ROUNDTRIP
360
55C
  0
DICTIONARY
  5
555
330
46B
100
AcDbDictionary
280
     1
281
     1
  3
ACAD_XREC_ROUNDTRIP
360
556
  0
DICTIONARY
  5
557
330
46C
100
AcDbDictionary
280
     1
281
     1
  3
ACAD_XREC_ROUNDTRIP
360
558
  0
DICTIONARY
  5
54D
330
467
100
AcDbDictionary
280
     1
281
     1
  3
ACAD_XREC_ROUNDTRIP
360
54E
  0
DICTIONARY
  5
541
330
461
100
AcDbDictionary
280
     1
281
     1
  3
ACAD_XREC_ROUNDTRIP
360
542
  0
DICTIONARY
  5
559
330
46D
100
AcDbDictionary
280
     1
281
     1
  3
ACAD_XREC_ROUNDTRIP
360
55A
  0
XRECORD
  5
568
102
{ACAD_REACTORS
330
567
102
}
330
567
100
AcDbXrecord
280
     1
102
SHADEPLOT
 70
     0
102
SHADEPLOTRESLEVEL
 70
     2
102
SHADEPLOTCUSTOMDPI
 70
   300
  0
XRECORD
  5
56A
102
{ACAD_REACTORS
330
569
102
}
330
569
100
AcDbXrecord
280
     1
102
SHADEPLOT
 70
     0
102
SHADEPLOTRESLEVEL
 70
     2
102
SHADEPLOTCUSTOMDPI
 70
   300
  0
XRECORD
  5
533
102
{ACAD_REACTORS
330
44B
102
}
330
44B
100
AcDbXrecord
280
     1
102
MATERIAL
148
0.0
149
0.0
149
0.0
 93
        0
 94
      127
282
     0
 72
     0
 77
     0
171
     0
175
     0
179
     0
273
     0
  0
XRECORD
  5
44D
102
{ACAD_REACTORS
330
44B
102
}
330
44B
100
AcDbXrecord
280
     1
270
     1
271
     1
  0
XRECORD
  5
44C
102
{ACAD_REACTORS
330
44B
102
}
330
44B
100
AcDbXrecord
280
     1
270
     1
271
     1
  0
XRECORD
  5
450
102
{ACAD_REACTORS
330
44B
102
}
330
44B
100
AcDbXrecord
280
     1
270
     1
271
     1
  0
XRECORD
  5
44F
102
{ACAD_REACTORS
330
44B
102
}
330
44B
100
AcDbXrecord
280
     1
270
     1
271
     1
  0
XRECORD
  5
451
102
{ACAD_REACTORS
330
44B
102
}
330
44B
100
AcDbXrecord
280
     1
270
     1
271
     1
  0
XRECORD
  5
44E
102
{ACAD_REACTORS
330
44B
102
}
330
44B
100
AcDbXrecord
280
     1
270
     1
271
     1
  0
XRECORD
  5
532
102
{ACAD_REACTORS
330
443
102
}
330
443
100
AcDbXrecord
280
     1
102
MATERIAL
148
0.0
149
0.0
149
0.0
 93
        0
 94
      127
282
     0
 72
     0
 77
     0
171
     0
175
     0
179
     0
273
     0
  0
XRECORD
  5
445
102
{ACAD_REACTORS
330
443
102
}
330
443
100
AcDbXrecord
280
     1
270
     1
271
     1
  0
XRECORD
  5
444
102
{ACAD_REACTORS
330
443
102
}
330
443
100
AcDbXrecord
280
     1
270
     1
271
     1
  0
XRECORD
  5
448
102
{ACAD_REACTORS
330
443
102
}
330
443
100
AcDbXrecord
280
     1
270
     1
271
     1
  0
XRECORD
  5
447
102
{ACAD_REACTORS
330
443
102
}
330
443
100
AcDbXrecord
280
     1
270
     1
271
     1
  0
XRECORD
  5
449
102
{ACAD_REACTORS
330
443
102
}
330
443
100
AcDbXrecord
280
     1
270
     1
271
     1
  0
XRECORD
  5
446
102
{ACAD_REACTORS
330
443
102
}
330
443
100
AcDbXrecord
280
     1
270
     1
271
     1
  0
XRECORD
  5
534
102
{ACAD_REACTORS
330
453
102
}
330
453
100
AcDbXrecord
280
     1
102
MATERIAL
148
0.0
149
0.0
149
0.0
 93
        0
 94
      127
282
     0
 72
     0
 77
     0
171
     0
175
     0
179
     0
273
     0
  0
XRECORD
  5
455
102
{ACAD_REACTORS
330
453
102
}
330
453
100
AcDbXrecord
280
     1
270
     1
271
     1
  0
XRECORD
  5
454
102
{ACAD_REACTORS
330
453
102
}
330
453
100
AcDbXrecord
280
     1
270
     1
271
     1
  0
XRECORD
  5
458
102
{ACAD_REACTORS
330
453
102
}
330
453
100
AcDbXrecord
280
     1
270
     1
271
     1
  0
XRECORD
  5
457
102
{ACAD_REACTORS
330
453
102
}
330
453
100
AcDbXrecord
280
     1
270
     1
271
     1
  0
XRECORD
  5
459
102
{ACAD_REACTORS
330
453
102
}
330
453
100
AcDbXrecord
280
     1
270
     1
271
     1
  0
XRECORD
  5
456
102
{ACAD_REACTORS
330
453
102
}
330
453
100
AcDbXrecord
280
     1
270
     1
271
     1
  0
CELLSTYLEMAP
  5
52F
102
{ACAD_REACTORS
330
52E
102
}
330
52E
100
AcDbCellStyleMap
 90
        3
300
CELLSTYLE
  1
TABLEFORMAT_BEGIN
 90
        5
170
     1
 91
        0
 92
    32768
 62
   257
 93
        1
300
CONTENTFORMAT
  1
CONTENTFORMAT_BEGIN
 90
        0
 91
        0
 92
      512
 93
        0
300

 40
0.0
140
1.0
 94
        5
 62
     0
340
486
144
0.25
309
CONTENTFORMAT_END
171
     0
 94
        0
309
TABLEFORMAT_END
  1
CELLSTYLE_BEGIN
 90
        1
 91
        1
300
_TITLE
309
CELLSTYLE_END
300
CELLSTYLE
  1
TABLEFORMAT_BEGIN
 90
        5
170
     1
 91
        0
 92
        0
 62
   257
 93
        1
300
CONTENTFORMAT
  1
CONTENTFORMAT_BEGIN
 90
        0
 91
        0
 92
      512
 93
        0
300

 40
0.0
140
1.0
 94
        5
 62
     0
340
486
144
0.18
309
CONTENTFORMAT_END
171
     0
 94
        0
309
TABLEFORMAT_END
  1
CELLSTYLE_BEGIN
 90
        2
 91
        1
300
_HEADER
309
CELLSTYLE_END
300
CELLSTYLE
  1
TABLEFORMAT_BEGIN
 90
        5
170
     1
 91
        0
 92
        0
 62
   257
 93
        1
300
CONTENTFORMAT
  1
CONTENTFORMAT_BEGIN
 90
        0
 91
        0
 92
      512
 93
        0
300

 40
0.0
140
1.0
 94
        2
 62
     0
340
486
144
0.18
309
CONTENTFORMAT_END
171
     0
 94
        0
309
TABLEFORMAT_END
  1
CELLSTYLE_BEGIN
 90
        3
 91
        2
300
_DATA
309
CELLSTYLE_END
  0
XRECORD
  5
565
102
{ACAD_REACTORS
330
52E
102
}
330
52E
100
AcDbXrecord
280
     1
102
ACAD_ROUNDTRIP_PRE2007_TABLESTYLE
 90
      512
 91
        0
  1

 92
      512
 93
        0
  2

 94
      512
 95
        0
  3

  0
XRECORD
  5
540
102
{ACAD_REACTORS
330
53F
102
}
330
53F
100
AcDbXrecord
280
     1
102
RTVSPost2010Prop28
280
     1
102
RTVSPost2010PropOp28
 70
     1
102
RTVSPost2010Prop29
280
     1
102
RTVSPost2010PropOp29
 70
     1
102
RTVSPost2010Prop30
280
     0
102
RTVSPost2010PropOp30
 70
     1
102
RTVSPost2010Prop31
280
     0
102
RTVSPost2010PropOp31
 70
     1
102
RTVSPost2010Prop32
280
     0
102
RTVSPost2010PropOp32
 70
     1
102
RTVSPost2010Prop33
280
     0
102
RTVSPost2010PropOp33
 70
     1
102
RTVSPost2010Prop34
280
     0
102
RTVSPost2010PropOp34
 70
     1
102
RTVSPost2010Prop35
280
     0
102
RTVSPost2010PropOp35
 70
     1
102
RTVSPost2010Prop36
280
     0
102
RTVSPost2010PropOp36
 70
     1
102
RTVSPost2010Prop37
 90
       50
102
RTVSPost2010PropOp37
 70
     1
102
RTVSPost2010Prop38
140
0.0
102
RTVSPost2010PropOp38
 70
     1
102
RTVSPost2010Prop39
140
1.0
102
RTVSPost2010PropOp39
 70
     1
102
RTVSPost2010Prop40
 90
        0
102
RTVSPost2010PropOp40
 70
     1
102
RTVSPost2010Prop41ColorIndex
 90
       18
102
RTVSPost2010Prop41ColorRGB
 90
        0
102
RTVSPost2010PropOp41
 70
     1
102
RTVSPost2010Prop42
 90
       50
102
RTVSPost2010PropOp42
 70
     1
102
RTVSPost2010Prop43
 90
        3
102
RTVSPost2010PropOp43
 70
     1
102
RTVSPost2010Prop44ColorIndex
 90
        5
102
RTVSPost2010Prop44ColorRGB
 90
      255
102
RTVSPost2010PropOp44
 70
     1
102
RTVSPost2010Prop45
280
     0
102
RTVSPost2010PropOp45
 70
     1
102
RTVSPost2010Prop46
 90
       50
102
RTVSPost2010PropOp46
 70
     1
102
RTVSPost2010Prop47
 90
       50
102
RTVSPost2010PropOp47
 70
     1
102
RTVSPost2010Prop48
 90
       50
102
RTVSPost2010PropOp48
 70
     1
102
RTVSPost2010Prop49
280
     0
102
RTVSPost2010PropOp49
 70
     1
102
RTVSPost2010Prop50
 90
       50
102
RTVSPost2010PropOp50
 70
     1
102
RTVSPost2010Prop51ColorIndex
 90
      256
102
RTVSPost2010Prop51ColorRGB
 90
-16777216
102
RTVSPost2010PropOp51
 70
     0
102
RTVSPost2010Prop52
140
1.0
102
RTVSPost2010PropOp52
 70
     0
102
RTVSPost2010Prop53
 90
        2
102
RTVSPost2010PropOp53
 70
     1
102
RTVSPost2010Prop54
  1
strokes_ogs.tif
102
RTVSPost2010PropOp54
 70
     1
102
RTVSPost2010Prop55
280
     0
102
RTVSPost2010PropOp55
 70
     1
102
RTVSPost2010Prop56
140
1.0
102
RTVSPost2010PropOp56
 70
     1
102
RTVSPost2010Prop57
140
1.0
102
RTVSPost2010PropOp57
 70
     1
102
RTVSPropertyOp0
 70
     1
102
RTVSPropertyOp1
 70
     1
102
RTVSPropertyOp2
 70
     1
102
RTVSPropertyOp3
 70
     1
102
RTVSPropertyOp4
 70
     1
102
RTVSPropertyOp5
 70
     1
102
RTVSPropertyOp6
 70
     1
102
RTVSPropertyOp7
 70
     1
102
RTVSPropertyOp8
 70
     1
102
RTVSPropertyOp9
 70
     1
102
RTVSPropertyOp10
 70
     1
102
RTVSPropertyOp11
 70
     1
102
RTVSPropertyOp12
 70
     1
102
RTVSPropertyOp13
 70
     1
102
RTVSPropertyOp14
 70
     1
102
RTVSPropertyOp15
 70
     1
102
RTVSPropertyOp16
 70
     1
102
RTVSPropertyOp17
 70
     1
102
RTVSPropertyOp18
 70
     1
102
RTVSPropertyOp19
 70
     1
102
RTVSPropertyOp20
 70
     1
102
RTVSPropertyOp21
 70
     1
102
RTVSPropertyOp22
 70
     1
102
RTVSPropertyOp23
 70
     1
102
RTVSPropertyOp24
 70
     1
102
RTVSPropertyOp25
 70
     1
102
RTVSPropertyOp26
 70
     1
102
RTVSPropertyOp27
 70
     1
102
RTVSPropertyOp28
 70
     1
102
RTVSPropertyOp29
 70
     1
102
RTVSPropertyOp30
 70
     1
102
RTVSPropertyOp31
 70
     1
102
RTVSPropertyOp32
 70
     1
102
RTVSPropertyOp33
 70
     1
102
RTVSPropertyOp34
 70
     1
102
RTVSPropertyOp35
 70
     1
102
RTVSPropertyOp36
 70
     1
102
RTVSPropertyOp37
 70
     1
102
RTVSPropertyOp38
 70
     1
102
RTVSPropertyOp39
 70
     1
102
RTVSPropertyOp40
 70
     1
102
RTVSPropertyOp41
 70
     1
102
RTVSPropertyOp42
 70
     1
102
RTVSPropertyOp43
 70
     1
102
RTVSPropertyOp44
 70
     1
102
RTVSPropertyOp45
 70
     1
102
RTVSPropertyOp46
 70
     1
102
RTVSPropertyOp47
 70
     1
102
RTVSPropertyOp48
 70
     1
102
RTVSPropertyOp49
 70
     1
102
RTVSPropertyOp50
 70
     1
102
RTVSPropertyOp51
 70
     0
102
RTVSPropertyOp52
 70
     0
102
RTVSPropertyOp53
 70
     1
102
RTVSPropertyOp54
 70
     1
102
RTVSPropertyOp55
 70
     1
102
RTVSPropertyOp56
 70
     1
102
RTVSPropertyOp57
 70
     1
102
RTVSPropertyOp58
 70
     1
102
RTVSPropertyOp59
 70
     1
102
RTVSPropertyOp60
 70
     1
102
RTVSPropertyOp61
 70
     1
102
RTVSPropertyOp62
 70
     1
  0
XRECORD
  5
53E
102
{ACAD_REACTORS
330
53D
102
}
330
53D
100
AcDbXrecord
280
     1
102
RTVSPost2010Prop28
280
     0
102
RTVSPost2010PropOp28
 70
     1
102
RTVSPost2010Prop29
280
     1
102
RTVSPost2010PropOp29
 70
     1
102
RTVSPost2010Prop30
280
     1
102
RTVSPost2010PropOp30
 70
     1
102
RTVSPost2010Prop31
280
     0
102
RTVSPost2010PropOp31
 70
     1
102
RTVSPost2010Prop32
280
     0
102
RTVSPost2010PropOp32
 70
     1
102
RTVSPost2010Prop33
280
     0
102
RTVSPost2010PropOp33
 70
     1
102
RTVSPost2010Prop34
280
     0
102
RTVSPost2010PropOp34
 70
     1
102
RTVSPost2010Prop35
280
     0
102
RTVSPost2010PropOp35
 70
     1
102
RTVSPost2010Prop36
280
     0
102
RTVSPost2010PropOp36
 70
     1
102
RTVSPost2010Prop37
 90
       50
102
RTVSPost2010PropOp37
 70
     1
102
RTVSPost2010Prop38
140
0.0
102
RTVSPost2010PropOp38
 70
     1
102
RTVSPost2010Prop39
140
1.0
102
RTVSPost2010PropOp39
 70
     1
102
RTVSPost2010Prop40
 90
        0
102
RTVSPost2010PropOp40
 70
     1
102
RTVSPost2010Prop41ColorIndex
 90
       18
102
RTVSPost2010Prop41ColorRGB
 90
        0
102
RTVSPost2010PropOp41
 70
     1
102
RTVSPost2010Prop42
 90
       50
102
RTVSPost2010PropOp42
 70
     1
102
RTVSPost2010Prop43
 90
        3
102
RTVSPost2010PropOp43
 70
     1
102
RTVSPost2010Prop44ColorIndex
 90
        5
102
RTVSPost2010Prop44ColorRGB
 90
      255
102
RTVSPost2010PropOp44
 70
     1
102
RTVSPost2010Prop45
280
     0
102
RTVSPost2010PropOp45
 70
     1
102
RTVSPost2010Prop46
 90
       50
102
RTVSPost2010PropOp46
 70
     1
102
RTVSPost2010Prop47
 90
       50
102
RTVSPost2010PropOp47
 70
     1
102
RTVSPost2010Prop48
 90
       50
102
RTVSPost2010PropOp48
 70
     1
102
RTVSPost2010Prop49
280
     0
102
RTVSPost2010PropOp49
 70
     1
102
RTVSPost2010Prop50
 90
       50
102
RTVSPost2010PropOp50
 70
     1
102
RTVSPost2010Prop51ColorIndex
 90
      256
102
RTVSPost2010Prop51ColorRGB
 90
-16777216
102
RTVSPost2010PropOp51
 70
     0
102
RTVSPost2010Prop52
140
1.0
102
RTVSPost2010PropOp52
 70
     0
102
RTVSPost2010Prop53
 90
        2
102
RTVSPost2010PropOp53
 70
     1
102
RTVSPost2010Prop54
  1
strokes_ogs.tif
102
RTVSPost2010PropOp54
 70
     1
102
RTVSPost2010Prop55
280
     0
102
RTVSPost2010PropOp55
 70
     1
102
RTVSPost2010Prop56
140
1.0
102
RTVSPost2010PropOp56
 70
     1
102
RTVSPost2010Prop57
140
1.0
102
RTVSPost2010PropOp57
 70
     1
102
RTVSPropertyOp0
 70
     1
102
RTVSPropertyOp1
 70
     1
102
RTVSPropertyOp2
 70
     1
102
RTVSPropertyOp3
 70
     1
102
RTVSPropertyOp4
 70
     1
102
RTVSPropertyOp5
 70
     1
102
RTVSPropertyOp6
 70
     1
102
RTVSPropertyOp7
 70
     1
102
RTVSPropertyOp8
 70
     1
102
RTVSPropertyOp9
 70
     1
102
RTVSPropertyOp10
 70
     1
102
RTVSPropertyOp11
 70
     1
102
RTVSPropertyOp12
 70
     1
102
RTVSPropertyOp13
 70
     1
102
RTVSPropertyOp14
 70
     1
102
RTVSPropertyOp15
 70
     1
102
RTVSPropertyOp16
 70
     1
102
RTVSPropertyOp17
 70
     1
102
RTVSPropertyOp18
 70
     1
102
RTVSPropertyOp19
 70
     1
102
RTVSPropertyOp20
 70
     1
102
RTVSPropertyOp21
 70
     1
102
RTVSPropertyOp22
 70
     1
102
RTVSPropertyOp23
 70
     1
102
RTVSPropertyOp24
 70
     1
102
RTVSPropertyOp25
 70
     1
102
RTVSPropertyOp26
 70
     1
102
RTVSPropertyOp27
 70
     1
102
RTVSPropertyOp28
 70
     1
102
RTVSPropertyOp29
 70
     1
102
RTVSPropertyOp30
 70
     1
102
RTVSPropertyOp31
 70
     1
102
RTVSPropertyOp32
 70
     1
102
RTVSPropertyOp33
 70
     1
102
RTVSPropertyOp34
 70
     1
102
RTVSPropertyOp35
 70
     1
102
RTVSPropertyOp36
 70
     1
102
RTVSPropertyOp37
 70
     1
102
RTVSPropertyOp38
 70
     1
102
RTVSPropertyOp39
 70
     1
102
RTVSPropertyOp40
 70
     1
102
RTVSPropertyOp41
 70
     1
102
RTVSPropertyOp42
 70
     1
102
RTVSPropertyOp43
 70
     1
102
RTVSPropertyOp44
 70
     1
102
RTVSPropertyOp45
 70
     1
102
RTVSPropertyOp46
 70
     1
102
RTVSPropertyOp47
 70
     1
102
RTVSPropertyOp48
 70
     1
102
RTVSPropertyOp49
 70
     1
102
RTVSPropertyOp50
 70
     1
102
RTVSPropertyOp51
 70
     0
102
RTVSPropertyOp52
 70
     0
102
RTVSPropertyOp53
 70
     1
102
RTVSPropertyOp54
 70
     1
102
RTVSPropertyOp55
 70
     1
102
RTVSPropertyOp56
 70
     1
102
RTVSPropertyOp57
 70
     1
102
RTVSPropertyOp58
 70
     1
102
RTVSPropertyOp59
 70
     1
102
RTVSPropertyOp60
 70
     1
102
RTVSPropertyOp61
 70
     1
102
RTVSPropertyOp62
 70
     1
  0
XRECORD
  5
54C
102
{ACAD_REACTORS
330
54B
102
}
330
54B
100
AcDbXrecord
280
     1
102
RTVSPost2010Prop28
280
     0
102
RTVSPost2010PropOp28
 70
     1
102
RTVSPost2010Prop29
280
     1
102
RTVSPost2010PropOp29
 70
     1
102
RTVSPost2010Prop30
280
     1
102
RTVSPost2010PropOp30
 70
     1
102
RTVSPost2010Prop31
280
     0
102
RTVSPost2010PropOp31
 70
     1
102
RTVSPost2010Prop32
280
     0
102
RTVSPost2010PropOp32
 70
     1
102
RTVSPost2010Prop33
280
     0
102
RTVSPost2010PropOp33
 70
     1
102
RTVSPost2010Prop34
280
     0
102
RTVSPost2010PropOp34
 70
     1
102
RTVSPost2010Prop35
280
     0
102
RTVSPost2010PropOp35
 70
     1
102
RTVSPost2010Prop36
280
     0
102
RTVSPost2010PropOp36
 70
     1
102
RTVSPost2010Prop37
 90
       50
102
RTVSPost2010PropOp37
 70
     1
102
RTVSPost2010Prop38
140
0.0
102
RTVSPost2010PropOp38
 70
     1
102
RTVSPost2010Prop39
140
1.0
102
RTVSPost2010PropOp39
 70
     1
102
RTVSPost2010Prop40
 90
        0
102
RTVSPost2010PropOp40
 70
     1
102
RTVSPost2010Prop41ColorIndex
 90
       18
102
RTVSPost2010Prop41ColorRGB
 90
        0
102
RTVSPost2010PropOp41
 70
     1
102
RTVSPost2010Prop42
 90
       50
102
RTVSPost2010PropOp42
 70
     1
102
RTVSPost2010Prop43
 90
        3
102
RTVSPost2010PropOp43
 70
     1
102
RTVSPost2010Prop44ColorIndex
 90
        5
102
RTVSPost2010Prop44ColorRGB
 90
      255
102
RTVSPost2010PropOp44
 70
     1
102
RTVSPost2010Prop45
280
     0
102
RTVSPost2010PropOp45
 70
     1
102
RTVSPost2010Prop46
 90
       50
102
RTVSPost2010PropOp46
 70
     1
102
RTVSPost2010Prop47
 90
       50
102
RTVSPost2010PropOp47
 70
     1
102
RTVSPost2010Prop48
 90
       50
102
RTVSPost2010PropOp48
 70
     1
102
RTVSPost2010Prop49
280
     0
102
RTVSPost2010PropOp49
 70
     1
102
RTVSPost2010Prop50
 90
       50
102
RTVSPost2010PropOp50
 70
     1
102
RTVSPost2010Prop51ColorIndex
 90
      256
102
RTVSPost2010Prop51ColorRGB
 90
-16777216
102
RTVSPost2010PropOp51
 70
     0
102
RTVSPost2010Prop52
140
1.0
102
RTVSPost2010PropOp52
 70
     0
102
RTVSPost2010Prop53
 90
        2
102
RTVSPost2010PropOp53
 70
     1
102
RTVSPost2010Prop54
  1
strokes_ogs.tif
102
RTVSPost2010PropOp54
 70
     1
102
RTVSPost2010Prop55
280
     0
102
RTVSPost2010PropOp55
 70
     1
102
RTVSPost2010Prop56
140
1.0
102
RTVSPost2010PropOp56
 70
     1
102
RTVSPost2010Prop57
140
1.0
102
RTVSPost2010PropOp57
 70
     1
102
RTVSPropertyOp0
 70
     1
102
RTVSPropertyOp1
 70
     1
102
RTVSPropertyOp2
 70
     1
102
RTVSPropertyOp3
 70
     1
102
RTVSPropertyOp4
 70
     1
102
RTVSPropertyOp5
 70
     1
102
RTVSPropertyOp6
 70
     1
102
RTVSPropertyOp7
 70
     1
102
RTVSPropertyOp8
 70
     1
102
RTVSPropertyOp9
 70
     1
102
RTVSPropertyOp10
 70
     1
102
RTVSPropertyOp11
 70
     1
102
RTVSPropertyOp12
 70
     1
102
RTVSPropertyOp13
 70
     1
102
RTVSPropertyOp14
 70
     1
102
RTVSPropertyOp15
 70
     1
102
RTVSPropertyOp16
 70
     1
102
RTVSPropertyOp17
 70
     1
102
RTVSPropertyOp18
 70
     1
102
RTVSPropertyOp19
 70
     1
102
RTVSPropertyOp20
 70
     1
102
RTVSPropertyOp21
 70
     1
102
RTVSPropertyOp22
 70
     1
102
RTVSPropertyOp23
 70
     1
102
RTVSPropertyOp24
 70
     1
102
RTVSPropertyOp25
 70
     1
102
RTVSPropertyOp26
 70
     1
102
RTVSPropertyOp27
 70
     1
102
RTVSPropertyOp28
 70
     1
102
RTVSPropertyOp29
 70
     1
102
RTVSPropertyOp30
 70
     1
102
RTVSPropertyOp31
 70
     1
102
RTVSPropertyOp32
 70
     1
102
RTVSPropertyOp33
 70
     1
102
RTVSPropertyOp34
 70
     1
102
RTVSPropertyOp35
 70
     1
102
RTVSPropertyOp36
 70
     1
102
RTVSPropertyOp37
 70
     1
102
RTVSPropertyOp38
 70
     1
102
RTVSPropertyOp39
 70
     1
102
RTVSPropertyOp40
 70
     1
102
RTVSPropertyOp41
 70
     1
102
RTVSPropertyOp42
 70
     1
102
RTVSPropertyOp43
 70
     1
102
RTVSPropertyOp44
 70
     1
102
RTVSPropertyOp45
 70
     1
102
RTVSPropertyOp46
 70
     1
102
RTVSPropertyOp47
 70
     1
102
RTVSPropertyOp48
 70
     1
102
RTVSPropertyOp49
 70
     1
102
RTVSPropertyOp50
 70
     1
102
RTVSPropertyOp51
 70
     0
102
RTVSPropertyOp52
 70
     0
102
RTVSPropertyOp53
 70
     1
102
RTVSPropertyOp54
 70
     1
102
RTVSPropertyOp55
 70
     1
102
RTVSPropertyOp56
 70
     1
102
RTVSPropertyOp57
 70
     1
102
RTVSPropertyOp58
 70
     1
102
RTVSPropertyOp59
 70
     1
102
RTVSPropertyOp60
 70
     1
102
RTVSPropertyOp61
 70
     1
102
RTVSPropertyOp62
 70
     1
  0
XRECORD
  5
554
102
{ACAD_REACTORS
330
553
102
}
330
553
100
AcDbXrecord
280
     1
102
RTVSPost2010Prop28
280
     0
102
RTVSPost2010PropOp28
 70
     1
102
RTVSPost2010Prop29
280
     1
102
RTVSPost2010PropOp29
 70
     1
102
RTVSPost2010Prop30
280
     1
102
RTVSPost2010PropOp30
 70
     1
102
RTVSPost2010Prop31
280
     0
102
RTVSPost2010PropOp31
 70
     1
102
RTVSPost2010Prop32
280
     0
102
RTVSPost2010PropOp32
 70
     1
102
RTVSPost2010Prop33
280
     0
102
RTVSPost2010PropOp33
 70
     1
102
RTVSPost2010Prop34
280
     0
102
RTVSPost2010PropOp34
 70
     1
102
RTVSPost2010Prop35
280
     0
102
RTVSPost2010PropOp35
 70
     1
102
RTVSPost2010Prop36
280
     0
102
RTVSPost2010PropOp36
 70
     1
102
RTVSPost2010Prop37
 90
       50
102
RTVSPost2010PropOp37
 70
     1
102
RTVSPost2010Prop38
140
0.0
102
RTVSPost2010PropOp38
 70
     1
102
RTVSPost2010Prop39
140
1.0
102
RTVSPost2010PropOp39
 70
     1
102
RTVSPost2010Prop40
 90
        0
102
RTVSPost2010PropOp40
 70
     1
102
RTVSPost2010Prop41ColorIndex
 90
       18
102
RTVSPost2010Prop41ColorRGB
 90
        0
102
RTVSPost2010PropOp41
 70
     1
102
RTVSPost2010Prop42
 90
       50
102
RTVSPost2010PropOp42
 70
     1
102
RTVSPost2010Prop43
 90
        3
102
RTVSPost2010PropOp43
 70
     1
102
RTVSPost2010Prop44ColorIndex
 90
        5
102
RTVSPost2010Prop44ColorRGB
 90
      255
102
RTVSPost2010PropOp44
 70
     1
102
RTVSPost2010Prop45
280
     0
102
RTVSPost2010PropOp45
 70
     1
102
RTVSPost2010Prop46
 90
       50
102
RTVSPost2010PropOp46
 70
     1
102
RTVSPost2010Prop47
 90
       50
102
RTVSPost2010PropOp47
 70
     1
102
RTVSPost2010Prop48
 90
       50
102
RTVSPost2010PropOp48
 70
     1
102
RTVSPost2010Prop49
280
     0
102
RTVSPost2010PropOp49
 70
     1
102
RTVSPost2010Prop50
 90
       50
102
RTVSPost2010PropOp50
 70
     1
102
RTVSPost2010Prop51ColorIndex
 90
      256
102
RTVSPost2010Prop51ColorRGB
 90
-16777216
102
RTVSPost2010PropOp51
 70
     0
102
RTVSPost2010Prop52
140
1.0
102
RTVSPost2010PropOp52
 70
     0
102
RTVSPost2010Prop53
 90
        2
102
RTVSPost2010PropOp53
 70
     1
102
RTVSPost2010Prop54
  1
strokes_ogs.tif
102
RTVSPost2010PropOp54
 70
     1
102
RTVSPost2010Prop55
280
     0
102
RTVSPost2010PropOp55
 70
     1
102
RTVSPost2010Prop56
140
1.0
102
RTVSPost2010PropOp56
 70
     1
102
RTVSPost2010Prop57
140
1.0
102
RTVSPost2010PropOp57
 70
     1
102
RTVSPropertyOp0
 70
     1
102
RTVSPropertyOp1
 70
     1
102
RTVSPropertyOp2
 70
     1
102
RTVSPropertyOp3
 70
     1
102
RTVSPropertyOp4
 70
     1
102
RTVSPropertyOp5
 70
     1
102
RTVSPropertyOp6
 70
     1
102
RTVSPropertyOp7
 70
     1
102
RTVSPropertyOp8
 70
     1
102
RTVSPropertyOp9
 70
     1
102
RTVSPropertyOp10
 70
     1
102
RTVSPropertyOp11
 70
     1
102
RTVSPropertyOp12
 70
     1
102
RTVSPropertyOp13
 70
     1
102
RTVSPropertyOp14
 70
     1
102
RTVSPropertyOp15
 70
     1
102
RTVSPropertyOp16
 70
     1
102
RTVSPropertyOp17
 70
     1
102
RTVSPropertyOp18
 70
     1
102
RTVSPropertyOp19
 70
     1
102
RTVSPropertyOp20
 70
     1
102
RTVSPropertyOp21
 70
     1
102
RTVSPropertyOp22
 70
     1
102
RTVSPropertyOp23
 70
     1
102
RTVSPropertyOp24
 70
     1
102
RTVSPropertyOp25
 70
     1
102
RTVSPropertyOp26
 70
     1
102
RTVSPropertyOp27
 70
     1
102
RTVSPropertyOp28
 70
     1
102
RTVSPropertyOp29
 70
     1
102
RTVSPropertyOp30
 70
     1
102
RTVSPropertyOp31
 70
     1
102
RTVSPropertyOp32
 70
     1
102
RTVSPropertyOp33
 70
     1
102
RTVSPropertyOp34
 70
     1
102
RTVSPropertyOp35
 70
     1
102
RTVSPropertyOp36
 70
     1
102
RTVSPropertyOp37
 70
     1
102
RTVSPropertyOp38
 70
     1
102
RTVSPropertyOp39
 70
     1
102
RTVSPropertyOp40
 70
     1
102
RTVSPropertyOp41
 70
     1
102
RTVSPropertyOp42
 70
     1
102
RTVSPropertyOp43
 70
     1
102
RTVSPropertyOp44
 70
     1
102
RTVSPropertyOp45
 70
     1
102
RTVSPropertyOp46
 70
     1
102
RTVSPropertyOp47
 70
     1
102
RTVSPropertyOp48
 70
     1
102
RTVSPropertyOp49
 70
     1
102
RTVSPropertyOp50
 70
     1
102
RTVSPropertyOp51
 70
     0
102
RTVSPropertyOp52
 70
     0
102
RTVSPropertyOp53
 70
     1
102
RTVSPropertyOp54
 70
     1
102
RTVSPropertyOp55
 70
     1
102
RTVSPropertyOp56
 70
     1
102
RTVSPropertyOp57
 70
     1
102
RTVSPropertyOp58
 70
     1
102
RTVSPropertyOp59
 70
     1
102
RTVSPropertyOp60
 70
     1
102
RTVSPropertyOp61
 70
     1
102
RTVSPropertyOp62
 70
     1
  0
XRECORD
  5
546
102
{ACAD_REACTORS
330
545
102
}
330
545
100
AcDbXrecord
280
     1
102
RTVSPost2010Prop28
280
     0
102
RTVSPost2010PropOp28
 70
     1
102
RTVSPost2010Prop29
280
     1
102
RTVSPost2010PropOp29
 70
     1
102
RTVSPost2010Prop30
280
     1
102
RTVSPost2010PropOp30
 70
     1
102
RTVSPost2010Prop31
280
     0
102
RTVSPost2010PropOp31
 70
     1
102
RTVSPost2010Prop32
280
     0
102
RTVSPost2010PropOp32
 70
     1
102
RTVSPost2010Prop33
280
     0
102
RTVSPost2010PropOp33
 70
     1
102
RTVSPost2010Prop34
280
     0
102
RTVSPost2010PropOp34
 70
     1
102
RTVSPost2010Prop35
280
     0
102
RTVSPost2010PropOp35
 70
     1
102
RTVSPost2010Prop36
280
     0
102
RTVSPost2010PropOp36
 70
     1
102
RTVSPost2010Prop37
 90
       50
102
RTVSPost2010PropOp37
 70
     1
102
RTVSPost2010Prop38
140
0.0
102
RTVSPost2010PropOp38
 70
     1
102
RTVSPost2010Prop39
140
1.0
102
RTVSPost2010PropOp39
 70
     1
102
RTVSPost2010Prop40
 90
        0
102
RTVSPost2010PropOp40
 70
     1
102
RTVSPost2010Prop41ColorIndex
 90
       18
102
RTVSPost2010Prop41ColorRGB
 90
        0
102
RTVSPost2010PropOp41
 70
     1
102
RTVSPost2010Prop42
 90
       50
102
RTVSPost2010PropOp42
 70
     1
102
RTVSPost2010Prop43
 90
        3
102
RTVSPost2010PropOp43
 70
     1
102
RTVSPost2010Prop44ColorIndex
 90
        5
102
RTVSPost2010Prop44ColorRGB
 90
      255
102
RTVSPost2010PropOp44
 70
     1
102
RTVSPost2010Prop45
280
     0
102
RTVSPost2010PropOp45
 70
     1
102
RTVSPost2010Prop46
 90
       50
102
RTVSPost2010PropOp46
 70
     1
102
RTVSPost2010Prop47
 90
       50
102
RTVSPost2010PropOp47
 70
     1
102
RTVSPost2010Prop48
 90
       50
102
RTVSPost2010PropOp48
 70
     1
102
RTVSPost2010Prop49
280
     0
102
RTVSPost2010PropOp49
 70
     1
102
RTVSPost2010Prop50
 90
       50
102
RTVSPost2010PropOp50
 70
     1
102
RTVSPost2010Prop51ColorIndex
 90
      256
102
RTVSPost2010Prop51ColorRGB
 90
-16777216
102
RTVSPost2010PropOp51
 70
     0
102
RTVSPost2010Prop52
140
1.0
102
RTVSPost2010PropOp52
 70
     0
102
RTVSPost2010Prop53
 90
        2
102
RTVSPost2010PropOp53
 70
     1
102
RTVSPost2010Prop54
  1
strokes_ogs.tif
102
RTVSPost2010PropOp54
 70
     1
102
RTVSPost2010Prop55
280
     0
102
RTVSPost2010PropOp55
 70
     1
102
RTVSPost2010Prop56
140
1.0
102
RTVSPost2010PropOp56
 70
     1
102
RTVSPost2010Prop57
140
1.0
102
RTVSPost2010PropOp57
 70
     1
102
RTVSPropertyOp0
 70
     1
102
RTVSPropertyOp1
 70
     1
102
RTVSPropertyOp2
 70
     1
102
RTVSPropertyOp3
 70
     1
102
RTVSPropertyOp4
 70
     1
102
RTVSPropertyOp5
 70
     1
102
RTVSPropertyOp6
 70
     1
102
RTVSPropertyOp7
 70
     1
102
RTVSPropertyOp8
 70
     1
102
RTVSPropertyOp9
 70
     1
102
RTVSPropertyOp10
 70
     1
102
RTVSPropertyOp11
 70
     1
102
RTVSPropertyOp12
 70
     1
102
RTVSPropertyOp13
 70
     1
102
RTVSPropertyOp14
 70
     1
102
RTVSPropertyOp15
 70
     1
102
RTVSPropertyOp16
 70
     1
102
RTVSPropertyOp17
 70
     1
102
RTVSPropertyOp18
 70
     1
102
RTVSPropertyOp19
 70
     1
102
RTVSPropertyOp20
 70
     1
102
RTVSPropertyOp21
 70
     1
102
RTVSPropertyOp22
 70
     1
102
RTVSPropertyOp23
 70
     1
102
RTVSPropertyOp24
 70
     1
102
RTVSPropertyOp25
 70
     1
102
RTVSPropertyOp26
 70
     1
102
RTVSPropertyOp27
 70
     1
102
RTVSPropertyOp28
 70
     1
102
RTVSPropertyOp29
 70
     1
102
RTVSPropertyOp30
 70
     1
102
RTVSPropertyOp31
 70
     1
102
RTVSPropertyOp32
 70
     1
102
RTVSPropertyOp33
 70
     1
102
RTVSPropertyOp34
 70
     1
102
RTVSPropertyOp35
 70
     1
102
RTVSPropertyOp36
 70
     1
102
RTVSPropertyOp37
 70
     1
102
RTVSPropertyOp38
 70
     1
102
RTVSPropertyOp39
 70
     1
102
RTVSPropertyOp40
 70
     1
102
RTVSPropertyOp41
 70
     1
102
RTVSPropertyOp42
 70
     1
102
RTVSPropertyOp43
 70
     1
102
RTVSPropertyOp44
 70
     1
102
RTVSPropertyOp45
 70
     1
102
RTVSPropertyOp46
 70
     1
102
RTVSPropertyOp47
 70
     1
102
RTVSPropertyOp48
 70
     1
102
RTVSPropertyOp49
 70
     1
102
RTVSPropertyOp50
 70
     1
102
RTVSPropertyOp51
 70
     0
102
RTVSPropertyOp52
 70
     0
102
RTVSPropertyOp53
 70
     1
102
RTVSPropertyOp54
 70
     1
102
RTVSPropertyOp55
 70
     1
102
RTVSPropertyOp56
 70
     1
102
RTVSPropertyOp57
 70
     1
102
RTVSPropertyOp58
 70
     1
102
RTVSPropertyOp59
 70
     1
102
RTVSPropertyOp60
 70
     1
102
RTVSPropertyOp61
 70
     1
102
RTVSPropertyOp62
 70
     1
  0
XRECORD
  5
54A
102
{ACAD_REACTORS
330
549
102
}
330
549
100
AcDbXrecord
280
     1
102
RTVSPost2010Prop28
280
     0
102
RTVSPost2010PropOp28
 70
     1
102
RTVSPost2010Prop29
280
     1
102
RTVSPost2010PropOp29
 70
     1
102
RTVSPost2010Prop30
280
     1
102
RTVSPost2010PropOp30
 70
     1
102
RTVSPost2010Prop31
280
     0
102
RTVSPost2010PropOp31
 70
     1
102
RTVSPost2010Prop32
280
     0
102
RTVSPost2010PropOp32
 70
     1
102
RTVSPost2010Prop33
280
     0
102
RTVSPost2010PropOp33
 70
     1
102
RTVSPost2010Prop34
280
     0
102
RTVSPost2010PropOp34
 70
     1
102
RTVSPost2010Prop35
280
     0
102
RTVSPost2010PropOp35
 70
     1
102
RTVSPost2010Prop36
280
     0
102
RTVSPost2010PropOp36
 70
     1
102
RTVSPost2010Prop37
 90
       50
102
RTVSPost2010PropOp37
 70
     1
102
RTVSPost2010Prop38
140
0.0
102
RTVSPost2010PropOp38
 70
     1
102
RTVSPost2010Prop39
140
1.0
102
RTVSPost2010PropOp39
 70
     1
102
RTVSPost2010Prop40
 90
        0
102
RTVSPost2010PropOp40
 70
     1
102
RTVSPost2010Prop41ColorIndex
 90
       18
102
RTVSPost2010Prop41ColorRGB
 90
        0
102
RTVSPost2010PropOp41
 70
     1
102
RTVSPost2010Prop42
 90
       50
102
RTVSPost2010PropOp42
 70
     1
102
RTVSPost2010Prop43
 90
        3
102
RTVSPost2010PropOp43
 70
     1
102
RTVSPost2010Prop44ColorIndex
 90
        5
102
RTVSPost2010Prop44ColorRGB
 90
      255
102
RTVSPost2010PropOp44
 70
     1
102
RTVSPost2010Prop45
280
     0
102
RTVSPost2010PropOp45
 70
     1
102
RTVSPost2010Prop46
 90
       50
102
RTVSPost2010PropOp46
 70
     1
102
RTVSPost2010Prop47
 90
       50
102
RTVSPost2010PropOp47
 70
     1
102
RTVSPost2010Prop48
 90
       50
102
RTVSPost2010PropOp48
 70
     1
102
RTVSPost2010Prop49
280
     0
102
RTVSPost2010PropOp49
 70
     1
102
RTVSPost2010Prop50
 90
       50
102
RTVSPost2010PropOp50
 70
     1
102
RTVSPost2010Prop51ColorIndex
 90
      256
102
RTVSPost2010Prop51ColorRGB
 90
-16777216
102
RTVSPost2010PropOp51
 70
     0
102
RTVSPost2010Prop52
140
1.0
102
RTVSPost2010PropOp52
 70
     0
102
RTVSPost2010Prop53
 90
        2
102
RTVSPost2010PropOp53
 70
     1
102
RTVSPost2010Prop54
  1
strokes_ogs.tif
102
RTVSPost2010PropOp54
 70
     1
102
RTVSPost2010Prop55
280
     0
102
RTVSPost2010PropOp55
 70
     1
102
RTVSPost2010Prop56
140
1.0
102
RTVSPost2010PropOp56
 70
     1
102
RTVSPost2010Prop57
140
1.0
102
RTVSPost2010PropOp57
 70
     1
102
RTVSPropertyOp0
 70
     1
102
RTVSPropertyOp1
 70
     1
102
RTVSPropertyOp2
 70
     1
102
RTVSPropertyOp3
 70
     1
102
RTVSPropertyOp4
 70
     1
102
RTVSPropertyOp5
 70
     1
102
RTVSPropertyOp6
 70
     1
102
RTVSPropertyOp7
 70
     1
102
RTVSPropertyOp8
 70
     1
102
RTVSPropertyOp9
 70
     1
102
RTVSPropertyOp10
 70
     1
102
RTVSPropertyOp11
 70
     1
102
RTVSPropertyOp12
 70
     1
102
RTVSPropertyOp13
 70
     1
102
RTVSPropertyOp14
 70
     1
102
RTVSPropertyOp15
 70
     1
102
RTVSPropertyOp16
 70
     1
102
RTVSPropertyOp17
 70
     1
102
RTVSPropertyOp18
 70
     1
102
RTVSPropertyOp19
 70
     1
102
RTVSPropertyOp20
 70
     1
102
RTVSPropertyOp21
 70
     1
102
RTVSPropertyOp22
 70
     1
102
RTVSPropertyOp23
 70
     1
102
RTVSPropertyOp24
 70
     1
102
RTVSPropertyOp25
 70
     1
102
RTVSPropertyOp26
 70
     1
102
RTVSPropertyOp27
 70
     1
102
RTVSPropertyOp28
 70
     1
102
RTVSPropertyOp29
 70
     1
102
RTVSPropertyOp30
 70
     1
102
RTVSPropertyOp31
 70
     1
102
RTVSPropertyOp32
 70
     1
102
RTVSPropertyOp33
 70
     1
102
RTVSPropertyOp34
 70
     1
102
RTVSPropertyOp35
 70
     1
102
RTVSPropertyOp36
 70
     1
102
RTVSPropertyOp37
 70
     1
102
RTVSPropertyOp38
 70
     1
102
RTVSPropertyOp39
 70
     1
102
RTVSPropertyOp40
 70
     1
102
RTVSPropertyOp41
 70
     1
102
RTVSPropertyOp42
 70
     1
102
RTVSPropertyOp43
 70
     1
102
RTVSPropertyOp44
 70
     1
102
RTVSPropertyOp45
 70
     1
102
RTVSPropertyOp46
 70
     1
102
RTVSPropertyOp47
 70
     1
102
RTVSPropertyOp48
 70
     1
102
RTVSPropertyOp49
 70
     1
102
RTVSPropertyOp50
 70
     1
102
RTVSPropertyOp51
 70
     0
102
RTVSPropertyOp52
 70
     0
102
RTVSPropertyOp53
 70
     1
102
RTVSPropertyOp54
 70
     1
102
RTVSPropertyOp55
 70
     1
102
RTVSPropertyOp56
 70
     1
102
RTVSPropertyOp57
 70
     1
102
RTVSPropertyOp58
 70
     1
102
RTVSPropertyOp59
 70
     1
102
RTVSPropertyOp60
 70
     1
102
RTVSPropertyOp61
 70
     1
102
RTVSPropertyOp62
 70
     1
  0
XRECORD
  5
564
102
{ACAD_REACTORS
330
563
102
}
330
563
100
AcDbXrecord
280
     1
102
RTVSPost2010Prop28
280
     0
102
RTVSPost2010PropOp28
 70
     1
102
RTVSPost2010Prop29
280
     1
102
RTVSPost2010PropOp29
 70
     1
102
RTVSPost2010Prop30
280
     1
102
RTVSPost2010PropOp30
 70
     1
102
RTVSPost2010Prop31
280
     0
102
RTVSPost2010PropOp31
 70
     1
102
RTVSPost2010Prop32
280
     0
102
RTVSPost2010PropOp32
 70
     1
102
RTVSPost2010Prop33
280
     0
102
RTVSPost2010PropOp33
 70
     1
102
RTVSPost2010Prop34
280
     0
102
RTVSPost2010PropOp34
 70
     1
102
RTVSPost2010Prop35
280
     0
102
RTVSPost2010PropOp35
 70
     1
102
RTVSPost2010Prop36
280
     0
102
RTVSPost2010PropOp36
 70
     1
102
RTVSPost2010Prop37
 90
       50
102
RTVSPost2010PropOp37
 70
     0
102
RTVSPost2010Prop38
140
0.0
102
RTVSPost2010PropOp38
 70
     0
102
RTVSPost2010Prop39
140
1.0
102
RTVSPost2010PropOp39
 70
     0
102
RTVSPost2010Prop40
 90
        0
102
RTVSPost2010PropOp40
 70
     0
102
RTVSPost2010Prop41ColorIndex
 90
       18
102
RTVSPost2010Prop41ColorRGB
 90
        0
102
RTVSPost2010PropOp41
 70
     0
102
RTVSPost2010Prop42
 90
       50
102
RTVSPost2010PropOp42
 70
     0
102
RTVSPost2010Prop43
 90
        3
102
RTVSPost2010PropOp43
 70
     0
102
RTVSPost2010Prop44ColorIndex
 90
        5
102
RTVSPost2010Prop44ColorRGB
 90
      255
102
RTVSPost2010PropOp44
 70
     0
102
RTVSPost2010Prop45
280
     0
102
RTVSPost2010PropOp45
 70
     1
102
RTVSPost2010Prop46
 90
       50
102
RTVSPost2010PropOp46
 70
     0
102
RTVSPost2010Prop47
 90
       50
102
RTVSPost2010PropOp47
 70
     0
102
RTVSPost2010Prop48
 90
       50
102
RTVSPost2010PropOp48
 70
     0
102
RTVSPost2010Prop49
280
     0
102
RTVSPost2010PropOp49
 70
     1
102
RTVSPost2010Prop50
 90
       50
102
RTVSPost2010PropOp50
 70
     0
102
RTVSPost2010Prop51ColorIndex
 90
      256
102
RTVSPost2010Prop51ColorRGB
 90
-16777216
102
RTVSPost2010PropOp51
 70
     0
102
RTVSPost2010Prop52
140
1.0
102
RTVSPost2010PropOp52
 70
     0
102
RTVSPost2010Prop53
 90
        2
102
RTVSPost2010PropOp53
 70
     0
102
RTVSPost2010Prop54
  1
strokes_ogs.tif
102
RTVSPost2010PropOp54
 70
     0
102
RTVSPost2010Prop55
280
     0
102
RTVSPost2010PropOp55
 70
     1
102
RTVSPost2010Prop56
140
1.0
102
RTVSPost2010PropOp56
 70
     0
102
RTVSPost2010Prop57
140
1.0
102
RTVSPost2010PropOp57
 70
     0
102
RTVSPropertyOp0
 70
     0
102
RTVSPropertyOp1
 70
     0
102
RTVSPropertyOp2
 70
     0
102
RTVSPropertyOp3
 70
     0
102
RTVSPropertyOp4
 70
     0
102
RTVSPropertyOp5
 70
     0
102
RTVSPropertyOp6
 70
     0
102
RTVSPropertyOp7
 70
     0
102
RTVSPropertyOp8
 70
     0
102
RTVSPropertyOp9
 70
     0
102
RTVSPropertyOp10
 70
     0
102
RTVSPropertyOp11
 70
     0
102
RTVSPropertyOp12
 70
     0
102
RTVSPropertyOp13
 70
     0
102
RTVSPropertyOp14
 70
     2
102
RTVSPropertyOp15
 70
     0
102
RTVSPropertyOp16
 70
     0
102
RTVSPropertyOp17
 70
     0
102
RTVSPropertyOp18
 70
     0
102
RTVSPropertyOp19
 70
     0
102
RTVSPropertyOp20
 70
     0
102
RTVSPropertyOp21
 70
     0
102
RTVSPropertyOp22
 70
     0
102
RTVSPropertyOp23
 70
     0
102
RTVSPropertyOp24
 70
     0
102
RTVSPropertyOp25
 70
     0
102
RTVSPropertyOp26
 70
     0
102
RTVSPropertyOp27
 70
     0
102
RTVSPropertyOp28
 70
     1
102
RTVSPropertyOp29
 70
     1
102
RTVSPropertyOp30
 70
     1
102
RTVSPropertyOp31
 70
     1
102
RTVSPropertyOp32
 70
     1
102
RTVSPropertyOp33
 70
     1
102
RTVSPropertyOp34
 70
     1
102
RTVSPropertyOp35
 70
     1
102
RTVSPropertyOp36
 70
     1
102
RTVSPropertyOp37
 70
     0
102
RTVSPropertyOp38
 70
     0
102
RTVSPropertyOp39
 70
     0
102
RTVSPropertyOp40
 70
     0
102
RTVSPropertyOp41
 70
     0
102
RTVSPropertyOp42
 70
     0
102
RTVSPropertyOp43
 70
     0
102
RTVSPropertyOp44
 70
     0
102
RTVSPropertyOp45
 70
     1
102
RTVSPropertyOp46
 70
     0
102
RTVSPropertyOp47
 70
     0
102
RTVSPropertyOp48
 70
     0
102
RTVSPropertyOp49
 70
     1
102
RTVSPropertyOp50
 70
     0
102
RTVSPropertyOp51
 70
     0
102
RTVSPropertyOp52
 70
     0
102
RTVSPropertyOp53
 70
     0
102
RTVSPropertyOp54
 70
     0
102
RTVSPropertyOp55
 70
     1
102
RTVSPropertyOp56
 70
     0
102
RTVSPropertyOp57
 70
     0
102
RTVSPropertyOp58
 70
     0
102
RTVSPropertyOp59
 70
     0
102
RTVSPropertyOp60
 70
     0
102
RTVSPropertyOp61
 70
     0
102
RTVSPropertyOp62
 70
     0
  0
XRECORD
  5
552
102
{ACAD_REACTORS
330
551
102
}
330
551
100
AcDbXrecord
280
     1
102
RTVSPost2010Prop28
280
     0
102
RTVSPost2010PropOp28
 70
     1
102
RTVSPost2010Prop29
280
     1
102
RTVSPost2010PropOp29
 70
     1
102
RTVSPost2010Prop30
280
     1
102
RTVSPost2010PropOp30
 70
     1
102
RTVSPost2010Prop31
280
     0
102
RTVSPost2010PropOp31
 70
     1
102
RTVSPost2010Prop32
280
     0
102
RTVSPost2010PropOp32
 70
     1
102
RTVSPost2010Prop33
280
     0
102
RTVSPost2010PropOp33
 70
     1
102
RTVSPost2010Prop34
280
     0
102
RTVSPost2010PropOp34
 70
     1
102
RTVSPost2010Prop35
280
     0
102
RTVSPost2010PropOp35
 70
     1
102
RTVSPost2010Prop36
280
     0
102
RTVSPost2010PropOp36
 70
     1
102
RTVSPost2010Prop37
 90
       50
102
RTVSPost2010PropOp37
 70
     1
102
RTVSPost2010Prop38
140
0.0
102
RTVSPost2010PropOp38
 70
     1
102
RTVSPost2010Prop39
140
1.0
102
RTVSPost2010PropOp39
 70
     1
102
RTVSPost2010Prop40
 90
        0
102
RTVSPost2010PropOp40
 70
     1
102
RTVSPost2010Prop41ColorIndex
 90
       18
102
RTVSPost2010Prop41ColorRGB
 90
        0
102
RTVSPost2010PropOp41
 70
     1
102
RTVSPost2010Prop42
 90
       50
102
RTVSPost2010PropOp42
 70
     1
102
RTVSPost2010Prop43
 90
        3
102
RTVSPost2010PropOp43
 70
     1
102
RTVSPost2010Prop44ColorIndex
 90
        5
102
RTVSPost2010Prop44ColorRGB
 90
      255
102
RTVSPost2010PropOp44
 70
     1
102
RTVSPost2010Prop45
280
     0
102
RTVSPost2010PropOp45
 70
     1
102
RTVSPost2010Prop46
 90
       50
102
RTVSPost2010PropOp46
 70
     1
102
RTVSPost2010Prop47
 90
       50
102
RTVSPost2010PropOp47
 70
     1
102
RTVSPost2010Prop48
 90
       50
102
RTVSPost2010PropOp48
 70
     1
102
RTVSPost2010Prop49
280
     0
102
RTVSPost2010PropOp49
 70
     1
102
RTVSPost2010Prop50
 90
       50
102
RTVSPost2010PropOp50
 70
     1
102
RTVSPost2010Prop51ColorIndex
 90
      256
102
RTVSPost2010Prop51ColorRGB
 90
-16777216
102
RTVSPost2010PropOp51
 70
     0
102
RTVSPost2010Prop52
140
1.0
102
RTVSPost2010PropOp52
 70
     0
102
RTVSPost2010Prop53
 90
        2
102
RTVSPost2010PropOp53
 70
     1
102
RTVSPost2010Prop54
  1
strokes_ogs.tif
102
RTVSPost2010PropOp54
 70
     1
102
RTVSPost2010Prop55
280
     0
102
RTVSPost2010PropOp55
 70
     1
102
RTVSPost2010Prop56
140
1.0
102
RTVSPost2010PropOp56
 70
     1
102
RTVSPost2010Prop57
140
1.0
102
RTVSPost2010PropOp57
 70
     1
102
RTVSPropertyOp0
 70
     1
102
RTVSPropertyOp1
 70
     1
102
RTVSPropertyOp2
 70
     1
102
RTVSPropertyOp3
 70
     1
102
RTVSPropertyOp4
 70
     1
102
RTVSPropertyOp5
 70
     1
102
RTVSPropertyOp6
 70
     1
102
RTVSPropertyOp7
 70
     1
102
RTVSPropertyOp8
 70
     1
102
RTVSPropertyOp9
 70
     1
102
RTVSPropertyOp10
 70
     1
102
RTVSPropertyOp11
 70
     1
102
RTVSPropertyOp12
 70
     1
102
RTVSPropertyOp13
 70
     1
102
RTVSPropertyOp14
 70
     1
102
RTVSPropertyOp15
 70
     1
102
RTVSPropertyOp16
 70
     1
102
RTVSPropertyOp17
 70
     1
102
RTVSPropertyOp18
 70
     1
102
RTVSPropertyOp19
 70
     1
102
RTVSPropertyOp20
 70
     1
102
RTVSPropertyOp21
 70
     1
102
RTVSPropertyOp22
 70
     1
102
RTVSPropertyOp23
 70
     1
102
RTVSPropertyOp24
 70
     1
102
RTVSPropertyOp25
 70
     1
102
RTVSPropertyOp26
 70
     1
102
RTVSPropertyOp27
 70
     1
102
RTVSPropertyOp28
 70
     1
102
RTVSPropertyOp29
 70
     1
102
RTVSPropertyOp30
 70
     1
102
RTVSPropertyOp31
 70
     1
102
RTVSPropertyOp32
 70
     1
102
RTVSPropertyOp33
 70
     1
102
RTVSPropertyOp34
 70
     1
102
RTVSPropertyOp35
 70
     1
102
RTVSPropertyOp36
 70
     1
102
RTVSPropertyOp37
 70
     1
102
RTVSPropertyOp38
 70
     1
102
RTVSPropertyOp39
 70
     1
102
RTVSPropertyOp40
 70
     1
102
RTVSPropertyOp41
 70
     1
102
RTVSPropertyOp42
 70
     1
102
RTVSPropertyOp43
 70
     1
102
RTVSPropertyOp44
 70
     1
102
RTVSPropertyOp45
 70
     1
102
RTVSPropertyOp46
 70
     1
102
RTVSPropertyOp47
 70
     1
102
RTVSPropertyOp48
 70
     1
102
RTVSPropertyOp49
 70
     1
102
RTVSPropertyOp50
 70
     1
102
RTVSPropertyOp51
 70
     0
102
RTVSPropertyOp52
 70
     0
102
RTVSPropertyOp53
 70
     1
102
RTVSPropertyOp54
 70
     1
102
RTVSPropertyOp55
 70
     1
102
RTVSPropertyOp56
 70
     1
102
RTVSPropertyOp57
 70
     1
102
RTVSPropertyOp58
 70
     1
102
RTVSPropertyOp59
 70
     1
102
RTVSPropertyOp60
 70
     1
102
RTVSPropertyOp61
 70
     1
102
RTVSPropertyOp62
 70
     1
  0
XRECORD
  5
536
102
{ACAD_REACTORS
330
535
102
}
330
535
100
AcDbXrecord
280
     1
102
RTVSPost2010Prop28
280
     0
102
RTVSPost2010PropOp28
 70
     1
102
RTVSPost2010Prop29
280
     1
102
RTVSPost2010PropOp29
 70
     1
102
RTVSPost2010Prop30
280
     1
102
RTVSPost2010PropOp30
 70
     1
102
RTVSPost2010Prop31
280
     0
102
RTVSPost2010PropOp31
 70
     1
102
RTVSPost2010Prop32
280
     0
102
RTVSPost2010PropOp32
 70
     1
102
RTVSPost2010Prop33
280
     0
102
RTVSPost2010PropOp33
 70
     1
102
RTVSPost2010Prop34
280
     0
102
RTVSPost2010PropOp34
 70
     1
102
RTVSPost2010Prop35
280
     0
102
RTVSPost2010PropOp35
 70
     1
102
RTVSPost2010Prop36
280
     0
102
RTVSPost2010PropOp36
 70
     1
102
RTVSPost2010Prop37
 90
       50
102
RTVSPost2010PropOp37
 70
     1
102
RTVSPost2010Prop38
140
0.0
102
RTVSPost2010PropOp38
 70
     1
102
RTVSPost2010Prop39
140
1.0
102
RTVSPost2010PropOp39
 70
     1
102
RTVSPost2010Prop40
 90
        0
102
RTVSPost2010PropOp40
 70
     1
102
RTVSPost2010Prop41ColorIndex
 90
       18
102
RTVSPost2010Prop41ColorRGB
 90
        0
102
RTVSPost2010PropOp41
 70
     1
102
RTVSPost2010Prop42
 90
       50
102
RTVSPost2010PropOp42
 70
     1
102
RTVSPost2010Prop43
 90
        3
102
RTVSPost2010PropOp43
 70
     1
102
RTVSPost2010Prop44ColorIndex
 90
        5
102
RTVSPost2010Prop44ColorRGB
 90
      255
102
RTVSPost2010PropOp44
 70
     1
102
RTVSPost2010Prop45
280
     0
102
RTVSPost2010PropOp45
 70
     1
102
RTVSPost2010Prop46
 90
       50
102
RTVSPost2010PropOp46
 70
     1
102
RTVSPost2010Prop47
 90
       50
102
RTVSPost2010PropOp47
 70
     1
102
RTVSPost2010Prop48
 90
       50
102
RTVSPost2010PropOp48
 70
     1
102
RTVSPost2010Prop49
280
     0
102
RTVSPost2010PropOp49
 70
     1
102
RTVSPost2010Prop50
 90
       50
102
RTVSPost2010PropOp50
 70
     1
102
RTVSPost2010Prop51ColorIndex
 90
      256
102
RTVSPost2010Prop51ColorRGB
 90
-16777216
102
RTVSPost2010PropOp51
 70
     0
102
RTVSPost2010Prop52
140
1.0
102
RTVSPost2010PropOp52
 70
     0
102
RTVSPost2010Prop53
 90
        2
102
RTVSPost2010PropOp53
 70
     1
102
RTVSPost2010Prop54
  1
strokes_ogs.tif
102
RTVSPost2010PropOp54
 70
     1
102
RTVSPost2010Prop55
280
     0
102
RTVSPost2010PropOp55
 70
     1
102
RTVSPost2010Prop56
140
1.0
102
RTVSPost2010PropOp56
 70
     1
102
RTVSPost2010Prop57
140
1.0
102
RTVSPost2010PropOp57
 70
     1
102
RTVSPropertyOp0
 70
     1
102
RTVSPropertyOp1
 70
     1
102
RTVSPropertyOp2
 70
     1
102
RTVSPropertyOp3
 70
     1
102
RTVSPropertyOp4
 70
     1
102
RTVSPropertyOp5
 70
     1
102
RTVSPropertyOp6
 70
     1
102
RTVSPropertyOp7
 70
     1
102
RTVSPropertyOp8
 70
     1
102
RTVSPropertyOp9
 70
     1
102
RTVSPropertyOp10
 70
     1
102
RTVSPropertyOp11
 70
     1
102
RTVSPropertyOp12
 70
     1
102
RTVSPropertyOp13
 70
     1
102
RTVSPropertyOp14
 70
     1
102
RTVSPropertyOp15
 70
     1
102
RTVSPropertyOp16
 70
     1
102
RTVSPropertyOp17
 70
     1
102
RTVSPropertyOp18
 70
     1
102
RTVSPropertyOp19
 70
     1
102
RTVSPropertyOp20
 70
     1
102
RTVSPropertyOp21
 70
     1
102
RTVSPropertyOp22
 70
     1
102
RTVSPropertyOp23
 70
     1
102
RTVSPropertyOp24
 70
     1
102
RTVSPropertyOp25
 70
     1
102
RTVSPropertyOp26
 70
     1
102
RTVSPropertyOp27
 70
     1
102
RTVSPropertyOp28
 70
     1
102
RTVSPropertyOp29
 70
     1
102
RTVSPropertyOp30
 70
     1
102
RTVSPropertyOp31
 70
     1
102
RTVSPropertyOp32
 70
     1
102
RTVSPropertyOp33
 70
     1
102
RTVSPropertyOp34
 70
     1
102
RTVSPropertyOp35
 70
     1
102
RTVSPropertyOp36
 70
     1
102
RTVSPropertyOp37
 70
     1
102
RTVSPropertyOp38
 70
     1
102
RTVSPropertyOp39
 70
     1
102
RTVSPropertyOp40
 70
     1
102
RTVSPropertyOp41
 70
     1
102
RTVSPropertyOp42
 70
     1
102
RTVSPropertyOp43
 70
     1
102
RTVSPropertyOp44
 70
     1
102
RTVSPropertyOp45
 70
     1
102
RTVSPropertyOp46
 70
     1
102
RTVSPropertyOp47
 70
     1
102
RTVSPropertyOp48
 70
     1
102
RTVSPropertyOp49
 70
     1
102
RTVSPropertyOp50
 70
     1
102
RTVSPropertyOp51
 70
     0
102
RTVSPropertyOp52
 70
     0
102
RTVSPropertyOp53
 70
     1
102
RTVSPropertyOp54
 70
     1
102
RTVSPropertyOp55
 70
     1
102
RTVSPropertyOp56
 70
     1
102
RTVSPropertyOp57
 70
     1
102
RTVSPropertyOp58
 70
     1
102
RTVSPropertyOp59
 70
     1
102
RTVSPropertyOp60
 70
     1
102
RTVSPropertyOp61
 70
     1
102
RTVSPropertyOp62
 70
     1
  0
XRECORD
  5
538
102
{ACAD_REACTORS
330
537
102
}
330
537
100
AcDbXrecord
280
     1
102
RTVSPost2010Prop28
280
     0
102
RTVSPost2010PropOp28
 70
     1
102
RTVSPost2010Prop29
280
     1
102
RTVSPost2010PropOp29
 70
     1
102
RTVSPost2010Prop30
280
     1
102
RTVSPost2010PropOp30
 70
     1
102
RTVSPost2010Prop31
280
     0
102
RTVSPost2010PropOp31
 70
     1
102
RTVSPost2010Prop32
280
     0
102
RTVSPost2010PropOp32
 70
     1
102
RTVSPost2010Prop33
280
     0
102
RTVSPost2010PropOp33
 70
     1
102
RTVSPost2010Prop34
280
     0
102
RTVSPost2010PropOp34
 70
     1
102
RTVSPost2010Prop35
280
     0
102
RTVSPost2010PropOp35
 70
     1
102
RTVSPost2010Prop36
280
     0
102
RTVSPost2010PropOp36
 70
     1
102
RTVSPost2010Prop37
 90
       50
102
RTVSPost2010PropOp37
 70
     1
102
RTVSPost2010Prop38
140
0.0
102
RTVSPost2010PropOp38
 70
     1
102
RTVSPost2010Prop39
140
1.0
102
RTVSPost2010PropOp39
 70
     1
102
RTVSPost2010Prop40
 90
        0
102
RTVSPost2010PropOp40
 70
     1
102
RTVSPost2010Prop41ColorIndex
 90
       18
102
RTVSPost2010Prop41ColorRGB
 90
        0
102
RTVSPost2010PropOp41
 70
     1
102
RTVSPost2010Prop42
 90
       50
102
RTVSPost2010PropOp42
 70
     1
102
RTVSPost2010Prop43
 90
        3
102
RTVSPost2010PropOp43
 70
     1
102
RTVSPost2010Prop44ColorIndex
 90
        5
102
RTVSPost2010Prop44ColorRGB
 90
      255
102
RTVSPost2010PropOp44
 70
     1
102
RTVSPost2010Prop45
280
     0
102
RTVSPost2010PropOp45
 70
     1
102
RTVSPost2010Prop46
 90
       50
102
RTVSPost2010PropOp46
 70
     1
102
RTVSPost2010Prop47
 90
       50
102
RTVSPost2010PropOp47
 70
     1
102
RTVSPost2010Prop48
 90
       50
102
RTVSPost2010PropOp48
 70
     1
102
RTVSPost2010Prop49
280
     0
102
RTVSPost2010PropOp49
 70
     1
102
RTVSPost2010Prop50
 90
       50
102
RTVSPost2010PropOp50
 70
     1
102
RTVSPost2010Prop51ColorIndex
 90
      256
102
RTVSPost2010Prop51ColorRGB
 90
-16777216
102
RTVSPost2010PropOp51
 70
     0
102
RTVSPost2010Prop52
140
1.0
102
RTVSPost2010PropOp52
 70
     0
102
RTVSPost2010Prop53
 90
        2
102
RTVSPost2010PropOp53
 70
     1
102
RTVSPost2010Prop54
  1
strokes_ogs.tif
102
RTVSPost2010PropOp54
 70
     1
102
RTVSPost2010Prop55
280
     0
102
RTVSPost2010PropOp55
 70
     1
102
RTVSPost2010Prop56
140
1.0
102
RTVSPost2010PropOp56
 70
     1
102
RTVSPost2010Prop57
140
1.0
102
RTVSPost2010PropOp57
 70
     1
102
RTVSPropertyOp0
 70
     1
102
RTVSPropertyOp1
 70
     1
102
RTVSPropertyOp2
 70
     1
102
RTVSPropertyOp3
 70
     1
102
RTVSPropertyOp4
 70
     1
102
RTVSPropertyOp5
 70
     1
102
RTVSPropertyOp6
 70
     1
102
RTVSPropertyOp7
 70
     1
102
RTVSPropertyOp8
 70
     1
102
RTVSPropertyOp9
 70
     1
102
RTVSPropertyOp10
 70
     1
102
RTVSPropertyOp11
 70
     1
102
RTVSPropertyOp12
 70
     1
102
RTVSPropertyOp13
 70
     1
102
RTVSPropertyOp14
 70
     1
102
RTVSPropertyOp15
 70
     1
102
RTVSPropertyOp16
 70
     1
102
RTVSPropertyOp17
 70
     1
102
RTVSPropertyOp18
 70
     1
102
RTVSPropertyOp19
 70
     1
102
RTVSPropertyOp20
 70
     1
102
RTVSPropertyOp21
 70
     1
102
RTVSPropertyOp22
 70
     1
102
RTVSPropertyOp23
 70
     1
102
RTVSPropertyOp24
 70
     1
102
RTVSPropertyOp25
 70
     1
102
RTVSPropertyOp26
 70
     1
102
RTVSPropertyOp27
 70
     1
102
RTVSPropertyOp28
 70
     1
102
RTVSPropertyOp29
 70
     1
102
RTVSPropertyOp30
 70
     1
102
RTVSPropertyOp31
 70
     1
102
RTVSPropertyOp32
 70
     1
102
RTVSPropertyOp33
 70
     1
102
RTVSPropertyOp34
 70
     1
102
RTVSPropertyOp35
 70
     1
102
RTVSPropertyOp36
 70
     1
102
RTVSPropertyOp37
 70
     1
102
RTVSPropertyOp38
 70
     1
102
RTVSPropertyOp39
 70
     1
102
RTVSPropertyOp40
 70
     1
102
RTVSPropertyOp41
 70
     1
102
RTVSPropertyOp42
 70
     1
102
RTVSPropertyOp43
 70
     1
102
RTVSPropertyOp44
 70
     1
102
RTVSPropertyOp45
 70
     1
102
RTVSPropertyOp46
 70
     1
102
RTVSPropertyOp47
 70
     1
102
RTVSPropertyOp48
 70
     1
102
RTVSPropertyOp49
 70
     1
102
RTVSPropertyOp50
 70
     1
102
RTVSPropertyOp51
 70
     0
102
RTVSPropertyOp52
 70
     0
102
RTVSPropertyOp53
 70
     1
102
RTVSPropertyOp54
 70
     1
102
RTVSPropertyOp55
 70
     1
102
RTVSPropertyOp56
 70
     1
102
RTVSPropertyOp57
 70
     1
102
RTVSPropertyOp58
 70
     1
102
RTVSPropertyOp59
 70
     1
102
RTVSPropertyOp60
 70
     1
102
RTVSPropertyOp61
 70
     1
102
RTVSPropertyOp62
 70
     1
  0
XRECORD
  5
53A
102
{ACAD_REACTORS
330
539
102
}
330
539
100
AcDbXrecord
280
     1
102
RTVSPost2010Prop28
280
     0
102
RTVSPost2010PropOp28
 70
     1
102
RTVSPost2010Prop29
280
     1
102
RTVSPost2010PropOp29
 70
     1
102
RTVSPost2010Prop30
280
     1
102
RTVSPost2010PropOp30
 70
     1
102
RTVSPost2010Prop31
280
     0
102
RTVSPost2010PropOp31
 70
     1
102
RTVSPost2010Prop32
280
     0
102
RTVSPost2010PropOp32
 70
     1
102
RTVSPost2010Prop33
280
     0
102
RTVSPost2010PropOp33
 70
     1
102
RTVSPost2010Prop34
280
     0
102
RTVSPost2010PropOp34
 70
     1
102
RTVSPost2010Prop35
280
     0
102
RTVSPost2010PropOp35
 70
     1
102
RTVSPost2010Prop36
280
     0
102
RTVSPost2010PropOp36
 70
     1
102
RTVSPost2010Prop37
 90
       50
102
RTVSPost2010PropOp37
 70
     1
102
RTVSPost2010Prop38
140
0.0
102
RTVSPost2010PropOp38
 70
     1
102
RTVSPost2010Prop39
140
1.0
102
RTVSPost2010PropOp39
 70
     1
102
RTVSPost2010Prop40
 90
        0
102
RTVSPost2010PropOp40
 70
     1
102
RTVSPost2010Prop41ColorIndex
 90
       18
102
RTVSPost2010Prop41ColorRGB
 90
        0
102
RTVSPost2010PropOp41
 70
     1
102
RTVSPost2010Prop42
 90
       50
102
RTVSPost2010PropOp42
 70
     1
102
RTVSPost2010Prop43
 90
        3
102
RTVSPost2010PropOp43
 70
     1
102
RTVSPost2010Prop44ColorIndex
 90
        5
102
RTVSPost2010Prop44ColorRGB
 90
      255
102
RTVSPost2010PropOp44
 70
     1
102
RTVSPost2010Prop45
280
     0
102
RTVSPost2010PropOp45
 70
     1
102
RTVSPost2010Prop46
 90
       50
102
RTVSPost2010PropOp46
 70
     1
102
RTVSPost2010Prop47
 90
       50
102
RTVSPost2010PropOp47
 70
     1
102
RTVSPost2010Prop48
 90
       50
102
RTVSPost2010PropOp48
 70
     1
102
RTVSPost2010Prop49
280
     0
102
RTVSPost2010PropOp49
 70
     1
102
RTVSPost2010Prop50
 90
       50
102
RTVSPost2010PropOp50
 70
     1
102
RTVSPost2010Prop51ColorIndex
 90
      256
102
RTVSPost2010Prop51ColorRGB
 90
-16777216
102
RTVSPost2010PropOp51
 70
     0
102
RTVSPost2010Prop52
140
1.0
102
RTVSPost2010PropOp52
 70
     0
102
RTVSPost2010Prop53
 90
        2
102
RTVSPost2010PropOp53
 70
     1
102
RTVSPost2010Prop54
  1
strokes_ogs.tif
102
RTVSPost2010PropOp54
 70
     1
102
RTVSPost2010Prop55
280
     0
102
RTVSPost2010PropOp55
 70
     1
102
RTVSPost2010Prop56
140
1.0
102
RTVSPost2010PropOp56
 70
     1
102
RTVSPost2010Prop57
140
1.0
102
RTVSPost2010PropOp57
 70
     1
102
RTVSPropertyOp0
 70
     1
102
RTVSPropertyOp1
 70
     1
102
RTVSPropertyOp2
 70
     1
102
RTVSPropertyOp3
 70
     1
102
RTVSPropertyOp4
 70
     1
102
RTVSPropertyOp5
 70
     1
102
RTVSPropertyOp6
 70
     1
102
RTVSPropertyOp7
 70
     1
102
RTVSPropertyOp8
 70
     1
102
RTVSPropertyOp9
 70
     1
102
RTVSPropertyOp10
 70
     1
102
RTVSPropertyOp11
 70
     1
102
RTVSPropertyOp12
 70
     1
102
RTVSPropertyOp13
 70
     1
102
RTVSPropertyOp14
 70
     1
102
RTVSPropertyOp15
 70
     1
102
RTVSPropertyOp16
 70
     1
102
RTVSPropertyOp17
 70
     1
102
RTVSPropertyOp18
 70
     1
102
RTVSPropertyOp19
 70
     1
102
RTVSPropertyOp20
 70
     1
102
RTVSPropertyOp21
 70
     1
102
RTVSPropertyOp22
 70
     1
102
RTVSPropertyOp23
 70
     1
102
RTVSPropertyOp24
 70
     1
102
RTVSPropertyOp25
 70
     1
102
RTVSPropertyOp26
 70
     1
102
RTVSPropertyOp27
 70
     1
102
RTVSPropertyOp28
 70
     1
102
RTVSPropertyOp29
 70
     1
102
RTVSPropertyOp30
 70
     1
102
RTVSPropertyOp31
 70
     1
102
RTVSPropertyOp32
 70
     1
102
RTVSPropertyOp33
 70
     1
102
RTVSPropertyOp34
 70
     1
102
RTVSPropertyOp35
 70
     1
102
RTVSPropertyOp36
 70
     1
102
RTVSPropertyOp37
 70
     1
102
RTVSPropertyOp38
 70
     1
102
RTVSPropertyOp39
 70
     1
102
RTVSPropertyOp40
 70
     1
102
RTVSPropertyOp41
 70
     1
102
RTVSPropertyOp42
 70
     1
102
RTVSPropertyOp43
 70
     1
102
RTVSPropertyOp44
 70
     1
102
RTVSPropertyOp45
 70
     1
102
RTVSPropertyOp46
 70
     1
102
RTVSPropertyOp47
 70
     1
102
RTVSPropertyOp48
 70
     1
102
RTVSPropertyOp49
 70
     1
102
RTVSPropertyOp50
 70
     1
102
RTVSPropertyOp51
 70
     0
102
RTVSPropertyOp52
 70
     0
102
RTVSPropertyOp53
 70
     1
102
RTVSPropertyOp54
 70
     1
102
RTVSPropertyOp55
 70
     1
102
RTVSPropertyOp56
 70
     1
102
RTVSPropertyOp57
 70
     1
102
RTVSPropertyOp58
 70
     1
102
RTVSPropertyOp59
 70
     1
102
RTVSPropertyOp60
 70
     1
102
RTVSPropertyOp61
 70
     1
102
RTVSPropertyOp62
 70
     1
  0
XRECORD
  5
53C
102
{ACAD_REACTORS
330
53B
102
}
330
53B
100
AcDbXrecord
280
     1
102
RTVSPost2010Prop28
280
     0
102
RTVSPost2010PropOp28
 70
     1
102
RTVSPost2010Prop29
280
     1
102
RTVSPost2010PropOp29
 70
     1
102
RTVSPost2010Prop30
280
     1
102
RTVSPost2010PropOp30
 70
     1
102
RTVSPost2010Prop31
280
     0
102
RTVSPost2010PropOp31
 70
     1
102
RTVSPost2010Prop32
280
     0
102
RTVSPost2010PropOp32
 70
     1
102
RTVSPost2010Prop33
280
     0
102
RTVSPost2010PropOp33
 70
     1
102
RTVSPost2010Prop34
280
     0
102
RTVSPost2010PropOp34
 70
     1
102
RTVSPost2010Prop35
280
     0
102
RTVSPost2010PropOp35
 70
     1
102
RTVSPost2010Prop36
280
     0
102
RTVSPost2010PropOp36
 70
     1
102
RTVSPost2010Prop37
 90
       50
102
RTVSPost2010PropOp37
 70
     1
102
RTVSPost2010Prop38
140
0.0
102
RTVSPost2010PropOp38
 70
     1
102
RTVSPost2010Prop39
140
1.0
102
RTVSPost2010PropOp39
 70
     1
102
RTVSPost2010Prop40
 90
        0
102
RTVSPost2010PropOp40
 70
     1
102
RTVSPost2010Prop41ColorIndex
 90
       18
102
RTVSPost2010Prop41ColorRGB
 90
        0
102
RTVSPost2010PropOp41
 70
     1
102
RTVSPost2010Prop42
 90
       50
102
RTVSPost2010PropOp42
 70
     1
102
RTVSPost2010Prop43
 90
        3
102
RTVSPost2010PropOp43
 70
     1
102
RTVSPost2010Prop44ColorIndex
 90
        5
102
RTVSPost2010Prop44ColorRGB
 90
      255
102
RTVSPost2010PropOp44
 70
     1
102
RTVSPost2010Prop45
280
     0
102
RTVSPost2010PropOp45
 70
     1
102
RTVSPost2010Prop46
 90
       50
102
RTVSPost2010PropOp46
 70
     1
102
RTVSPost2010Prop47
 90
       50
102
RTVSPost2010PropOp47
 70
     1
102
RTVSPost2010Prop48
 90
       50
102
RTVSPost2010PropOp48
 70
     1
102
RTVSPost2010Prop49
280
     0
102
RTVSPost2010PropOp49
 70
     1
102
RTVSPost2010Prop50
 90
       50
102
RTVSPost2010PropOp50
 70
     1
102
RTVSPost2010Prop51ColorIndex
 90
      256
102
RTVSPost2010Prop51ColorRGB
 90
-16777216
102
RTVSPost2010PropOp51
 70
     0
102
RTVSPost2010Prop52
140
1.0
102
RTVSPost2010PropOp52
 70
     0
102
RTVSPost2010Prop53
 90
        2
102
RTVSPost2010PropOp53
 70
     1
102
RTVSPost2010Prop54
  1
strokes_ogs.tif
102
RTVSPost2010PropOp54
 70
     1
102
RTVSPost2010Prop55
280
     0
102
RTVSPost2010PropOp55
 70
     1
102
RTVSPost2010Prop56
140
1.0
102
RTVSPost2010PropOp56
 70
     1
102
RTVSPost2010Prop57
140
1.0
102
RTVSPost2010PropOp57
 70
     1
102
RTVSPropertyOp0
 70
     1
102
RTVSPropertyOp1
 70
     1
102
RTVSPropertyOp2
 70
     1
102
RTVSPropertyOp3
 70
     1
102
RTVSPropertyOp4
 70
     1
102
RTVSPropertyOp5
 70
     1
102
RTVSPropertyOp6
 70
     1
102
RTVSPropertyOp7
 70
     1
102
RTVSPropertyOp8
 70
     1
102
RTVSPropertyOp9
 70
     1
102
RTVSPropertyOp10
 70
     1
102
RTVSPropertyOp11
 70
     1
102
RTVSPropertyOp12
 70
     1
102
RTVSPropertyOp13
 70
     1
102
RTVSPropertyOp14
 70
     1
102
RTVSPropertyOp15
 70
     1
102
RTVSPropertyOp16
 70
     1
102
RTVSPropertyOp17
 70
     1
102
RTVSPropertyOp18
 70
     1
102
RTVSPropertyOp19
 70
     1
102
RTVSPropertyOp20
 70
     1
102
RTVSPropertyOp21
 70
     1
102
RTVSPropertyOp22
 70
     1
102
RTVSPropertyOp23
 70
     1
102
RTVSPropertyOp24
 70
     1
102
RTVSPropertyOp25
 70
     1
102
RTVSPropertyOp26
 70
     1
102
RTVSPropertyOp27
 70
     1
102
RTVSPropertyOp28
 70
     1
102
RTVSPropertyOp29
 70
     1
102
RTVSPropertyOp30
 70
     1
102
RTVSPropertyOp31
 70
     1
102
RTVSPropertyOp32
 70
     1
102
RTVSPropertyOp33
 70
     1
102
RTVSPropertyOp34
 70
     1
102
RTVSPropertyOp35
 70
     1
102
RTVSPropertyOp36
 70
     1
102
RTVSPropertyOp37
 70
     1
102
RTVSPropertyOp38
 70
     1
102
RTVSPropertyOp39
 70
     1
102
RTVSPropertyOp40
 70
     1
102
RTVSPropertyOp41
 70
     1
102
RTVSPropertyOp42
 70
     1
102
RTVSPropertyOp43
 70
     1
102
RTVSPropertyOp44
 70
     1
102
RTVSPropertyOp45
 70
     1
102
RTVSPropertyOp46
 70
     1
102
RTVSPropertyOp47
 70
     1
102
RTVSPropertyOp48
 70
     1
102
RTVSPropertyOp49
 70
     1
102
RTVSPropertyOp50
 70
     1
102
RTVSPropertyOp51
 70
     0
102
RTVSPropertyOp52
 70
     0
102
RTVSPropertyOp53
 70
     1
102
RTVSPropertyOp54
 70
     1
102
RTVSPropertyOp55
 70
     1
102
RTVSPropertyOp56
 70
     1
102
RTVSPropertyOp57
 70
     1
102
RTVSPropertyOp58
 70
     1
102
RTVSPropertyOp59
 70
     1
102
RTVSPropertyOp60
 70
     1
102
RTVSPropertyOp61
 70
     1
102
RTVSPropertyOp62
 70
     1
  0
XRECORD
  5
544
102
{ACAD_REACTORS
330
543
102
}
330
543
100
AcDbXrecord
280
     1
102
RTVSPost2010Prop28
280
     0
102
RTVSPost2010PropOp28
 70
     1
102
RTVSPost2010Prop29
280
     1
102
RTVSPost2010PropOp29
 70
     1
102
RTVSPost2010Prop30
280
     1
102
RTVSPost2010PropOp30
 70
     1
102
RTVSPost2010Prop31
280
     0
102
RTVSPost2010PropOp31
 70
     1
102
RTVSPost2010Prop32
280
     0
102
RTVSPost2010PropOp32
 70
     1
102
RTVSPost2010Prop33
280
     0
102
RTVSPost2010PropOp33
 70
     1
102
RTVSPost2010Prop34
280
     0
102
RTVSPost2010PropOp34
 70
     1
102
RTVSPost2010Prop35
280
     0
102
RTVSPost2010PropOp35
 70
     1
102
RTVSPost2010Prop36
280
     0
102
RTVSPost2010PropOp36
 70
     1
102
RTVSPost2010Prop37
 90
       50
102
RTVSPost2010PropOp37
 70
     1
102
RTVSPost2010Prop38
140
0.0
102
RTVSPost2010PropOp38
 70
     1
102
RTVSPost2010Prop39
140
1.0
102
RTVSPost2010PropOp39
 70
     1
102
RTVSPost2010Prop40
 90
        0
102
RTVSPost2010PropOp40
 70
     1
102
RTVSPost2010Prop41ColorIndex
 90
       18
102
RTVSPost2010Prop41ColorRGB
 90
        0
102
RTVSPost2010PropOp41
 70
     1
102
RTVSPost2010Prop42
 90
       50
102
RTVSPost2010PropOp42
 70
     1
102
RTVSPost2010Prop43
 90
        3
102
RTVSPost2010PropOp43
 70
     1
102
RTVSPost2010Prop44ColorIndex
 90
        5
102
RTVSPost2010Prop44ColorRGB
 90
      255
102
RTVSPost2010PropOp44
 70
     1
102
RTVSPost2010Prop45
280
     0
102
RTVSPost2010PropOp45
 70
     1
102
RTVSPost2010Prop46
 90
       50
102
RTVSPost2010PropOp46
 70
     1
102
RTVSPost2010Prop47
 90
       50
102
RTVSPost2010PropOp47
 70
     1
102
RTVSPost2010Prop48
 90
       50
102
RTVSPost2010PropOp48
 70
     1
102
RTVSPost2010Prop49
280
     0
102
RTVSPost2010PropOp49
 70
     1
102
RTVSPost2010Prop50
 90
       50
102
RTVSPost2010PropOp50
 70
     1
102
RTVSPost2010Prop51ColorIndex
 90
      256
102
RTVSPost2010Prop51ColorRGB
 90
-16777216
102
RTVSPost2010PropOp51
 70
     0
102
RTVSPost2010Prop52
140
1.0
102
RTVSPost2010PropOp52
 70
     0
102
RTVSPost2010Prop53
 90
        2
102
RTVSPost2010PropOp53
 70
     1
102
RTVSPost2010Prop54
  1
strokes_ogs.tif
102
RTVSPost2010PropOp54
 70
     1
102
RTVSPost2010Prop55
280
     0
102
RTVSPost2010PropOp55
 70
     1
102
RTVSPost2010Prop56
140
1.0
102
RTVSPost2010PropOp56
 70
     1
102
RTVSPost2010Prop57
140
1.0
102
RTVSPost2010PropOp57
 70
     1
102
RTVSPropertyOp0
 70
     1
102
RTVSPropertyOp1
 70
     1
102
RTVSPropertyOp2
 70
     1
102
RTVSPropertyOp3
 70
     1
102
RTVSPropertyOp4
 70
     1
102
RTVSPropertyOp5
 70
     1
102
RTVSPropertyOp6
 70
     1
102
RTVSPropertyOp7
 70
     1
102
RTVSPropertyOp8
 70
     1
102
RTVSPropertyOp9
 70
     1
102
RTVSPropertyOp10
 70
     1
102
RTVSPropertyOp11
 70
     1
102
RTVSPropertyOp12
 70
     1
102
RTVSPropertyOp13
 70
     1
102
RTVSPropertyOp14
 70
     1
102
RTVSPropertyOp15
 70
     1
102
RTVSPropertyOp16
 70
     1
102
RTVSPropertyOp17
 70
     1
102
RTVSPropertyOp18
 70
     1
102
RTVSPropertyOp19
 70
     1
102
RTVSPropertyOp20
 70
     1
102
RTVSPropertyOp21
 70
     1
102
RTVSPropertyOp22
 70
     1
102
RTVSPropertyOp23
 70
     1
102
RTVSPropertyOp24
 70
     1
102
RTVSPropertyOp25
 70
     1
102
RTVSPropertyOp26
 70
     1
102
RTVSPropertyOp27
 70
     1
102
RTVSPropertyOp28
 70
     1
102
RTVSPropertyOp29
 70
     1
102
RTVSPropertyOp30
 70
     1
102
RTVSPropertyOp31
 70
     1
102
RTVSPropertyOp32
 70
     1
102
RTVSPropertyOp33
 70
     1
102
RTVSPropertyOp34
 70
     1
102
RTVSPropertyOp35
 70
     1
102
RTVSPropertyOp36
 70
     1
102
RTVSPropertyOp37
 70
     1
102
RTVSPropertyOp38
 70
     1
102
RTVSPropertyOp39
 70
     1
102
RTVSPropertyOp40
 70
     1
102
RTVSPropertyOp41
 70
     1
102
RTVSPropertyOp42
 70
     1
102
RTVSPropertyOp43
 70
     1
102
RTVSPropertyOp44
 70
     1
102
RTVSPropertyOp45
 70
     1
102
RTVSPropertyOp46
 70
     1
102
RTVSPropertyOp47
 70
     1
102
RTVSPropertyOp48
 70
     1
102
RTVSPropertyOp49
 70
     1
102
RTVSPropertyOp50
 70
     1
102
RTVSPropertyOp51
 70
     0
102
RTVSPropertyOp52
 70
     0
102
RTVSPropertyOp53
 70
     1
102
RTVSPropertyOp54
 70
     1
102
RTVSPropertyOp55
 70
     1
102
RTVSPropertyOp56
 70
     1
102
RTVSPropertyOp57
 70
     1
102
RTVSPropertyOp58
 70
     1
102
RTVSPropertyOp59
 70
     1
102
RTVSPropertyOp60
 70
     1
102
RTVSPropertyOp61
 70
     1
102
RTVSPropertyOp62
 70
     1
  0
XRECORD
  5
560
102
{ACAD_REACTORS
330
55F
102
}
330
55F
100
AcDbXrecord
280
     1
102
RTVSPost2010Prop28
280
     0
102
RTVSPost2010PropOp28
 70
     1
102
RTVSPost2010Prop29
280
     1
102
RTVSPost2010PropOp29
 70
     1
102
RTVSPost2010Prop30
280
     1
102
RTVSPost2010PropOp30
 70
     1
102
RTVSPost2010Prop31
280
     0
102
RTVSPost2010PropOp31
 70
     1
102
RTVSPost2010Prop32
280
     0
102
RTVSPost2010PropOp32
 70
     1
102
RTVSPost2010Prop33
280
     0
102
RTVSPost2010PropOp33
 70
     1
102
RTVSPost2010Prop34
280
     0
102
RTVSPost2010PropOp34
 70
     1
102
RTVSPost2010Prop35
280
     0
102
RTVSPost2010PropOp35
 70
     1
102
RTVSPost2010Prop36
280
     0
102
RTVSPost2010PropOp36
 70
     1
102
RTVSPost2010Prop37
 90
       50
102
RTVSPost2010PropOp37
 70
     0
102
RTVSPost2010Prop38
140
0.0
102
RTVSPost2010PropOp38
 70
     0
102
RTVSPost2010Prop39
140
1.0
102
RTVSPost2010PropOp39
 70
     0
102
RTVSPost2010Prop40
 90
        0
102
RTVSPost2010PropOp40
 70
     0
102
RTVSPost2010Prop41ColorIndex
 90
       18
102
RTVSPost2010Prop41ColorRGB
 90
        0
102
RTVSPost2010PropOp41
 70
     0
102
RTVSPost2010Prop42
 90
       50
102
RTVSPost2010PropOp42
 70
     0
102
RTVSPost2010Prop43
 90
        3
102
RTVSPost2010PropOp43
 70
     0
102
RTVSPost2010Prop44ColorIndex
 90
        5
102
RTVSPost2010Prop44ColorRGB
 90
      255
102
RTVSPost2010PropOp44
 70
     0
102
RTVSPost2010Prop45
280
     0
102
RTVSPost2010PropOp45
 70
     1
102
RTVSPost2010Prop46
 90
       50
102
RTVSPost2010PropOp46
 70
     0
102
RTVSPost2010Prop47
 90
       50
102
RTVSPost2010PropOp47
 70
     0
102
RTVSPost2010Prop48
 90
       50
102
RTVSPost2010PropOp48
 70
     0
102
RTVSPost2010Prop49
280
     0
102
RTVSPost2010PropOp49
 70
     1
102
RTVSPost2010Prop50
 90
       50
102
RTVSPost2010PropOp50
 70
     0
102
RTVSPost2010Prop51ColorIndex
 90
      256
102
RTVSPost2010Prop51ColorRGB
 90
-16777216
102
RTVSPost2010PropOp51
 70
     0
102
RTVSPost2010Prop52
140
1.0
102
RTVSPost2010PropOp52
 70
     0
102
RTVSPost2010Prop53
 90
        2
102
RTVSPost2010PropOp53
 70
     0
102
RTVSPost2010Prop54
  1
strokes_ogs.tif
102
RTVSPost2010PropOp54
 70
     0
102
RTVSPost2010Prop55
280
     0
102
RTVSPost2010PropOp55
 70
     1
102
RTVSPost2010Prop56
140
1.0
102
RTVSPost2010PropOp56
 70
     0
102
RTVSPost2010Prop57
140
1.0
102
RTVSPost2010PropOp57
 70
     0
102
RTVSPropertyOp0
 70
     0
102
RTVSPropertyOp1
 70
     0
102
RTVSPropertyOp2
 70
     0
102
RTVSPropertyOp3
 70
     0
102
RTVSPropertyOp4
 70
     0
102
RTVSPropertyOp5
 70
     0
102
RTVSPropertyOp6
 70
     0
102
RTVSPropertyOp7
 70
     0
102
RTVSPropertyOp8
 70
     0
102
RTVSPropertyOp9
 70
     0
102
RTVSPropertyOp10
 70
     0
102
RTVSPropertyOp11
 70
     0
102
RTVSPropertyOp12
 70
     0
102
RTVSPropertyOp13
 70
     0
102
RTVSPropertyOp14
 70
     2
102
RTVSPropertyOp15
 70
     0
102
RTVSPropertyOp16
 70
     0
102
RTVSPropertyOp17
 70
     0
102
RTVSPropertyOp18
 70
     0
102
RTVSPropertyOp19
 70
     0
102
RTVSPropertyOp20
 70
     0
102
RTVSPropertyOp21
 70
     0
102
RTVSPropertyOp22
 70
     0
102
RTVSPropertyOp23
 70
     0
102
RTVSPropertyOp24
 70
     0
102
RTVSPropertyOp25
 70
     0
102
RTVSPropertyOp26
 70
     0
102
RTVSPropertyOp27
 70
     0
102
RTVSPropertyOp28
 70
     1
102
RTVSPropertyOp29
 70
     1
102
RTVSPropertyOp30
 70
     1
102
RTVSPropertyOp31
 70
     1
102
RTVSPropertyOp32
 70
     1
102
RTVSPropertyOp33
 70
     1
102
RTVSPropertyOp34
 70
     1
102
RTVSPropertyOp35
 70
     1
102
RTVSPropertyOp36
 70
     1
102
RTVSPropertyOp37
 70
     0
102
RTVSPropertyOp38
 70
     0
102
RTVSPropertyOp39
 70
     0
102
RTVSPropertyOp40
 70
     0
102
RTVSPropertyOp41
 70
     0
102
RTVSPropertyOp42
 70
     0
102
RTVSPropertyOp43
 70
     0
102
RTVSPropertyOp44
 70
     0
102
RTVSPropertyOp45
 70
     1
102
RTVSPropertyOp46
 70
     0
102
RTVSPropertyOp47
 70
     0
102
RTVSPropertyOp48
 70
     0
102
RTVSPropertyOp49
 70
     1
102
RTVSPropertyOp50
 70
     0
102
RTVSPropertyOp51
 70
     0
102
RTVSPropertyOp52
 70
     0
102
RTVSPropertyOp53
 70
     0
102
RTVSPropertyOp54
 70
     0
102
RTVSPropertyOp55
 70
     1
102
RTVSPropertyOp56
 70
     0
102
RTVSPropertyOp57
 70
     0
102
RTVSPropertyOp58
 70
     0
102
RTVSPropertyOp59
 70
     0
102
RTVSPropertyOp60
 70
     0
102
RTVSPropertyOp61
 70
     0
102
RTVSPropertyOp62
 70
     0
  0
XRECORD
  5
550
102
{ACAD_REACTORS
330
54F
102
}
330
54F
100
AcDbXrecord
280
     1
102
RTVSPost2010Prop28
280
     0
102
RTVSPost2010PropOp28
 70
     1
102
RTVSPost2010Prop29
280
     1
102
RTVSPost2010PropOp29
 70
     1
102
RTVSPost2010Prop30
280
     1
102
RTVSPost2010PropOp30
 70
     1
102
RTVSPost2010Prop31
280
     0
102
RTVSPost2010PropOp31
 70
     1
102
RTVSPost2010Prop32
280
     0
102
RTVSPost2010PropOp32
 70
     1
102
RTVSPost2010Prop33
280
     0
102
RTVSPost2010PropOp33
 70
     1
102
RTVSPost2010Prop34
280
     0
102
RTVSPost2010PropOp34
 70
     1
102
RTVSPost2010Prop35
280
     0
102
RTVSPost2010PropOp35
 70
     1
102
RTVSPost2010Prop36
280
     0
102
RTVSPost2010PropOp36
 70
     1
102
RTVSPost2010Prop37
 90
       50
102
RTVSPost2010PropOp37
 70
     1
102
RTVSPost2010Prop38
140
0.0
102
RTVSPost2010PropOp38
 70
     1
102
RTVSPost2010Prop39
140
1.0
102
RTVSPost2010PropOp39
 70
     1
102
RTVSPost2010Prop40
 90
        0
102
RTVSPost2010PropOp40
 70
     1
102
RTVSPost2010Prop41ColorIndex
 90
       18
102
RTVSPost2010Prop41ColorRGB
 90
        0
102
RTVSPost2010PropOp41
 70
     1
102
RTVSPost2010Prop42
 90
       50
102
RTVSPost2010PropOp42
 70
     1
102
RTVSPost2010Prop43
 90
        3
102
RTVSPost2010PropOp43
 70
     1
102
RTVSPost2010Prop44ColorIndex
 90
        5
102
RTVSPost2010Prop44ColorRGB
 90
      255
102
RTVSPost2010PropOp44
 70
     1
102
RTVSPost2010Prop45
280
     0
102
RTVSPost2010PropOp45
 70
     1
102
RTVSPost2010Prop46
 90
       50
102
RTVSPost2010PropOp46
 70
     1
102
RTVSPost2010Prop47
 90
       50
102
RTVSPost2010PropOp47
 70
     1
102
RTVSPost2010Prop48
 90
       50
102
RTVSPost2010PropOp48
 70
     1
102
RTVSPost2010Prop49
280
     0
102
RTVSPost2010PropOp49
 70
     1
102
RTVSPost2010Prop50
 90
       50
102
RTVSPost2010PropOp50
 70
     1
102
RTVSPost2010Prop51ColorIndex
 90
      256
102
RTVSPost2010Prop51ColorRGB
 90
-16777216
102
RTVSPost2010PropOp51
 70
     0
102
RTVSPost2010Prop52
140
1.0
102
RTVSPost2010PropOp52
 70
     0
102
RTVSPost2010Prop53
 90
        2
102
RTVSPost2010PropOp53
 70
     1
102
RTVSPost2010Prop54
  1
strokes_ogs.tif
102
RTVSPost2010PropOp54
 70
     1
102
RTVSPost2010Prop55
280
     0
102
RTVSPost2010PropOp55
 70
     1
102
RTVSPost2010Prop56
140
1.0
102
RTVSPost2010PropOp56
 70
     1
102
RTVSPost2010Prop57
140
1.0
102
RTVSPost2010PropOp57
 70
     1
102
RTVSPropertyOp0
 70
     1
102
RTVSPropertyOp1
 70
     1
102
RTVSPropertyOp2
 70
     1
102
RTVSPropertyOp3
 70
     1
102
RTVSPropertyOp4
 70
     1
102
RTVSPropertyOp5
 70
     1
102
RTVSPropertyOp6
 70
     1
102
RTVSPropertyOp7
 70
     1
102
RTVSPropertyOp8
 70
     1
102
RTVSPropertyOp9
 70
     1
102
RTVSPropertyOp10
 70
     1
102
RTVSPropertyOp11
 70
     1
102
RTVSPropertyOp12
 70
     1
102
RTVSPropertyOp13
 70
     1
102
RTVSPropertyOp14
 70
     1
102
RTVSPropertyOp15
 70
     1
102
RTVSPropertyOp16
 70
     1
102
RTVSPropertyOp17
 70
     1
102
RTVSPropertyOp18
 70
     1
102
RTVSPropertyOp19
 70
     1
102
RTVSPropertyOp20
 70
     1
102
RTVSPropertyOp21
 70
     1
102
RTVSPropertyOp22
 70
     1
102
RTVSPropertyOp23
 70
     1
102
RTVSPropertyOp24
 70
     1
102
RTVSPropertyOp25
 70
     1
102
RTVSPropertyOp26
 70
     1
102
RTVSPropertyOp27
 70
     1
102
RTVSPropertyOp28
 70
     1
102
RTVSPropertyOp29
 70
     1
102
RTVSPropertyOp30
 70
     1
102
RTVSPropertyOp31
 70
     1
102
RTVSPropertyOp32
 70
     1
102
RTVSPropertyOp33
 70
     1
102
RTVSPropertyOp34
 70
     1
102
RTVSPropertyOp35
 70
     1
102
RTVSPropertyOp36
 70
     1
102
RTVSPropertyOp37
 70
     1
102
RTVSPropertyOp38
 70
     1
102
RTVSPropertyOp39
 70
     1
102
RTVSPropertyOp40
 70
     1
102
RTVSPropertyOp41
 70
     1
102
RTVSPropertyOp42
 70
     1
102
RTVSPropertyOp43
 70
     1
102
RTVSPropertyOp44
 70
     1
102
RTVSPropertyOp45
 70
     1
102
RTVSPropertyOp46
 70
     1
102
RTVSPropertyOp47
 70
     1
102
RTVSPropertyOp48
 70
     1
102
RTVSPropertyOp49
 70
     1
102
RTVSPropertyOp50
 70
     1
102
RTVSPropertyOp51
 70
     0
102
RTVSPropertyOp52
 70
     0
102
RTVSPropertyOp53
 70
     1
102
RTVSPropertyOp54
 70
     1
102
RTVSPropertyOp55
 70
     1
102
RTVSPropertyOp56
 70
     1
102
RTVSPropertyOp57
 70
     1
102
RTVSPropertyOp58
 70
     1
102
RTVSPropertyOp59
 70
     1
102
RTVSPropertyOp60
 70
     1
102
RTVSPropertyOp61
 70
     1
102
RTVSPropertyOp62
 70
     1
  0
XRECORD
  5
562
102
{ACAD_REACTORS
330
561
102
}
330
561
100
AcDbXrecord
280
     1
102
RTVSPost2010Prop28
280
     0
102
RTVSPost2010PropOp28
 70
     1
102
RTVSPost2010Prop29
280
     1
102
RTVSPost2010PropOp29
 70
     1
102
RTVSPost2010Prop30
280
     1
102
RTVSPost2010PropOp30
 70
     1
102
RTVSPost2010Prop31
280
     0
102
RTVSPost2010PropOp31
 70
     1
102
RTVSPost2010Prop32
280
     0
102
RTVSPost2010PropOp32
 70
     1
102
RTVSPost2010Prop33
280
     0
102
RTVSPost2010PropOp33
 70
     1
102
RTVSPost2010Prop34
280
     0
102
RTVSPost2010PropOp34
 70
     1
102
RTVSPost2010Prop35
280
     0
102
RTVSPost2010PropOp35
 70
     1
102
RTVSPost2010Prop36
280
     0
102
RTVSPost2010PropOp36
 70
     1
102
RTVSPost2010Prop37
 90
       50
102
RTVSPost2010PropOp37
 70
     0
102
RTVSPost2010Prop38
140
0.0
102
RTVSPost2010PropOp38
 70
     0
102
RTVSPost2010Prop39
140
1.0
102
RTVSPost2010PropOp39
 70
     0
102
RTVSPost2010Prop40
 90
        0
102
RTVSPost2010PropOp40
 70
     0
102
RTVSPost2010Prop41ColorIndex
 90
       18
102
RTVSPost2010Prop41ColorRGB
 90
        0
102
RTVSPost2010PropOp41
 70
     0
102
RTVSPost2010Prop42
 90
       50
102
RTVSPost2010PropOp42
 70
     0
102
RTVSPost2010Prop43
 90
        3
102
RTVSPost2010PropOp43
 70
     0
102
RTVSPost2010Prop44ColorIndex
 90
        5
102
RTVSPost2010Prop44ColorRGB
 90
      255
102
RTVSPost2010PropOp44
 70
     0
102
RTVSPost2010Prop45
280
     0
102
RTVSPost2010PropOp45
 70
     1
102
RTVSPost2010Prop46
 90
       50
102
RTVSPost2010PropOp46
 70
     0
102
RTVSPost2010Prop47
 90
       50
102
RTVSPost2010PropOp47
 70
     0
102
RTVSPost2010Prop48
 90
       50
102
RTVSPost2010PropOp48
 70
     0
102
RTVSPost2010Prop49
280
     0
102
RTVSPost2010PropOp49
 70
     1
102
RTVSPost2010Prop50
 90
       50
102
RTVSPost2010PropOp50
 70
     0
102
RTVSPost2010Prop51ColorIndex
 90
      256
102
RTVSPost2010Prop51ColorRGB
 90
-16777216
102
RTVSPost2010PropOp51
 70
     0
102
RTVSPost2010Prop52
140
1.0
102
RTVSPost2010PropOp52
 70
     0
102
RTVSPost2010Prop53
 90
        2
102
RTVSPost2010PropOp53
 70
     0
102
RTVSPost2010Prop54
  1
strokes_ogs.tif
102
RTVSPost2010PropOp54
 70
     0
102
RTVSPost2010Prop55
280
     0
102
RTVSPost2010PropOp55
 70
     1
102
RTVSPost2010Prop56
140
1.0
102
RTVSPost2010PropOp56
 70
     0
102
RTVSPost2010Prop57
140
1.0
102
RTVSPost2010PropOp57
 70
     0
102
RTVSPropertyOp0
 70
     0
102
RTVSPropertyOp1
 70
     0
102
RTVSPropertyOp2
 70
     0
102
RTVSPropertyOp3
 70
     0
102
RTVSPropertyOp4
 70
     0
102
RTVSPropertyOp5
 70
     0
102
RTVSPropertyOp6
 70
     0
102
RTVSPropertyOp7
 70
     0
102
RTVSPropertyOp8
 70
     0
102
RTVSPropertyOp9
 70
     0
102
RTVSPropertyOp10
 70
     0
102
RTVSPropertyOp11
 70
     0
102
RTVSPropertyOp12
 70
     0
102
RTVSPropertyOp13
 70
     0
102
RTVSPropertyOp14
 70
     2
102
RTVSPropertyOp15
 70
     0
102
RTVSPropertyOp16
 70
     0
102
RTVSPropertyOp17
 70
     0
102
RTVSPropertyOp18
 70
     0
102
RTVSPropertyOp19
 70
     0
102
RTVSPropertyOp20
 70
     0
102
RTVSPropertyOp21
 70
     0
102
RTVSPropertyOp22
 70
     0
102
RTVSPropertyOp23
 70
     0
102
RTVSPropertyOp24
 70
     0
102
RTVSPropertyOp25
 70
     0
102
RTVSPropertyOp26
 70
     0
102
RTVSPropertyOp27
 70
     0
102
RTVSPropertyOp28
 70
     1
102
RTVSPropertyOp29
 70
     1
102
RTVSPropertyOp30
 70
     1
102
RTVSPropertyOp31
 70
     1
102
RTVSPropertyOp32
 70
     1
102
RTVSPropertyOp33
 70
     1
102
RTVSPropertyOp34
 70
     1
102
RTVSPropertyOp35
 70
     1
102
RTVSPropertyOp36
 70
     1
102
RTVSPropertyOp37
 70
     0
102
RTVSPropertyOp38
 70
     0
102
RTVSPropertyOp39
 70
     0
102
RTVSPropertyOp40
 70
     0
102
RTVSPropertyOp41
 70
     0
102
RTVSPropertyOp42
 70
     0
102
RTVSPropertyOp43
 70
     0
102
RTVSPropertyOp44
 70
     0
102
RTVSPropertyOp45
 70
     1
102
RTVSPropertyOp46
 70
     0
102
RTVSPropertyOp47
 70
     0
102
RTVSPropertyOp48
 70
     0
102
RTVSPropertyOp49
 70
     1
102
RTVSPropertyOp50
 70
     0
102
RTVSPropertyOp51
 70
     0
102
RTVSPropertyOp52
 70
     0
102
RTVSPropertyOp53
 70
     0
102
RTVSPropertyOp54
 70
     0
102
RTVSPropertyOp55
 70
     1
102
RTVSPropertyOp56
 70
     0
102
RTVSPropertyOp57
 70
     0
102
RTVSPropertyOp58
 70
     0
102
RTVSPropertyOp59
 70
     0
102
RTVSPropertyOp60
 70
     0
102
RTVSPropertyOp61
 70
     0
102
RTVSPropertyOp62
 70
     0
  0
XRECORD
  5
548
102
{ACAD_REACTORS
330
547
102
}
330
547
100
AcDbXrecord
280
     1
102
RTVSPost2010Prop28
280
     0
102
RTVSPost2010PropOp28
 70
     1
102
RTVSPost2010Prop29
280
     1
102
RTVSPost2010PropOp29
 70
     1
102
RTVSPost2010Prop30
280
     1
102
RTVSPost2010PropOp30
 70
     1
102
RTVSPost2010Prop31
280
     0
102
RTVSPost2010PropOp31
 70
     1
102
RTVSPost2010Prop32
280
     0
102
RTVSPost2010PropOp32
 70
     1
102
RTVSPost2010Prop33
280
     0
102
RTVSPost2010PropOp33
 70
     1
102
RTVSPost2010Prop34
280
     0
102
RTVSPost2010PropOp34
 70
     1
102
RTVSPost2010Prop35
280
     0
102
RTVSPost2010PropOp35
 70
     1
102
RTVSPost2010Prop36
280
     0
102
RTVSPost2010PropOp36
 70
     1
102
RTVSPost2010Prop37
 90
       50
102
RTVSPost2010PropOp37
 70
     1
102
RTVSPost2010Prop38
140
0.0
102
RTVSPost2010PropOp38
 70
     1
102
RTVSPost2010Prop39
140
1.0
102
RTVSPost2010PropOp39
 70
     1
102
RTVSPost2010Prop40
 90
        0
102
RTVSPost2010PropOp40
 70
     1
102
RTVSPost2010Prop41ColorIndex
 90
       18
102
RTVSPost2010Prop41ColorRGB
 90
        0
102
RTVSPost2010PropOp41
 70
     1
102
RTVSPost2010Prop42
 90
       50
102
RTVSPost2010PropOp42
 70
     1
102
RTVSPost2010Prop43
 90
        3
102
RTVSPost2010PropOp43
 70
     1
102
RTVSPost2010Prop44ColorIndex
 90
        5
102
RTVSPost2010Prop44ColorRGB
 90
      255
102
RTVSPost2010PropOp44
 70
     1
102
RTVSPost2010Prop45
280
     0
102
RTVSPost2010PropOp45
 70
     1
102
RTVSPost2010Prop46
 90
       50
102
RTVSPost2010PropOp46
 70
     1
102
RTVSPost2010Prop47
 90
       50
102
RTVSPost2010PropOp47
 70
     1
102
RTVSPost2010Prop48
 90
       50
102
RTVSPost2010PropOp48
 70
     1
102
RTVSPost2010Prop49
280
     0
102
RTVSPost2010PropOp49
 70
     1
102
RTVSPost2010Prop50
 90
       50
102
RTVSPost2010PropOp50
 70
     1
102
RTVSPost2010Prop51ColorIndex
 90
      256
102
RTVSPost2010Prop51ColorRGB
 90
-16777216
102
RTVSPost2010PropOp51
 70
     0
102
RTVSPost2010Prop52
140
1.0
102
RTVSPost2010PropOp52
 70
     0
102
RTVSPost2010Prop53
 90
        2
102
RTVSPost2010PropOp53
 70
     1
102
RTVSPost2010Prop54
  1
strokes_ogs.tif
102
RTVSPost2010PropOp54
 70
     1
102
RTVSPost2010Prop55
280
     0
102
RTVSPost2010PropOp55
 70
     1
102
RTVSPost2010Prop56
140
1.0
102
RTVSPost2010PropOp56
 70
     1
102
RTVSPost2010Prop57
140
1.0
102
RTVSPost2010PropOp57
 70
     1
102
RTVSPropertyOp0
 70
     1
102
RTVSPropertyOp1
 70
     1
102
RTVSPropertyOp2
 70
     1
102
RTVSPropertyOp3
 70
     1
102
RTVSPropertyOp4
 70
     1
102
RTVSPropertyOp5
 70
     1
102
RTVSPropertyOp6
 70
     1
102
RTVSPropertyOp7
 70
     1
102
RTVSPropertyOp8
 70
     1
102
RTVSPropertyOp9
 70
     1
102
RTVSPropertyOp10
 70
     1
102
RTVSPropertyOp11
 70
     1
102
RTVSPropertyOp12
 70
     1
102
RTVSPropertyOp13
 70
     1
102
RTVSPropertyOp14
 70
     1
102
RTVSPropertyOp15
 70
     1
102
RTVSPropertyOp16
 70
     1
102
RTVSPropertyOp17
 70
     1
102
RTVSPropertyOp18
 70
     1
102
RTVSPropertyOp19
 70
     1
102
RTVSPropertyOp20
 70
     1
102
RTVSPropertyOp21
 70
     1
102
RTVSPropertyOp22
 70
     1
102
RTVSPropertyOp23
 70
     1
102
RTVSPropertyOp24
 70
     1
102
RTVSPropertyOp25
 70
     1
102
RTVSPropertyOp26
 70
     1
102
RTVSPropertyOp27
 70
     1
102
RTVSPropertyOp28
 70
     1
102
RTVSPropertyOp29
 70
     1
102
RTVSPropertyOp30
 70
     1
102
RTVSPropertyOp31
 70
     1
102
RTVSPropertyOp32
 70
     1
102
RTVSPropertyOp33
 70
     1
102
RTVSPropertyOp34
 70
     1
102
RTVSPropertyOp35
 70
     1
102
RTVSPropertyOp36
 70
     1
102
RTVSPropertyOp37
 70
     1
102
RTVSPropertyOp38
 70
     1
102
RTVSPropertyOp39
 70
     1
102
RTVSPropertyOp40
 70
     1
102
RTVSPropertyOp41
 70
     1
102
RTVSPropertyOp42
 70
     1
102
RTVSPropertyOp43
 70
     1
102
RTVSPropertyOp44
 70
     1
102
RTVSPropertyOp45
 70
     1
102
RTVSPropertyOp46
 70
     1
102
RTVSPropertyOp47
 70
     1
102
RTVSPropertyOp48
 70
     1
102
RTVSPropertyOp49
 70
     1
102
RTVSPropertyOp50
 70
     1
102
RTVSPropertyOp51
 70
     0
102
RTVSPropertyOp52
 70
     0
102
RTVSPropertyOp53
 70
     1
102
RTVSPropertyOp54
 70
     1
102
RTVSPropertyOp55
 70
     1
102
RTVSPropertyOp56
 70
     1
102
RTVSPropertyOp57
 70
     1
102
RTVSPropertyOp58
 70
     1
102
RTVSPropertyOp59
 70
     1
102
RTVSPropertyOp60
 70
     1
102
RTVSPropertyOp61
 70
     1
102
RTVSPropertyOp62
 70
     1
  0
XRECORD
  5
55E
102
{ACAD_REACTORS
330
55D
102
}
330
55D
100
AcDbXrecord
280
     1
102
RTVSPost2010Prop28
280
     0
102
RTVSPost2010PropOp28
 70
     1
102
RTVSPost2010Prop29
280
     1
102
RTVSPost2010PropOp29
 70
     1
102
RTVSPost2010Prop30
280
     1
102
RTVSPost2010PropOp30
 70
     1
102
RTVSPost2010Prop31
280
     0
102
RTVSPost2010PropOp31
 70
     1
102
RTVSPost2010Prop32
280
     0
102
RTVSPost2010PropOp32
 70
     1
102
RTVSPost2010Prop33
280
     0
102
RTVSPost2010PropOp33
 70
     1
102
RTVSPost2010Prop34
280
     0
102
RTVSPost2010PropOp34
 70
     1
102
RTVSPost2010Prop35
280
     0
102
RTVSPost2010PropOp35
 70
     1
102
RTVSPost2010Prop36
280
     0
102
RTVSPost2010PropOp36
 70
     1
102
RTVSPost2010Prop37
 90
       50
102
RTVSPost2010PropOp37
 70
     1
102
RTVSPost2010Prop38
140
0.0
102
RTVSPost2010PropOp38
 70
     1
102
RTVSPost2010Prop39
140
1.0
102
RTVSPost2010PropOp39
 70
     1
102
RTVSPost2010Prop40
 90
        0
102
RTVSPost2010PropOp40
 70
     1
102
RTVSPost2010Prop41ColorIndex
 90
       18
102
RTVSPost2010Prop41ColorRGB
 90
        0
102
RTVSPost2010PropOp41
 70
     1
102
RTVSPost2010Prop42
 90
       50
102
RTVSPost2010PropOp42
 70
     1
102
RTVSPost2010Prop43
 90
        3
102
RTVSPost2010PropOp43
 70
     1
102
RTVSPost2010Prop44ColorIndex
 90
        5
102
RTVSPost2010Prop44ColorRGB
 90
      255
102
RTVSPost2010PropOp44
 70
     1
102
RTVSPost2010Prop45
280
     0
102
RTVSPost2010PropOp45
 70
     1
102
RTVSPost2010Prop46
 90
       50
102
RTVSPost2010PropOp46
 70
     1
102
RTVSPost2010Prop47
 90
       50
102
RTVSPost2010PropOp47
 70
     1
102
RTVSPost2010Prop48
 90
       50
102
RTVSPost2010PropOp48
 70
     1
102
RTVSPost2010Prop49
280
     0
102
RTVSPost2010PropOp49
 70
     1
102
RTVSPost2010Prop50
 90
       50
102
RTVSPost2010PropOp50
 70
     1
102
RTVSPost2010Prop51ColorIndex
 90
      256
102
RTVSPost2010Prop51ColorRGB
 90
-16777216
102
RTVSPost2010PropOp51
 70
     0
102
RTVSPost2010Prop52
140
1.0
102
RTVSPost2010PropOp52
 70
     0
102
RTVSPost2010Prop53
 90
        2
102
RTVSPost2010PropOp53
 70
     1
102
RTVSPost2010Prop54
  1
strokes_ogs.tif
102
RTVSPost2010PropOp54
 70
     1
102
RTVSPost2010Prop55
280
     0
102
RTVSPost2010PropOp55
 70
     1
102
RTVSPost2010Prop56
140
1.0
102
RTVSPost2010PropOp56
 70
     1
102
RTVSPost2010Prop57
140
1.0
102
RTVSPost2010PropOp57
 70
     1
102
RTVSPropertyOp0
 70
     1
102
RTVSPropertyOp1
 70
     1
102
RTVSPropertyOp2
 70
     1
102
RTVSPropertyOp3
 70
     1
102
RTVSPropertyOp4
 70
     1
102
RTVSPropertyOp5
 70
     1
102
RTVSPropertyOp6
 70
     1
102
RTVSPropertyOp7
 70
     1
102
RTVSPropertyOp8
 70
     1
102
RTVSPropertyOp9
 70
     1
102
RTVSPropertyOp10
 70
     1
102
RTVSPropertyOp11
 70
     1
102
RTVSPropertyOp12
 70
     1
102
RTVSPropertyOp13
 70
     1
102
RTVSPropertyOp14
 70
     1
102
RTVSPropertyOp15
 70
     1
102
RTVSPropertyOp16
 70
     1
102
RTVSPropertyOp17
 70
     1
102
RTVSPropertyOp18
 70
     1
102
RTVSPropertyOp19
 70
     1
102
RTVSPropertyOp20
 70
     1
102
RTVSPropertyOp21
 70
     1
102
RTVSPropertyOp22
 70
     1
102
RTVSPropertyOp23
 70
     1
102
RTVSPropertyOp24
 70
     1
102
RTVSPropertyOp25
 70
     1
102
RTVSPropertyOp26
 70
     1
102
RTVSPropertyOp27
 70
     1
102
RTVSPropertyOp28
 70
     1
102
RTVSPropertyOp29
 70
     1
102
RTVSPropertyOp30
 70
     1
102
RTVSPropertyOp31
 70
     1
102
RTVSPropertyOp32
 70
     1
102
RTVSPropertyOp33
 70
     1
102
RTVSPropertyOp34
 70
     1
102
RTVSPropertyOp35
 70
     1
102
RTVSPropertyOp36
 70
     1
102
RTVSPropertyOp37
 70
     1
102
RTVSPropertyOp38
 70
     1
102
RTVSPropertyOp39
 70
     1
102
RTVSPropertyOp40
 70
     1
102
RTVSPropertyOp41
 70
     1
102
RTVSPropertyOp42
 70
     1
102
RTVSPropertyOp43
 70
     1
102
RTVSPropertyOp44
 70
     1
102
RTVSPropertyOp45
 70
     1
102
RTVSPropertyOp46
 70
     1
102
RTVSPropertyOp47
 70
     1
102
RTVSPropertyOp48
 70
     1
102
RTVSPropertyOp49
 70
     1
102
RTVSPropertyOp50
 70
     1
102
RTVSPropertyOp51
 70
     0
102
RTVSPropertyOp52
 70
     0
102
RTVSPropertyOp53
 70
     1
102
RTVSPropertyOp54
 70
     1
102
RTVSPropertyOp55
 70
     1
102
RTVSPropertyOp56
 70
     1
102
RTVSPropertyOp57
 70
     1
102
RTVSPropertyOp58
 70
     1
102
RTVSPropertyOp59
 70
     1
102
RTVSPropertyOp60
 70
     1
102
RTVSPropertyOp61
 70
     1
102
RTVSPropertyOp62
 70
     1
  0
XRECORD
  5
55C
102
{ACAD_REACTORS
330
55B
102
}
330
55B
100
AcDbXrecord
280
     1
102
RTVSPost2010Prop28
280
     0
102
RTVSPost2010PropOp28
 70
     1
102
RTVSPost2010Prop29
280
     1
102
RTVSPost2010PropOp29
 70
     1
102
RTVSPost2010Prop30
280
     1
102
RTVSPost2010PropOp30
 70
     1
102
RTVSPost2010Prop31
280
     0
102
RTVSPost2010PropOp31
 70
     1
102
RTVSPost2010Prop32
280
     0
102
RTVSPost2010PropOp32
 70
     1
102
RTVSPost2010Prop33
280
     0
102
RTVSPost2010PropOp33
 70
     1
102
RTVSPost2010Prop34
280
     0
102
RTVSPost2010PropOp34
 70
     1
102
RTVSPost2010Prop35
280
     0
102
RTVSPost2010PropOp35
 70
     1
102
RTVSPost2010Prop36
280
     0
102
RTVSPost2010PropOp36
 70
     1
102
RTVSPost2010Prop37
 90
       50
102
RTVSPost2010PropOp37
 70
     1
102
RTVSPost2010Prop38
140
0.0
102
RTVSPost2010PropOp38
 70
     1
102
RTVSPost2010Prop39
140
1.0
102
RTVSPost2010PropOp39
 70
     1
102
RTVSPost2010Prop40
 90
        0
102
RTVSPost2010PropOp40
 70
     1
102
RTVSPost2010Prop41ColorIndex
 90
       18
102
RTVSPost2010Prop41ColorRGB
 90
        0
102
RTVSPost2010PropOp41
 70
     1
102
RTVSPost2010Prop42
 90
       50
102
RTVSPost2010PropOp42
 70
     1
102
RTVSPost2010Prop43
 90
        3
102
RTVSPost2010PropOp43
 70
     1
102
RTVSPost2010Prop44ColorIndex
 90
        5
102
RTVSPost2010Prop44ColorRGB
 90
      255
102
RTVSPost2010PropOp44
 70
     1
102
RTVSPost2010Prop45
280
     0
102
RTVSPost2010PropOp45
 70
     1
102
RTVSPost2010Prop46
 90
       50
102
RTVSPost2010PropOp46
 70
     1
102
RTVSPost2010Prop47
 90
       50
102
RTVSPost2010PropOp47
 70
     1
102
RTVSPost2010Prop48
 90
       50
102
RTVSPost2010PropOp48
 70
     1
102
RTVSPost2010Prop49
280
     0
102
RTVSPost2010PropOp49
 70
     1
102
RTVSPost2010Prop50
 90
       50
102
RTVSPost2010PropOp50
 70
     1
102
RTVSPost2010Prop51ColorIndex
 90
      256
102
RTVSPost2010Prop51ColorRGB
 90
-16777216
102
RTVSPost2010PropOp51
 70
     0
102
RTVSPost2010Prop52
140
1.0
102
RTVSPost2010PropOp52
 70
     0
102
RTVSPost2010Prop53
 90
        2
102
RTVSPost2010PropOp53
 70
     1
102
RTVSPost2010Prop54
  1
strokes_ogs.tif
102
RTVSPost2010PropOp54
 70
     1
102
RTVSPost2010Prop55
280
     0
102
RTVSPost2010PropOp55
 70
     1
102
RTVSPost2010Prop56
140
1.0
102
RTVSPost2010PropOp56
 70
     1
102
RTVSPost2010Prop57
140
1.0
102
RTVSPost2010PropOp57
 70
     1
102
RTVSPropertyOp0
 70
     1
102
RTVSPropertyOp1
 70
     1
102
RTVSPropertyOp2
 70
     1
102
RTVSPropertyOp3
 70
     1
102
RTVSPropertyOp4
 70
     1
102
RTVSPropertyOp5
 70
     1
102
RTVSPropertyOp6
 70
     1
102
RTVSPropertyOp7
 70
     1
102
RTVSPropertyOp8
 70
     1
102
RTVSPropertyOp9
 70
     1
102
RTVSPropertyOp10
 70
     1
102
RTVSPropertyOp11
 70
     1
102
RTVSPropertyOp12
 70
     1
102
RTVSPropertyOp13
 70
     1
102
RTVSPropertyOp14
 70
     1
102
RTVSPropertyOp15
 70
     1
102
RTVSPropertyOp16
 70
     1
102
RTVSPropertyOp17
 70
     1
102
RTVSPropertyOp18
 70
     1
102
RTVSPropertyOp19
 70
     1
102
RTVSPropertyOp20
 70
     1
102
RTVSPropertyOp21
 70
     1
102
RTVSPropertyOp22
 70
     1
102
RTVSPropertyOp23
 70
     1
102
RTVSPropertyOp24
 70
     1
102
RTVSPropertyOp25
 70
     1
102
RTVSPropertyOp26
 70
     1
102
RTVSPropertyOp27
 70
     1
102
RTVSPropertyOp28
 70
     1
102
RTVSPropertyOp29
 70
     1
102
RTVSPropertyOp30
 70
     1
102
RTVSPropertyOp31
 70
     1
102
RTVSPropertyOp32
 70
     1
102
RTVSPropertyOp33
 70
     1
102
RTVSPropertyOp34
 70
     1
102
RTVSPropertyOp35
 70
     1
102
RTVSPropertyOp36
 70
     1
102
RTVSPropertyOp37
 70
     1
102
RTVSPropertyOp38
 70
     1
102
RTVSPropertyOp39
 70
     1
102
RTVSPropertyOp40
 70
     1
102
RTVSPropertyOp41
 70
     1
102
RTVSPropertyOp42
 70
     1
102
RTVSPropertyOp43
 70
     1
102
RTVSPropertyOp44
 70
     1
102
RTVSPropertyOp45
 70
     1
102
RTVSPropertyOp46
 70
     1
102
RTVSPropertyOp47
 70
     1
102
RTVSPropertyOp48
 70
     1
102
RTVSPropertyOp49
 70
     1
102
RTVSPropertyOp50
 70
     1
102
RTVSPropertyOp51
 70
     0
102
RTVSPropertyOp52
 70
     0
102
RTVSPropertyOp53
 70
     1
102
RTVSPropertyOp54
 70
     1
102
RTVSPropertyOp55
 70
     1
102
RTVSPropertyOp56
 70
     1
102
RTVSPropertyOp57
 70
     1
102
RTVSPropertyOp58
 70
     1
102
RTVSPropertyOp59
 70
     1
102
RTVSPropertyOp60
 70
     1
102
RTVSPropertyOp61
 70
     1
102
RTVSPropertyOp62
 70
     1
  0
XRECORD
  5
556
102
{ACAD_REACTORS
330
555
102
}
330
555
100
AcDbXrecord
280
     1
102
RTVSPost2010Prop28
280
     0
102
RTVSPost2010PropOp28
 70
     1
102
RTVSPost2010Prop29
280
     1
102
RTVSPost2010PropOp29
 70
     1
102
RTVSPost2010Prop30
280
     1
102
RTVSPost2010PropOp30
 70
     1
102
RTVSPost2010Prop31
280
     0
102
RTVSPost2010PropOp31
 70
     1
102
RTVSPost2010Prop32
280
     0
102
RTVSPost2010PropOp32
 70
     1
102
RTVSPost2010Prop33
280
     0
102
RTVSPost2010PropOp33
 70
     1
102
RTVSPost2010Prop34
280
     0
102
RTVSPost2010PropOp34
 70
     1
102
RTVSPost2010Prop35
280
     0
102
RTVSPost2010PropOp35
 70
     1
102
RTVSPost2010Prop36
280
     0
102
RTVSPost2010PropOp36
 70
     1
102
RTVSPost2010Prop37
 90
       50
102
RTVSPost2010PropOp37
 70
     1
102
RTVSPost2010Prop38
140
0.0
102
RTVSPost2010PropOp38
 70
     1
102
RTVSPost2010Prop39
140
1.0
102
RTVSPost2010PropOp39
 70
     1
102
RTVSPost2010Prop40
 90
        0
102
RTVSPost2010PropOp40
 70
     1
102
RTVSPost2010Prop41ColorIndex
 90
       18
102
RTVSPost2010Prop41ColorRGB
 90
        0
102
RTVSPost2010PropOp41
 70
     1
102
RTVSPost2010Prop42
 90
       50
102
RTVSPost2010PropOp42
 70
     1
102
RTVSPost2010Prop43
 90
        3
102
RTVSPost2010PropOp43
 70
     1
102
RTVSPost2010Prop44ColorIndex
 90
        5
102
RTVSPost2010Prop44ColorRGB
 90
      255
102
RTVSPost2010PropOp44
 70
     1
102
RTVSPost2010Prop45
280
     0
102
RTVSPost2010PropOp45
 70
     1
102
RTVSPost2010Prop46
 90
       50
102
RTVSPost2010PropOp46
 70
     1
102
RTVSPost2010Prop47
 90
       50
102
RTVSPost2010PropOp47
 70
     1
102
RTVSPost2010Prop48
 90
       50
102
RTVSPost2010PropOp48
 70
     1
102
RTVSPost2010Prop49
280
     0
102
RTVSPost2010PropOp49
 70
     1
102
RTVSPost2010Prop50
 90
       50
102
RTVSPost2010PropOp50
 70
     1
102
RTVSPost2010Prop51ColorIndex
 90
      256
102
RTVSPost2010Prop51ColorRGB
 90
-16777216
102
RTVSPost2010PropOp51
 70
     0
102
RTVSPost2010Prop52
140
1.0
102
RTVSPost2010PropOp52
 70
     0
102
RTVSPost2010Prop53
 90
        2
102
RTVSPost2010PropOp53
 70
     1
102
RTVSPost2010Prop54
  1
strokes_ogs.tif
102
RTVSPost2010PropOp54
 70
     1
102
RTVSPost2010Prop55
280
     0
102
RTVSPost2010PropOp55
 70
     1
102
RTVSPost2010Prop56
140
1.0
102
RTVSPost2010PropOp56
 70
     1
102
RTVSPost2010Prop57
140
1.0
102
RTVSPost2010PropOp57
 70
     1
102
RTVSPropertyOp0
 70
     1
102
RTVSPropertyOp1
 70
     1
102
RTVSPropertyOp2
 70
     1
102
RTVSPropertyOp3
 70
     1
102
RTVSPropertyOp4
 70
     1
102
RTVSPropertyOp5
 70
     1
102
RTVSPropertyOp6
 70
     1
102
RTVSPropertyOp7
 70
     1
102
RTVSPropertyOp8
 70
     1
102
RTVSPropertyOp9
 70
     1
102
RTVSPropertyOp10
 70
     1
102
RTVSPropertyOp11
 70
     1
102
RTVSPropertyOp12
 70
     1
102
RTVSPropertyOp13
 70
     1
102
RTVSPropertyOp14
 70
     1
102
RTVSPropertyOp15
 70
     1
102
RTVSPropertyOp16
 70
     1
102
RTVSPropertyOp17
 70
     1
102
RTVSPropertyOp18
 70
     1
102
RTVSPropertyOp19
 70
     1
102
RTVSPropertyOp20
 70
     1
102
RTVSPropertyOp21
 70
     1
102
RTVSPropertyOp22
 70
     1
102
RTVSPropertyOp23
 70
     1
102
RTVSPropertyOp24
 70
     1
102
RTVSPropertyOp25
 70
     1
102
RTVSPropertyOp26
 70
     1
102
RTVSPropertyOp27
 70
     1
102
RTVSPropertyOp28
 70
     1
102
RTVSPropertyOp29
 70
     1
102
RTVSPropertyOp30
 70
     1
102
RTVSPropertyOp31
 70
     1
102
RTVSPropertyOp32
 70
     1
102
RTVSPropertyOp33
 70
     1
102
RTVSPropertyOp34
 70
     1
102
RTVSPropertyOp35
 70
     1
102
RTVSPropertyOp36
 70
     1
102
RTVSPropertyOp37
 70
     1
102
RTVSPropertyOp38
 70
     1
102
RTVSPropertyOp39
 70
     1
102
RTVSPropertyOp40
 70
     1
102
RTVSPropertyOp41
 70
     1
102
RTVSPropertyOp42
 70
     1
102
RTVSPropertyOp43
 70
     1
102
RTVSPropertyOp44
 70
     1
102
RTVSPropertyOp45
 70
     1
102
RTVSPropertyOp46
 70
     1
102
RTVSPropertyOp47
 70
     1
102
RTVSPropertyOp48
 70
     1
102
RTVSPropertyOp49
 70
     1
102
RTVSPropertyOp50
 70
     1
102
RTVSPropertyOp51
 70
     0
102
RTVSPropertyOp52
 70
     0
102
RTVSPropertyOp53
 70
     1
102
RTVSPropertyOp54
 70
     1
102
RTVSPropertyOp55
 70
     1
102
RTVSPropertyOp56
 70
     1
102
RTVSPropertyOp57
 70
     1
102
RTVSPropertyOp58
 70
     1
102
RTVSPropertyOp59
 70
     1
102
RTVSPropertyOp60
 70
     1
102
RTVSPropertyOp61
 70
     1
102
RTVSPropertyOp62
 70
     1
  0
XRECORD
  5
558
102
{ACAD_REACTORS
330
557
102
}
330
557
100
AcDbXrecord
280
     1
102
RTVSPost2010Prop28
280
     0
102
RTVSPost2010PropOp28
 70
     1
102
RTVSPost2010Prop29
280
     1
102
RTVSPost2010PropOp29
 70
     1
102
RTVSPost2010Prop30
280
     1
102
RTVSPost2010PropOp30
 70
     1
102
RTVSPost2010Prop31
280
     0
102
RTVSPost2010PropOp31
 70
     1
102
RTVSPost2010Prop32
280
     0
102
RTVSPost2010PropOp32
 70
     1
102
RTVSPost2010Prop33
280
     0
102
RTVSPost2010PropOp33
 70
     1
102
RTVSPost2010Prop34
280
     0
102
RTVSPost2010PropOp34
 70
     1
102
RTVSPost2010Prop35
280
     0
102
RTVSPost2010PropOp35
 70
     1
102
RTVSPost2010Prop36
280
     0
102
RTVSPost2010PropOp36
 70
     1
102
RTVSPost2010Prop37
 90
       50
102
RTVSPost2010PropOp37
 70
     1
102
RTVSPost2010Prop38
140
0.0
102
RTVSPost2010PropOp38
 70
     1
102
RTVSPost2010Prop39
140
1.0
102
RTVSPost2010PropOp39
 70
     1
102
RTVSPost2010Prop40
 90
        0
102
RTVSPost2010PropOp40
 70
     1
102
RTVSPost2010Prop41ColorIndex
 90
       18
102
RTVSPost2010Prop41ColorRGB
 90
        0
102
RTVSPost2010PropOp41
 70
     1
102
RTVSPost2010Prop42
 90
       50
102
RTVSPost2010PropOp42
 70
     1
102
RTVSPost2010Prop43
 90
        3
102
RTVSPost2010PropOp43
 70
     1
102
RTVSPost2010Prop44ColorIndex
 90
        5
102
RTVSPost2010Prop44ColorRGB
 90
      255
102
RTVSPost2010PropOp44
 70
     1
102
RTVSPost2010Prop45
280
     0
102
RTVSPost2010PropOp45
 70
     1
102
RTVSPost2010Prop46
 90
       50
102
RTVSPost2010PropOp46
 70
     1
102
RTVSPost2010Prop47
 90
       50
102
RTVSPost2010PropOp47
 70
     1
102
RTVSPost2010Prop48
 90
       50
102
RTVSPost2010PropOp48
 70
     1
102
RTVSPost2010Prop49
280
     0
102
RTVSPost2010PropOp49
 70
     1
102
RTVSPost2010Prop50
 90
       50
102
RTVSPost2010PropOp50
 70
     1
102
RTVSPost2010Prop51ColorIndex
 90
      256
102
RTVSPost2010Prop51ColorRGB
 90
-16777216
102
RTVSPost2010PropOp51
 70
     0
102
RTVSPost2010Prop52
140
1.0
102
RTVSPost2010PropOp52
 70
     0
102
RTVSPost2010Prop53
 90
        2
102
RTVSPost2010PropOp53
 70
     1
102
RTVSPost2010Prop54
  1
strokes_ogs.tif
102
RTVSPost2010PropOp54
 70
     1
102
RTVSPost2010Prop55
280
     0
102
RTVSPost2010PropOp55
 70
     1
102
RTVSPost2010Prop56
140
1.0
102
RTVSPost2010PropOp56
 70
     1
102
RTVSPost2010Prop57
140
1.0
102
RTVSPost2010PropOp57
 70
     1
102
RTVSPropertyOp0
 70
     1
102
RTVSPropertyOp1
 70
     1
102
RTVSPropertyOp2
 70
     1
102
RTVSPropertyOp3
 70
     1
102
RTVSPropertyOp4
 70
     1
102
RTVSPropertyOp5
 70
     1
102
RTVSPropertyOp6
 70
     1
102
RTVSPropertyOp7
 70
     1
102
RTVSPropertyOp8
 70
     1
102
RTVSPropertyOp9
 70
     1
102
RTVSPropertyOp10
 70
     1
102
RTVSPropertyOp11
 70
     1
102
RTVSPropertyOp12
 70
     1
102
RTVSPropertyOp13
 70
     1
102
RTVSPropertyOp14
 70
     1
102
RTVSPropertyOp15
 70
     1
102
RTVSPropertyOp16
 70
     1
102
RTVSPropertyOp17
 70
     1
102
RTVSPropertyOp18
 70
     1
102
RTVSPropertyOp19
 70
     1
102
RTVSPropertyOp20
 70
     1
102
RTVSPropertyOp21
 70
     1
102
RTVSPropertyOp22
 70
     1
102
RTVSPropertyOp23
 70
     1
102
RTVSPropertyOp24
 70
     1
102
RTVSPropertyOp25
 70
     1
102
RTVSPropertyOp26
 70
     1
102
RTVSPropertyOp27
 70
     1
102
RTVSPropertyOp28
 70
     1
102
RTVSPropertyOp29
 70
     1
102
RTVSPropertyOp30
 70
     1
102
RTVSPropertyOp31
 70
     1
102
RTVSPropertyOp32
 70
     1
102
RTVSPropertyOp33
 70
     1
102
RTVSPropertyOp34
 70
     1
102
RTVSPropertyOp35
 70
     1
102
RTVSPropertyOp36
 70
     1
102
RTVSPropertyOp37
 70
     1
102
RTVSPropertyOp38
 70
     1
102
RTVSPropertyOp39
 70
     1
102
RTVSPropertyOp40
 70
     1
102
RTVSPropertyOp41
 70
     1
102
RTVSPropertyOp42
 70
     1
102
RTVSPropertyOp43
 70
     1
102
RTVSPropertyOp44
 70
     1
102
RTVSPropertyOp45
 70
     1
102
RTVSPropertyOp46
 70
     1
102
RTVSPropertyOp47
 70
     1
102
RTVSPropertyOp48
 70
     1
102
RTVSPropertyOp49
 70
     1
102
RTVSPropertyOp50
 70
     1
102
RTVSPropertyOp51
 70
     0
102
RTVSPropertyOp52
 70
     0
102
RTVSPropertyOp53
 70
     1
102
RTVSPropertyOp54
 70
     1
102
RTVSPropertyOp55
 70
     1
102
RTVSPropertyOp56
 70
     1
102
RTVSPropertyOp57
 70
     1
102
RTVSPropertyOp58
 70
     1
102
RTVSPropertyOp59
 70
     1
102
RTVSPropertyOp60
 70
     1
102
RTVSPropertyOp61
 70
     1
102
RTVSPropertyOp62
 70
     1
  0
XRECORD
  5
54E
102
{ACAD_REACTORS
330
54D
102
}
330
54D
100
AcDbXrecord
280
     1
102
RTVSPost2010Prop28
280
     0
102
RTVSPost2010PropOp28
 70
     1
102
RTVSPost2010Prop29
280
     1
102
RTVSPost2010PropOp29
 70
     1
102
RTVSPost2010Prop30
280
     1
102
RTVSPost2010PropOp30
 70
     1
102
RTVSPost2010Prop31
280
     0
102
RTVSPost2010PropOp31
 70
     1
102
RTVSPost2010Prop32
280
     0
102
RTVSPost2010PropOp32
 70
     1
102
RTVSPost2010Prop33
280
     0
102
RTVSPost2010PropOp33
 70
     1
102
RTVSPost2010Prop34
280
     0
102
RTVSPost2010PropOp34
 70
     1
102
RTVSPost2010Prop35
280
     0
102
RTVSPost2010PropOp35
 70
     1
102
RTVSPost2010Prop36
280
     0
102
RTVSPost2010PropOp36
 70
     1
102
RTVSPost2010Prop37
 90
       50
102
RTVSPost2010PropOp37
 70
     1
102
RTVSPost2010Prop38
140
0.0
102
RTVSPost2010PropOp38
 70
     1
102
RTVSPost2010Prop39
140
1.0
102
RTVSPost2010PropOp39
 70
     1
102
RTVSPost2010Prop40
 90
        0
102
RTVSPost2010PropOp40
 70
     1
102
RTVSPost2010Prop41ColorIndex
 90
       18
102
RTVSPost2010Prop41ColorRGB
 90
        0
102
RTVSPost2010PropOp41
 70
     1
102
RTVSPost2010Prop42
 90
       50
102
RTVSPost2010PropOp42
 70
     1
102
RTVSPost2010Prop43
 90
        3
102
RTVSPost2010PropOp43
 70
     1
102
RTVSPost2010Prop44ColorIndex
 90
        5
102
RTVSPost2010Prop44ColorRGB
 90
      255
102
RTVSPost2010PropOp44
 70
     1
102
RTVSPost2010Prop45
280
     0
102
RTVSPost2010PropOp45
 70
     1
102
RTVSPost2010Prop46
 90
       50
102
RTVSPost2010PropOp46
 70
     1
102
RTVSPost2010Prop47
 90
       50
102
RTVSPost2010PropOp47
 70
     1
102
RTVSPost2010Prop48
 90
       50
102
RTVSPost2010PropOp48
 70
     1
102
RTVSPost2010Prop49
280
     0
102
RTVSPost2010PropOp49
 70
     1
102
RTVSPost2010Prop50
 90
       50
102
RTVSPost2010PropOp50
 70
     1
102
RTVSPost2010Prop51ColorIndex
 90
      256
102
RTVSPost2010Prop51ColorRGB
 90
-16777216
102
RTVSPost2010PropOp51
 70
     0
102
RTVSPost2010Prop52
140
1.0
102
RTVSPost2010PropOp52
 70
     0
102
RTVSPost2010Prop53
 90
        2
102
RTVSPost2010PropOp53
 70
     1
102
RTVSPost2010Prop54
  1
strokes_ogs.tif
102
RTVSPost2010PropOp54
 70
     1
102
RTVSPost2010Prop55
280
     0
102
RTVSPost2010PropOp55
 70
     1
102
RTVSPost2010Prop56
140
1.0
102
RTVSPost2010PropOp56
 70
     1
102
RTVSPost2010Prop57
140
1.0
102
RTVSPost2010PropOp57
 70
     1
102
RTVSPropertyOp0
 70
     1
102
RTVSPropertyOp1
 70
     1
102
RTVSPropertyOp2
 70
     1
102
RTVSPropertyOp3
 70
     1
102
RTVSPropertyOp4
 70
     1
102
RTVSPropertyOp5
 70
     1
102
RTVSPropertyOp6
 70
     1
102
RTVSPropertyOp7
 70
     1
102
RTVSPropertyOp8
 70
     1
102
RTVSPropertyOp9
 70
     1
102
RTVSPropertyOp10
 70
     1
102
RTVSPropertyOp11
 70
     1
102
RTVSPropertyOp12
 70
     1
102
RTVSPropertyOp13
 70
     1
102
RTVSPropertyOp14
 70
     1
102
RTVSPropertyOp15
 70
     1
102
RTVSPropertyOp16
 70
     1
102
RTVSPropertyOp17
 70
     1
102
RTVSPropertyOp18
 70
     1
102
RTVSPropertyOp19
 70
     1
102
RTVSPropertyOp20
 70
     1
102
RTVSPropertyOp21
 70
     1
102
RTVSPropertyOp22
 70
     1
102
RTVSPropertyOp23
 70
     1
102
RTVSPropertyOp24
 70
     1
102
RTVSPropertyOp25
 70
     1
102
RTVSPropertyOp26
 70
     1
102
RTVSPropertyOp27
 70
     1
102
RTVSPropertyOp28
 70
     1
102
RTVSPropertyOp29
 70
     1
102
RTVSPropertyOp30
 70
     1
102
RTVSPropertyOp31
 70
     1
102
RTVSPropertyOp32
 70
     1
102
RTVSPropertyOp33
 70
     1
102
RTVSPropertyOp34
 70
     1
102
RTVSPropertyOp35
 70
     1
102
RTVSPropertyOp36
 70
     1
102
RTVSPropertyOp37
 70
     1
102
RTVSPropertyOp38
 70
     1
102
RTVSPropertyOp39
 70
     1
102
RTVSPropertyOp40
 70
     1
102
RTVSPropertyOp41
 70
     1
102
RTVSPropertyOp42
 70
     1
102
RTVSPropertyOp43
 70
     1
102
RTVSPropertyOp44
 70
     1
102
RTVSPropertyOp45
 70
     1
102
RTVSPropertyOp46
 70
     1
102
RTVSPropertyOp47
 70
     1
102
RTVSPropertyOp48
 70
     1
102
RTVSPropertyOp49
 70
     1
102
RTVSPropertyOp50
 70
     1
102
RTVSPropertyOp51
 70
     0
102
RTVSPropertyOp52
 70
     0
102
RTVSPropertyOp53
 70
     1
102
RTVSPropertyOp54
 70
     1
102
RTVSPropertyOp55
 70
     1
102
RTVSPropertyOp56
 70
     1
102
RTVSPropertyOp57
 70
     1
102
RTVSPropertyOp58
 70
     1
102
RTVSPropertyOp59
 70
     1
102
RTVSPropertyOp60
 70
     1
102
RTVSPropertyOp61
 70
     1
102
RTVSPropertyOp62
 70
     1
  0
XRECORD
  5
542
102
{ACAD_REACTORS
330
541
102
}
330
541
100
AcDbXrecord
280
     1
102
RTVSPost2010Prop28
280
     0
102
RTVSPost2010PropOp28
 70
     1
102
RTVSPost2010Prop29
280
     1
102
RTVSPost2010PropOp29
 70
     1
102
RTVSPost2010Prop30
280
     1
102
RTVSPost2010PropOp30
 70
     1
102
RTVSPost2010Prop31
280
     0
102
RTVSPost2010PropOp31
 70
     1
102
RTVSPost2010Prop32
280
     0
102
RTVSPost2010PropOp32
 70
     1
102
RTVSPost2010Prop33
280
     0
102
RTVSPost2010PropOp33
 70
     1
102
RTVSPost2010Prop34
280
     0
102
RTVSPost2010PropOp34
 70
     1
102
RTVSPost2010Prop35
280
     0
102
RTVSPost2010PropOp35
 70
     1
102
RTVSPost2010Prop36
280
     0
102
RTVSPost2010PropOp36
 70
     1
102
RTVSPost2010Prop37
 90
       50
102
RTVSPost2010PropOp37
 70
     1
102
RTVSPost2010Prop38
140
0.0
102
RTVSPost2010PropOp38
 70
     1
102
RTVSPost2010Prop39
140
1.0
102
RTVSPost2010PropOp39
 70
     1
102
RTVSPost2010Prop40
 90
        0
102
RTVSPost2010PropOp40
 70
     1
102
RTVSPost2010Prop41ColorIndex
 90
       18
102
RTVSPost2010Prop41ColorRGB
 90
        0
102
RTVSPost2010PropOp41
 70
     1
102
RTVSPost2010Prop42
 90
       50
102
RTVSPost2010PropOp42
 70
     1
102
RTVSPost2010Prop43
 90
        3
102
RTVSPost2010PropOp43
 70
     1
102
RTVSPost2010Prop44ColorIndex
 90
        5
102
RTVSPost2010Prop44ColorRGB
 90
      255
102
RTVSPost2010PropOp44
 70
     1
102
RTVSPost2010Prop45
280
     0
102
RTVSPost2010PropOp45
 70
     1
102
RTVSPost2010Prop46
 90
       50
102
RTVSPost2010PropOp46
 70
     1
102
RTVSPost2010Prop47
 90
       50
102
RTVSPost2010PropOp47
 70
     1
102
RTVSPost2010Prop48
 90
       50
102
RTVSPost2010PropOp48
 70
     1
102
RTVSPost2010Prop49
280
     0
102
RTVSPost2010PropOp49
 70
     1
102
RTVSPost2010Prop50
 90
       50
102
RTVSPost2010PropOp50
 70
     1
102
RTVSPost2010Prop51ColorIndex
 90
      256
102
RTVSPost2010Prop51ColorRGB
 90
-16777216
102
RTVSPost2010PropOp51
 70
     0
102
RTVSPost2010Prop52
140
1.0
102
RTVSPost2010PropOp52
 70
     0
102
RTVSPost2010Prop53
 90
        2
102
RTVSPost2010PropOp53
 70
     1
102
RTVSPost2010Prop54
  1
strokes_ogs.tif
102
RTVSPost2010PropOp54
 70
     1
102
RTVSPost2010Prop55
280
     0
102
RTVSPost2010PropOp55
 70
     1
102
RTVSPost2010Prop56
140
1.0
102
RTVSPost2010PropOp56
 70
     1
102
RTVSPost2010Prop57
140
1.0
102
RTVSPost2010PropOp57
 70
     1
102
RTVSPropertyOp0
 70
     1
102
RTVSPropertyOp1
 70
     1
102
RTVSPropertyOp2
 70
     1
102
RTVSPropertyOp3
 70
     1
102
RTVSPropertyOp4
 70
     1
102
RTVSPropertyOp5
 70
     1
102
RTVSPropertyOp6
 70
     1
102
RTVSPropertyOp7
 70
     1
102
RTVSPropertyOp8
 70
     1
102
RTVSPropertyOp9
 70
     1
102
RTVSPropertyOp10
 70
     1
102
RTVSPropertyOp11
 70
     1
102
RTVSPropertyOp12
 70
     1
102
RTVSPropertyOp13
 70
     1
102
RTVSPropertyOp14
 70
     1
102
RTVSPropertyOp15
 70
     1
102
RTVSPropertyOp16
 70
     1
102
RTVSPropertyOp17
 70
     1
102
RTVSPropertyOp18
 70
     1
102
RTVSPropertyOp19
 70
     1
102
RTVSPropertyOp20
 70
     1
102
RTVSPropertyOp21
 70
     1
102
RTVSPropertyOp22
 70
     1
102
RTVSPropertyOp23
 70
     1
102
RTVSPropertyOp24
 70
     1
102
RTVSPropertyOp25
 70
     1
102
RTVSPropertyOp26
 70
     1
102
RTVSPropertyOp27
 70
     1
102
RTVSPropertyOp28
 70
     1
102
RTVSPropertyOp29
 70
     1
102
RTVSPropertyOp30
 70
     1
102
RTVSPropertyOp31
 70
     1
102
RTVSPropertyOp32
 70
     1
102
RTVSPropertyOp33
 70
     1
102
RTVSPropertyOp34
 70
     1
102
RTVSPropertyOp35
 70
     1
102
RTVSPropertyOp36
 70
     1
102
RTVSPropertyOp37
 70
     1
102
RTVSPropertyOp38
 70
     1
102
RTVSPropertyOp39
 70
     1
102
RTVSPropertyOp40
 70
     1
102
RTVSPropertyOp41
 70
     1
102
RTVSPropertyOp42
 70
     1
102
RTVSPropertyOp43
 70
     1
102
RTVSPropertyOp44
 70
     1
102
RTVSPropertyOp45
 70
     1
102
RTVSPropertyOp46
 70
     1
102
RTVSPropertyOp47
 70
     1
102
RTVSPropertyOp48
 70
     1
102
RTVSPropertyOp49
 70
     1
102
RTVSPropertyOp50
 70
     1
102
RTVSPropertyOp51
 70
     0
102
RTVSPropertyOp52
 70
     0
102
RTVSPropertyOp53
 70
     1
102
RTVSPropertyOp54
 70
     1
102
RTVSPropertyOp55
 70
     1
102
RTVSPropertyOp56
 70
     1
102
RTVSPropertyOp57
 70
     1
102
RTVSPropertyOp58
 70
     1
102
RTVSPropertyOp59
 70
     1
102
RTVSPropertyOp60
 70
     1
102
RTVSPropertyOp61
 70
     1
102
RTVSPropertyOp62
 70
     1
  0
XRECORD
  5
55A
102
{ACAD_REACTORS
330
559
102
}
330
559
100
AcDbXrecord
280
     1
102
RTVSPost2010Prop28
280
     0
102
RTVSPost2010PropOp28
 70
     1
102
RTVSPost2010Prop29
280
     1
102
RTVSPost2010PropOp29
 70
     1
102
RTVSPost2010Prop30
280
     1
102
RTVSPost2010PropOp30
 70
     1
102
RTVSPost2010Prop31
280
     0
102
RTVSPost2010PropOp31
 70
     1
102
RTVSPost2010Prop32
280
     0
102
RTVSPost2010PropOp32
 70
     1
102
RTVSPost2010Prop33
280
     0
102
RTVSPost2010PropOp33
 70
     1
102
RTVSPost2010Prop34
280
     0
102
RTVSPost2010PropOp34
 70
     1
102
RTVSPost2010Prop35
280
     0
102
RTVSPost2010PropOp35
 70
     1
102
RTVSPost2010Prop36
280
     0
102
RTVSPost2010PropOp36
 70
     1
102
RTVSPost2010Prop37
 90
       50
102
RTVSPost2010PropOp37
 70
     1
102
RTVSPost2010Prop38
140
0.0
102
RTVSPost2010PropOp38
 70
     1
102
RTVSPost2010Prop39
140
1.0
102
RTVSPost2010PropOp39
 70
     1
102
RTVSPost2010Prop40
 90
        0
102
RTVSPost2010PropOp40
 70
     1
102
RTVSPost2010Prop41ColorIndex
 90
       18
102
RTVSPost2010Prop41ColorRGB
 90
        0
102
RTVSPost2010PropOp41
 70
     1
102
RTVSPost2010Prop42
 90
       50
102
RTVSPost2010PropOp42
 70
     1
102
RTVSPost2010Prop43
 90
        3
102
RTVSPost2010PropOp43
 70
     1
102
RTVSPost2010Prop44ColorIndex
 90
        5
102
RTVSPost2010Prop44ColorRGB
 90
      255
102
RTVSPost2010PropOp44
 70
     1
102
RTVSPost2010Prop45
280
     0
102
RTVSPost2010PropOp45
 70
     1
102
RTVSPost2010Prop46
 90
       50
102
RTVSPost2010PropOp46
 70
     1
102
RTVSPost2010Prop47
 90
       50
102
RTVSPost2010PropOp47
 70
     1
102
RTVSPost2010Prop48
 90
       50
102
RTVSPost2010PropOp48
 70
     1
102
RTVSPost2010Prop49
280
     0
102
RTVSPost2010PropOp49
 70
     1
102
RTVSPost2010Prop50
 90
       50
102
RTVSPost2010PropOp50
 70
     1
102
RTVSPost2010Prop51ColorIndex
 90
      256
102
RTVSPost2010Prop51ColorRGB
 90
-16777216
102
RTVSPost2010PropOp51
 70
     0
102
RTVSPost2010Prop52
140
1.0
102
RTVSPost2010PropOp52
 70
     0
102
RTVSPost2010Prop53
 90
        2
102
RTVSPost2010PropOp53
 70
     1
102
RTVSPost2010Prop54
  1
strokes_ogs.tif
102
RTVSPost2010PropOp54
 70
     1
102
RTVSPost2010Prop55
280
     0
102
RTVSPost2010PropOp55
 70
     1
102
RTVSPost2010Prop56
140
1.0
102
RTVSPost2010PropOp56
 70
     1
102
RTVSPost2010Prop57
140
1.0
102
RTVSPost2010PropOp57
 70
     1
102
RTVSPropertyOp0
 70
     1
102
RTVSPropertyOp1
 70
     1
102
RTVSPropertyOp2
 70
     1
102
RTVSPropertyOp3
 70
     1
102
RTVSPropertyOp4
 70
     1
102
RTVSPropertyOp5
 70
     1
102
RTVSPropertyOp6
 70
     1
102
RTVSPropertyOp7
 70
     1
102
RTVSPropertyOp8
 70
     1
102
RTVSPropertyOp9
 70
     1
102
RTVSPropertyOp10
 70
     1
102
RTVSPropertyOp11
 70
     1
102
RTVSPropertyOp12
 70
     1
102
RTVSPropertyOp13
 70
     1
102
RTVSPropertyOp14
 70
     1
102
RTVSPropertyOp15
 70
     1
102
RTVSPropertyOp16
 70
     1
102
RTVSPropertyOp17
 70
     1
102
RTVSPropertyOp18
 70
     1
102
RTVSPropertyOp19
 70
     1
102
RTVSPropertyOp20
 70
     1
102
RTVSPropertyOp21
 70
     1
102
RTVSPropertyOp22
 70
     1
102
RTVSPropertyOp23
 70
     1
102
RTVSPropertyOp24
 70
     1
102
RTVSPropertyOp25
 70
     1
102
RTVSPropertyOp26
 70
     1
102
RTVSPropertyOp27
 70
     1
102
RTVSPropertyOp28
 70
     1
102
RTVSPropertyOp29
 70
     1
102
RTVSPropertyOp30
 70
     1
102
RTVSPropertyOp31
 70
     1
102
RTVSPropertyOp32
 70
     1
102
RTVSPropertyOp33
 70
     1
102
RTVSPropertyOp34
 70
     1
102
RTVSPropertyOp35
 70
     1
102
RTVSPropertyOp36
 70
     1
102
RTVSPropertyOp37
 70
     1
102
RTVSPropertyOp38
 70
     1
102
RTVSPropertyOp39
 70
     1
102
RTVSPropertyOp40
 70
     1
102
RTVSPropertyOp41
 70
     1
102
RTVSPropertyOp42
 70
     1
102
RTVSPropertyOp43
 70
     1
102
RTVSPropertyOp44
 70
     1
102
RTVSPropertyOp45
 70
     1
102
RTVSPropertyOp46
 70
     1
102
RTVSPropertyOp47
 70
     1
102
RTVSPropertyOp48
 70
     1
102
RTVSPropertyOp49
 70
     1
102
RTVSPropertyOp50
 70
     1
102
RTVSPropertyOp51
 70
     0
102
RTVSPropertyOp52
 70
     0
102
RTVSPropertyOp53
 70
     1
102
RTVSPropertyOp54
 70
     1
102
RTVSPropertyOp55
 70
     1
102
RTVSPropertyOp56
 70
     1
102
RTVSPropertyOp57
 70
     1
102
RTVSPropertyOp58
 70
     1
102
RTVSPropertyOp59
 70
     1
102
RTVSPropertyOp60
 70
     1
102
RTVSPropertyOp61
 70
     1
102
RTVSPropertyOp62
 70
     1
  0
ENDSEC
  0
EOF
