  0
SECTION
  2
HEADER
  9
$ACADVER
  1
AC1015
  9
$ACADMAINTVER
 70
    20
  9
$DWGCODEPAGE
  3
ANSI_1252
  9
$INSBASE
 10
0.0
 20
0.0
 30
0.0
  9
$EXTMIN
 10
-17.86953299999999
 20
-32.332876
 30
0.0
  9
$EXTMAX
 10
38.370651
 20
28.198072
 30
0.0
  9
$LIMMIN
 10
0.0
 20
0.0
  9
$LIMMAX
 10
12.0
 20
9.0
  9
$ORTHOMODE
 70
     0
  9
$REGENMODE
 70
     1
  9
$FILLMODE
 70
     1
  9
$QTEXTMODE
 70
     0
  9
$MIRRTEXT
 70
     1
  9
$LTSCALE
 40
1.0
  9
$ATTMODE
 70
     1
  9
$TEXTSIZE
 40
3.0
  9
$TRACEWID
 40
10.0
  9
$TEXTSTYLE
  7
SANDVIK_STYLE
  9
$CLAYER
  8
1
  9
$CELTYPE
  6
ByLayer
  9
$CECOLOR
 62
   256
  9
$CELTSCALE
 40
1.0
  9
$DISPSILH
 70
     0
  9
$DIMSCALE
 40
1.0
  9
$DIMASZ
 40
0.18
  9
$DIMEXO
 40
0.0625
  9
$DIMDLI
 40
0.38
  9
$DIMRND
 40
0.0
  9
$DIMDLE
 40
0.0
  9
$DIMEXE
 40
0.18
  9
$DIMTP
 40
0.0
  9
$DIMTM
 40
0.0
  9
$DIMTXT
 40
0.18
  9
$DIMCEN
 40
0.09
  9
$DIMTSZ
 40
0.0
  9
$DIMTOL
 70
     0
  9
$DIMLIM
 70
     0
  9
$DIMTIH
 70
     1
  9
$DIMTOH
 70
     1
  9
$DIMSE1
 70
     0
  9
$DIMSE2
 70
     0
  9
$DIMTAD
 70
     0
  9
$DIMZIN
 70
     0
  9
$DIMBLK
  1

  9
$DIMASO
 70
     1
  9
$DIMSHO
 70
     1
  9
$DIMPOST
  1

  9
$DIMAPOST
  1

  9
$DIMALT
 70
     0
  9
$DIMALTD
 70
     2
  9
$DIMALTF
 40
25.4
  9
$DIMLFAC
 40
1.0
  9
$DIMTOFL
 70
     0
  9
$DIMTVP
 40
0.0
  9
$DIMTIX
 70
     0
  9
$DIMSOXD
 70
     0
  9
$DIMSAH
 70
     0
  9
$DIMBLK1
  1

  9
$DIMBLK2
  1

  9
$DIMSTYLE
  2
STANDARD
  9
$DIMCLRD
 70
     0
  9
$DIMCLRE
 70
     0
  9
$DIMCLRT
 70
     0
  9
$DIMTFAC
 40
1.0
  9
$DIMGAP
 40
0.09
  9
$DIMJUST
 70
     0
  9
$DIMSD1
 70
     0
  9
$DIMSD2
 70
     0
  9
$DIMTOLJ
 70
     1
  9
$DIMTZIN
 70
     0
  9
$DIMALTZ
 70
     0
  9
$DIMALTTZ
 70
     0
  9
$DIMUPT
 70
     0
  9
$DIMDEC
 70
     4
  9
$DIMTDEC
 70
     4
  9
$DIMALTU
 70
     2
  9
$DIMALTTD
 70
     2
  9
$DIMTXSTY
  7
STANDARD
  9
$DIMAUNIT
 70
     0
  9
$DIMADEC
 70
     0
  9
$DIMALTRND
 40
0.0
  9
$DIMAZIN
 70
     0
  9
$DIMDSEP
 70
    46
  9
$DIMATFIT
 70
     3
  9
$DIMFRAC
 70
     0
  9
$DIMLDRBLK
  1

  9
$DIMLUNIT
 70
     2
  9
$DIMLWD
 70
    -2
  9
$DIMLWE
 70
    -2
  9
$DIMTMOVE
 70
     0
  9
$LUNITS
 70
     2
  9
$LUPREC
 70
     2
  9
$SKETCHINC
 40
0.0
  9
$FILLETRAD
 40
0.0
  9
$AUNITS
 70
     0
  9
$AUPREC
 70
     2
  9
$MENU
  1
acad
  9
$ELEVATION
 40
0.0
  9
$PELEVATION
 40
0.0
  9
$THICKNESS
 40
0.0
  9
$LIMCHECK
 70
     0
  9
$CHAMFERA
 40
0.0
  9
$CHAMFERB
 40
0.0
  9
$CHAMFERC
 40
0.0
  9
$CHAMFERD
 40
0.0
  9
$SKPOLY
 70
     0
  9
$TDCREATE
 40
2456818.317949167
  9
$TDUCREATE
 40
2456818.234615834
  9
$TDUPDATE
 40
2456818.317953565
  9
$TDUUPDATE
 40
2456818.234620232
  9
$TDINDWG
 40
0.0000051389
  9
$TDUSRTIMER
 40
0.0000051389
  9
$USRTIMER
 70
     1
  9
$ANGBASE
 50
0.0
  9
$ANGDIR
 70
     0
  9
$PDMODE
 70
     0
  9
$PDSIZE
 40
0.0
  9
$PLINEWID
 40
0.0
  9
$SPLFRAME
 70
     0
  9
$SPLINETYPE
 70
     6
  9
$SPLINESEGS
 70
     8
  9
$HANDSEED
  5
569
  9
$SURFTAB1
 70
     6
  9
$SURFTAB2
 70
     6
  9
$SURFTYPE
 70
     6
  9
$SURFU
 70
     6
  9
$SURFV
 70
     6
  9
$UCSBASE
  2

  9
$UCSNAME
  2

  9
$UCSORG
 10
0.0
 20
0.0
 30
0.0
  9
$UCSXDIR
 10
1.0
 20
0.0
 30
0.0
  9
$UCSYDIR
 10
0.0
 20
1.0
 30
0.0
  9
$UCSORTHOREF
  2

  9
$UCSORTHOVIEW
 70
     0
  9
$UCSORGTOP
 10
0.0
 20
0.0
 30
0.0
  9
$UCSORGBOTTOM
 10
0.0
 20
0.0
 30
0.0
  9
$UCSORGLEFT
 10
0.0
 20
0.0
 30
0.0
  9
$UCSORGRIGHT
 10
0.0
 20
0.0
 30
0.0
  9
$UCSORGFRONT
 10
0.0
 20
0.0
 30
0.0
  9
$UCSORGBACK
 10
0.0
 20
0.0
 30
0.0
  9
$PUCSBASE
  2

  9
$PUCSNAME
  2

  9
$PUCSORG
 10
0.0
 20
0.0
 30
0.0
  9
$PUCSXDIR
 10
1.0
 20
0.0
 30
0.0
  9
$PUCSYDIR
 10
0.0
 20
1.0
 30
0.0
  9
$PUCSORTHOREF
  2

  9
$PUCSORTHOVIEW
 70
     0
  9
$PUCSORGTOP
 10
0.0
 20
0.0
 30
0.0
  9
$PUCSORGBOTTOM
 10
0.0
 20
0.0
 30
0.0
  9
$PUCSORGLEFT
 10
0.0
 20
0.0
 30
0.0
  9
$PUCSORGRIGHT
 10
0.0
 20
0.0
 30
0.0
  9
$PUCSORGFRONT
 10
0.0
 20
0.0
 30
0.0
  9
$PUCSORGBACK
 10
0.0
 20
0.0
 30
0.0
  9
$USERI1
 70
     0
  9
$USERI2
 70
     0
  9
$USERI3
 70
     0
  9
$USERI4
 70
     0
  9
$USERI5
 70
     0
  9
$USERR1
 40
0.0
  9
$USERR2
 40
0.0
  9
$USERR3
 40
0.0
  9
$USERR4
 40
0.0
  9
$USERR5
 40
0.0
  9
$WORLDVIEW
 70
     1
  9
$SHADEDGE
 70
     3
  9
$SHADEDIF
 70
    70
  9
$TILEMODE
 70
     1
  9
$MAXACTVP
 70
    16
  9
$PINSBASE
 10
0.0
 20
0.0
 30
0.0
  9
$PLIMCHECK
 70
     0
  9
$PEXTMIN
 10
1.000000000000000E+20
 20
1.000000000000000E+20
 30
1.000000000000000E+20
  9
$PEXTMAX
 10
-1.000000000000000E+20
 20
-1.000000000000000E+20
 30
-1.000000000000000E+20
  9
$PLIMMIN
 10
0.0
 20
0.0
  9
$PLIMMAX
 10
12.0
 20
9.0
  9
$UNITMODE
 70
     0
  9
$VISRETAIN
 70
     0
  9
$PLINEGEN
 70
     0
  9
$PSLTSCALE
 70
     1
  9
$TREEDEPTH
 70
  3020
  9
$CMLSTYLE
  2
Standard
  9
$CMLJUST
 70
     0
  9
$CMLSCALE
 40
1.0
  9
$PROXYGRAPHICS
 70
     1
  9
$MEASUREMENT
 70
     0
  9
$CELWEIGHT
370
    -1
  9
$ENDCAPS
280
     0
  9
$JOINSTYLE
280
     0
  9
$LWDISPLAY
290
     0
  9
$INSUNITS
 70
     0
  9
$HYPERLINKBASE
  1

  9
$STYLESHEET
  1

  9
$XEDIT
290
     1
  9
$CEPSNTYPE
380
     0
  9
$PSTYLEMODE
290
     1
  9
$FINGERPRINTGUID
  2
{DCFF5B64-8AB2-412A-8175-B10257D688AC}
  9
$VERSIONGUID
  2
{792D2904-A58F-4108-B955-092184FFA036}
  9
$EXTNAMES
290
     1
  9
$PSVPSCALE
 40
0.0
  9
$OLESTARTUP
290
     0
  0
ENDSEC
  0
SECTION
  2
CLASSES
  0
CLASS
  1
ACDBDICTIONARYWDFLT
  2
AcDbDictionaryWithDefault
  3
ObjectDBX Classes
 90
        0
280
     0
281
     0
  0
CLASS
  1
MATERIAL
  2
AcDbMaterial
  3
ObjectDBX Classes
 90
     1153
280
     0
281
     0
  0
CLASS
  1
VISUALSTYLE
  2
AcDbVisualStyle
  3
ObjectDBX Classes
 90
     4095
280
     0
281
     0
  0
CLASS
  1
SCALE
  2
AcDbScale
  3
ObjectDBX Classes
 90
     1153
280
     0
281
     0
  0
CLASS
  1
TABLESTYLE
  2
AcDbTableStyle
  3
ObjectDBX Classes
 90
     4095
280
     0
281
     0
  0
CLASS
  1
MLEADERSTYLE
  2
AcDbMLeaderStyle
  3
ACDB_MLEADERSTYLE_CLASS
 90
     4095
280
     0
281
     0
  0
CLASS
  1
ACDBSECTIONVIEWSTYLE
  2
AcDbSectionViewStyle
  3
ObjectDBX Classes
 90
     1025
280
     0
281
     0
  0
CLASS
  1
ACDBDETAILVIEWSTYLE
  2
AcDbDetailViewStyle
  3
ObjectDBX Classes
 90
     1025
280
     0
281
     0
  0
CLASS
  1
EXACXREFPANELOBJECT
  2
ExAcXREFPanelObject
  3
EXAC_ESW
 90
     1025
280
     0
281
     0
  0
CLASS
  1
NPOCOLLECTION
  2
AcDbImpNonPersistentObjectsCollection
  3
ObjectDBX Classes
 90
     1153
280
     0
281
     0
  0
CLASS
  1
DICTIONARYVAR
  2
AcDbDictionaryVar
  3
ObjectDBX Classes
 90
        0
280
     0
281
     0
  0
CLASS
  1
CELLSTYLEMAP
  2
AcDbCellStyleMap
  3
ObjectDBX Classes
 90
     1152
280
     0
281
     0
  0
CLASS
  1
ACDBPLACEHOLDER
  2
AcDbPlaceHolder
  3
ObjectDBX Classes
 90
        0
280
     0
281
     0
  0
CLASS
  1
LAYOUT
  2
AcDbLayout
  3
ObjectDBX Classes
 90
        0
280
     0
281
     0
  0
ENDSEC
  0
SECTION
  2
TABLES
  0
TABLE
  2
VPORT
  5
437
330
0
100
AcDbSymbolTable
 70
     1
  0
VPORT
  5
4CE
330
437
100
AcDbSymbolTableRecord
100
AcDbViewportTableRecord
  2
*Active
 70
     0
 10
0.0
 20
0.0
 11
1.0
 21
1.0
 12
10.250559
 22
-2.067402000000001
 13
0.0
 23
0.0
 14
1.0
 24
1.0
 15
0.0
 25
0.0
 16
0.0
 26
0.0
 36
1.0
 17
0.0
 27
0.0
 37
0.0
 40
67.73931182349812
 41
2.2
 42
50.0
 43
0.0
 44
0.0
 50
0.0
 51
0.0
 71
     0
 72
   100
 73
     1
 74
     1
 75
     0
 76
     0
 77
     0
 78
     0
281
     0
 65
     1
110
0.0
120
0.0
130
0.0
111
1.0
121
0.0
131
0.0
112
0.0
122
1.0
132
0.0
 79
     0
146
0.0
1001
ACAD_NAV_VCDISPLAY
1070
     3
  0
ENDTAB
  0
TABLE
  2
LTYPE
  5
434
330
0
100
AcDbSymbolTable
 70
     4
  0
LTYPE
  5
489
330
434
100
AcDbSymbolTableRecord
100
AcDbLinetypeTableRecord
  2
ByBlock
 70
     0
  3

 72
    65
 73
     0
 40
0.0
  0
LTYPE
  5
48A
330
434
100
AcDbSymbolTableRecord
100
AcDbLinetypeTableRecord
  2
ByLayer
 70
     0
  3

 72
    65
 73
     0
 40
0.0
  0
LTYPE
  5
48B
330
434
100
AcDbSymbolTableRecord
100
AcDbLinetypeTableRecord
  2
CONTINUOUS
 70
     0
  3
Solid line
 72
    65
 73
     0
 40
0.0
  0
LTYPE
  5
497
330
434
100
AcDbSymbolTableRecord
100
AcDbLinetypeTableRecord
  2
PHANTOM2
 70
     0
  3
Phantom (.5x) ___ _ _ ___ _ _ ___ _ _ ___ _ _
 72
    65
 73
     6
 40
1.25
 49
0.625
 74
     0
 49
-0.125
 74
     0
 49
0.125
 74
     0
 49
-0.125
 74
     0
 49
0.125
 74
     0
 49
-0.125
 74
     0
  0
LTYPE
  5
4A5
330
434
100
AcDbSymbolTableRecord
100
AcDbLinetypeTableRecord
  2
CENTER
 70
     0
  3
____ _ ____ _ ____ _ ____ _ ____ _ ____ _ ____
 72
    65
 73
     4
 40
5.059897
 49
3.162434999999999
 74
     0
 49
-0.6324870000000001
 74
     0
 49
0.6324870000000001
 74
     0
 49
-0.6324870000000001
 74
     0
  0
LTYPE
  5
4A6
330
434
100
AcDbSymbolTableRecord
100
AcDbLinetypeTableRecord
  2
DASHED
 70
     0
  3
__ __ __ __ __ __ __ __ __ __ __ __ __ __ __ __
 72
    65
 73
     2
 40
7.589844999999999
 49
5.059897
 74
     0
 49
-2.529948
 74
     0
  0
ENDTAB
  0
TABLE
  2
LAYER
  5
431
330
0
100
AcDbSymbolTable
 70
    38
  0
LAYER
  5
483
102
{ACAD_XDICTIONARY
360
4D5
102
}
330
431
100
AcDbSymbolTableRecord
100
AcDbLayerTableRecord
  2
0
 70
     0
 62
     7
  6
CONTINUOUS
370
    -3
390
43E
  0
LAYER
  5
4A3
102
{ACAD_XDICTIONARY
360
4D7
102
}
330
431
100
AcDbSymbolTableRecord
100
AcDbLayerTableRecord
  2
1
 70
     0
 62
     4
  6
CONTINUOUS
370
    -3
390
43E
  0
LAYER
  5
4A7
102
{ACAD_XDICTIONARY
360
4D9
102
}
330
431
100
AcDbSymbolTableRecord
100
AcDbLayerTableRecord
  2
61
 70
     0
 62
     5
  6
CONTINUOUS
370
    -3
390
43E
  0
LAYER
  5
4A8
102
{ACAD_XDICTIONARY
360
4DB
102
}
330
431
100
AcDbSymbolTableRecord
100
AcDbLayerTableRecord
  2
62
 70
     0
 62
    -5
  6
CONTINUOUS
370
    -3
390
43E
  0
LAYER
  5
4A9
102
{ACAD_XDICTIONARY
360
4DD
102
}
330
431
100
AcDbSymbolTableRecord
100
AcDbLayerTableRecord
  2
63
 70
     0
 62
    -5
  6
CONTINUOUS
370
    -3
390
43E
  0
LAYER
  5
4AA
102
{ACAD_XDICTIONARY
360
4DF
102
}
330
431
100
AcDbSymbolTableRecord
100
AcDbLayerTableRecord
  2
64
 70
     0
 62
    -5
  6
CONTINUOUS
370
    -3
390
43E
  0
LAYER
  5
4AB
102
{ACAD_XDICTIONARY
360
4E1
102
}
330
431
100
AcDbSymbolTableRecord
100
AcDbLayerTableRecord
  2
65
 70
     0
 62
    -5
  6
CONTINUOUS
370
    -3
390
43E
  0
LAYER
  5
4AC
102
{ACAD_XDICTIONARY
360
4E3
102
}
330
431
100
AcDbSymbolTableRecord
100
AcDbLayerTableRecord
  2
66
 70
     0
 62
    -5
  6
CONTINUOUS
370
    -3
390
43E
  0
LAYER
  5
4AD
102
{ACAD_XDICTIONARY
360
4E5
102
}
330
431
100
AcDbSymbolTableRecord
100
AcDbLayerTableRecord
  2
67
 70
     0
 62
    -5
  6
CONTINUOUS
370
    -3
390
43E
  0
LAYER
  5
4AE
102
{ACAD_XDICTIONARY
360
4E7
102
}
330
431
100
AcDbSymbolTableRecord
100
AcDbLayerTableRecord
  2
68
 70
     0
 62
    -5
  6
CONTINUOUS
370
    -3
390
43E
  0
LAYER
  5
4AF
102
{ACAD_XDICTIONARY
360
4E9
102
}
330
431
100
AcDbSymbolTableRecord
100
AcDbLayerTableRecord
  2
69
 70
     0
 62
    -5
  6
CONTINUOUS
370
    -3
390
43E
  0
LAYER
  5
4B0
102
{ACAD_XDICTIONARY
360
4EB
102
}
330
431
100
AcDbSymbolTableRecord
100
AcDbLayerTableRecord
  2
70
 70
     0
 62
     5
  6
CONTINUOUS
370
    -3
390
43E
  0
LAYER
  5
4B1
102
{ACAD_XDICTIONARY
360
4ED
102
}
330
431
100
AcDbSymbolTableRecord
100
AcDbLayerTableRecord
  2
2
 70
     0
 62
     7
  6
CONTINUOUS
370
    -3
390
43E
  0
LAYER
  5
4B2
102
{ACAD_XDICTIONARY
360
4EF
102
}
330
431
100
AcDbSymbolTableRecord
100
AcDbLayerTableRecord
  2
3
 70
     0
 62
     1
  6
DASHED
370
    -3
390
43E
  0
LAYER
  5
4B3
102
{ACAD_XDICTIONARY
360
4F1
102
}
330
431
100
AcDbSymbolTableRecord
100
AcDbLayerTableRecord
  2
4
 70
     0
 62
    -2
  6
CENTER
370
    -3
390
43E
  0
LAYER
  5
4B4
102
{ACAD_XDICTIONARY
360
4F3
102
}
330
431
100
AcDbSymbolTableRecord
100
AcDbLayerTableRecord
  2
5
 70
     0
 62
    -7
  6
CONTINUOUS
370
    -3
390
43E
  0
LAYER
  5
4B5
102
{ACAD_XDICTIONARY
360
4F5
102
}
330
431
100
AcDbSymbolTableRecord
100
AcDbLayerTableRecord
  2
SK1
 70
     0
 62
     4
  6
CONTINUOUS
370
    -3
390
43E
  0
LAYER
  5
4B6
102
{ACAD_XDICTIONARY
360
4F7
102
}
330
431
100
AcDbSymbolTableRecord
100
AcDbLayerTableRecord
  2
6
 70
     0
 62
     5
  6
CONTINUOUS
370
    -3
390
43E
  0
LAYER
  5
4B7
102
{ACAD_XDICTIONARY
360
4F9
102
}
330
431
100
AcDbSymbolTableRecord
100
AcDbLayerTableRecord
  2
SK2
 70
     0
 62
     7
  6
CONTINUOUS
370
    -3
390
43E
  0
LAYER
  5
4B8
102
{ACAD_XDICTIONARY
360
4FB
102
}
330
431
100
AcDbSymbolTableRecord
100
AcDbLayerTableRecord
  2
SK3
 70
     0
 62
     1
  6
DASHED
370
    -3
390
43E
  0
LAYER
  5
4B9
102
{ACAD_XDICTIONARY
360
4FD
102
}
330
431
100
AcDbSymbolTableRecord
100
AcDbLayerTableRecord
  2
SK4
 70
     0
 62
     2
  6
CENTER
370
    -3
390
43E
  0
LAYER
  5
4BA
102
{ACAD_XDICTIONARY
360
4FF
102
}
330
431
100
AcDbSymbolTableRecord
100
AcDbLayerTableRecord
  2
CUT
 70
     0
 62
    -1
  6
CONTINUOUS
370
    -3
390
43E
  0
LAYER
  5
4BB
102
{ACAD_XDICTIONARY
360
501
102
}
330
431
100
AcDbSymbolTableRecord
100
AcDbLayerTableRecord
  2
SK6
 70
     0
 62
     5
  6
CONTINUOUS
370
    -3
390
43E
  0
LAYER
  5
4BC
102
{ACAD_XDICTIONARY
360
503
102
}
330
431
100
AcDbSymbolTableRecord
100
AcDbLayerTableRecord
  2
80
 70
     0
 62
    -2
  6
CENTER
370
    -3
390
43E
  0
LAYER
  5
4BD
102
{ACAD_XDICTIONARY
360
505
102
}
330
431
100
AcDbSymbolTableRecord
100
AcDbLayerTableRecord
  2
81
 70
     0
 62
    -2
  6
CENTER
370
    -3
390
43E
  0
LAYER
  5
4BE
102
{ACAD_XDICTIONARY
360
507
102
}
330
431
100
AcDbSymbolTableRecord
100
AcDbLayerTableRecord
  2
82
 70
     0
 62
    -2
  6
CENTER
370
    -3
390
43E
  0
LAYER
  5
4BF
102
{ACAD_XDICTIONARY
360
509
102
}
330
431
100
AcDbSymbolTableRecord
100
AcDbLayerTableRecord
  2
NOCUT
 70
     0
 62
     7
  6
CONTINUOUS
370
    -3
390
43E
  0
LAYER
  5
4C0
102
{ACAD_XDICTIONARY
360
50B
102
}
330
431
100
AcDbSymbolTableRecord
100
AcDbLayerTableRecord
  2
50
 70
     0
 62
    -7
  6
CONTINUOUS
370
    -3
390
43E
  0
LAYER
  5
4C1
102
{ACAD_XDICTIONARY
360
50D
102
}
330
431
100
AcDbSymbolTableRecord
100
AcDbLayerTableRecord
  2
51
 70
     0
 62
     7
  6
CONTINUOUS
370
    -3
390
43E
  0
LAYER
  5
4C2
102
{ACAD_XDICTIONARY
360
50F
102
}
330
431
100
AcDbSymbolTableRecord
100
AcDbLayerTableRecord
  2
52
 70
     0
 62
    -7
  6
CONTINUOUS
370
    -3
390
43E
  0
LAYER
  5
4C3
102
{ACAD_XDICTIONARY
360
511
102
}
330
431
100
AcDbSymbolTableRecord
100
AcDbLayerTableRecord
  2
53
 70
     0
 62
    -7
  6
CONTINUOUS
370
    -3
390
43E
  0
LAYER
  5
4C4
102
{ACAD_XDICTIONARY
360
513
102
}
330
431
100
AcDbSymbolTableRecord
100
AcDbLayerTableRecord
  2
54
 70
     0
 62
    -7
  6
CONTINUOUS
370
    -3
390
43E
  0
LAYER
  5
4C5
102
{ACAD_XDICTIONARY
360
515
102
}
330
431
100
AcDbSymbolTableRecord
100
AcDbLayerTableRecord
  2
55
 70
     0
 62
    -7
  6
CONTINUOUS
370
    -3
390
43E
  0
LAYER
  5
4C6
102
{ACAD_XDICTIONARY
360
517
102
}
330
431
100
AcDbSymbolTableRecord
100
AcDbLayerTableRecord
  2
56
 70
     0
 62
    -7
  6
CONTINUOUS
370
    -3
390
43E
  0
LAYER
  5
4C7
102
{ACAD_XDICTIONARY
360
519
102
}
330
431
100
AcDbSymbolTableRecord
100
AcDbLayerTableRecord
  2
57
 70
     0
 62
    -7
  6
CONTINUOUS
370
    -3
390
43E
  0
LAYER
  5
4C8
102
{ACAD_XDICTIONARY
360
51B
102
}
330
431
100
AcDbSymbolTableRecord
100
AcDbLayerTableRecord
  2
58
 70
     0
 62
    -7
  6
CONTINUOUS
370
    -3
390
43E
  0
LAYER
  5
4C9
102
{ACAD_XDICTIONARY
360
51D
102
}
330
431
100
AcDbSymbolTableRecord
100
AcDbLayerTableRecord
  2
2L
 70
     0
 62
     7
  6
CONTINUOUS
370
    -3
390
43E
  0
LAYER
  5
4CA
102
{ACAD_XDICTIONARY
360
51F
102
}
330
431
100
AcDbSymbolTableRecord
100
AcDbLayerTableRecord
  2
59
 70
     0
 62
    -7
  6
CONTINUOUS
370
    -3
390
43E
  0
ENDTAB
  0
TABLE
  2
STYLE
  5
432
330
0
100
AcDbSymbolTable
 70
     3
  0
STYLE
  5
484
330
432
100
AcDbSymbolTableRecord
100
AcDbTextStyleTableRecord
  2
STANDARD
 70
     0
 40
0.0
 41
1.0
 50
0.0
 71
     0
 42
4.5
  3
simplex.shx
  4

  0
STYLE
  5
488
330
432
100
AcDbSymbolTableRecord
100
AcDbTextStyleTableRecord
  2
Annotative
 70
     0
 40
0.0
 41
1.0
 50
0.0
 71
     0
 42
0.2
  3
txt
  4

1001
AcadAnnotative
1000
AnnotativeData
1002
{
1070
     1
1070
     1
1002
}
  0
STYLE
  5
4A4
330
432
100
AcDbSymbolTableRecord
100
AcDbTextStyleTableRecord
  2
SANDVIK_STYLE
 70
     0
 40
3.0
 41
1.0
 50
0.0
 71
     0
 42
3.0
  3
simplex.shx
  4

  0
ENDTAB
  0
TABLE
  2
VIEW
  5
435
330
0
100
AcDbSymbolTable
 70
     0
  0
ENDTAB
  0
TABLE
  2
UCS
  5
436
330
0
100
AcDbSymbolTable
 70
     0
  0
ENDTAB
  0
TABLE
  2
APPID
  5
438
330
0
100
AcDbSymbolTable
 70
     4
  0
APPID
  5
485
330
438
100
AcDbSymbolTableRecord
100
AcDbRegAppTableRecord
  2
ACAD
 70
     0
  0
APPID
  5
48C
330
438
100
AcDbSymbolTableRecord
100
AcDbRegAppTableRecord
  2
AcadAnnotative
 70
     0
  0
APPID
  5
52B
330
438
100
AcDbSymbolTableRecord
100
AcDbRegAppTableRecord
  2
ACAD_NAV_VCDISPLAY
 70
     0
  0
APPID
  5
564
330
438
100
AcDbSymbolTableRecord
100
AcDbRegAppTableRecord
  2
ACAD_MLEADERVER
 70
     0
  0
ENDTAB
  0
TABLE
  2
DIMSTYLE
  5
439
330
0
100
AcDbSymbolTable
 70
     3
100
AcDbDimStyleTable
 71
     0
  0
DIMSTYLE
105
486
330
439
100
AcDbSymbolTableRecord
100
AcDbDimStyleTableRecord
  2
STANDARD
 70
     0
  4
 
 41
3.0
 42
2.5
 43
10.0
 44
2.5
 46
1.25
 73
     0
 74
     0
140
3.0
141
-3.0
143
0.039
145
1.5
146
0.75
147
1.5
271
     2
272
     2
279
     2
340
4A4
  0
DIMSTYLE
105
487
330
439
100
AcDbSymbolTableRecord
100
AcDbDimStyleTableRecord
  2
Annotative
 70
     0
340
484
1001
AcadAnnotative
1000
AnnotativeData
1002
{
1070
     1
1070
     1
1002
}
  0
DIMSTYLE
105
4CB
330
439
100
AcDbSymbolTableRecord
100
AcDbDimStyleTableRecord
  2
SANDVIK_DIM
 70
     0
  4
 
 40
0.0
 41
4.57
 42
0.0
 44
5.0
 73
     0
 74
     0
 77
     1
 78
     8
140
4.5
147
2.299999999999999
176
   256
177
   256
178
   256
271
     2
272
     2
279
     2
340
4A4
  0
ENDTAB
  0
TABLE
  2
BLOCK_RECORD
  5
430
330
0
100
AcDbSymbolTable
 70
     2
  0
BLOCK_RECORD
  5
49F
330
430
100
AcDbSymbolTableRecord
100
AcDbBlockTableRecord
  2
*Model_Space
340
4A2
  0
BLOCK_RECORD
  5
49B
330
430
100
AcDbSymbolTableRecord
100
AcDbBlockTableRecord
  2
*Paper_Space
340
49E
  0
BLOCK_RECORD
  5
4CF
330
430
100
AcDbSymbolTableRecord
100
AcDbBlockTableRecord
  2
*D0
340
0
102
{BLKREFS
331
3CD
102
}
  0
BLOCK_RECORD
  5
4D0
330
430
100
AcDbSymbolTableRecord
100
AcDbBlockTableRecord
  2
*D1
340
0
102
{BLKREFS
331
3CF
102
}
  0
ENDTAB
  0
ENDSEC
  0
SECTION
  2
BLOCKS
  0
BLOCK
  5
4A0
330
49F
100
AcDbEntity
  8
0
100
AcDbBlockBegin
  2
*Model_Space
 70
     0
 10
0.0
 20
0.0
 30
0.0
  3
*Model_Space
  1

  0
ENDBLK
  5
4A1
330
49F
100
AcDbEntity
  8
0
100
AcDbBlockEnd
  0
BLOCK
  5
49C
330
49B
100
AcDbEntity
 67
     1
  8
0
100
AcDbBlockBegin
  2
*Paper_Space
 70
     0
 10
0.0
 20
0.0
 30
0.0
  3
*Paper_Space
  1

  0
ENDBLK
  5
49D
330
49B
100
AcDbEntity
 67
     1
  8
0
100
AcDbBlockEnd
  0
BLOCK
  5
2
330
4CF
100
AcDbEntity
  8
0
100
AcDbBlockBegin
  2
*D0
 70
     1
 10
0.0
 20
0.0
 30
0.0
  3
*D0
  1

  0
LINE
  5
3
330
4CF
100
AcDbEntity
  8
0
100
AcDbLine
 10
0.0
 20
10.525
 30
0.0
 11
0.0
 21
25.115322
 31
0.0
  0
LINE
  5
4
330
4CF
100
AcDbEntity
  8
0
100
AcDbLine
 10
14.5
 20
10.525
 30
0.0
 11
14.5
 21
25.115322
 31
0.0
  0
LINE
  5
5
330
4CF
100
AcDbEntity
  8
0
100
AcDbLine
 10
2.5
 20
24.115322
 30
0.0
 11
12.0
 21
24.115322
 31
0.0
  0
LINE
  5
6
330
4CF
100
AcDbEntity
  8
0
100
AcDbLine
 10
2.5
 20
24.531989
 30
0.0
 11
2.5
 21
23.698655
 31
0.0
  0
LINE
  5
7
330
4CF
100
AcDbEntity
  8
0
100
AcDbLine
 10
2.5
 20
23.698655
 30
0.0
 11
0.0
 21
24.115322
 31
0.0
  0
LINE
  5
8
330
4CF
100
AcDbEntity
  8
0
100
AcDbLine
 10
0.0
 20
24.115322
 30
0.0
 11
0.0
 21
24.115322
 31
0.0
  0
LINE
  5
9
330
4CF
100
AcDbEntity
  8
0
100
AcDbLine
 10
0.0
 20
24.115322
 30
0.0
 11
2.5
 21
24.531989
 31
0.0
  0
LINE
  5
A
330
4CF
100
AcDbEntity
  8
0
100
AcDbLine
 10
12.0
 20
24.531989
 30
0.0
 11
12.0
 21
23.698655
 31
0.0
  0
LINE
  5
B
330
4CF
100
AcDbEntity
  8
0
100
AcDbLine
 10
12.0
 20
23.698655
 30
0.0
 11
14.5
 21
24.115322
 31
0.0
  0
LINE
  5
C
330
4CF
100
AcDbEntity
  8
0
100
AcDbLine
 10
14.5
 20
24.115322
 30
0.0
 11
14.5
 21
24.115322
 31
0.0
  0
LINE
  5
D
330
4CF
100
AcDbEntity
  8
0
100
AcDbLine
 10
14.5
 20
24.115322
 30
0.0
 11
12.0
 21
24.531989
 31
0.0
  0
ENDBLK
  5
E
330
4CF
100
AcDbEntity
  8
0
100
AcDbBlockEnd
  0
BLOCK
  5
F
330
4D0
100
AcDbEntity
  8
0
100
AcDbBlockBegin
  2
*D1
 70
     1
 10
0.0
 20
0.0
 30
0.0
  3
*D1
  1

  0
LINE
  5
10
330
4D0
100
AcDbEntity
  8
0
100
AcDbLine
 10
15.5
 20
9.525
 30
0.0
 11
38.370651
 21
9.525
 31
0.0
  0
LINE
  5
11
330
4D0
100
AcDbEntity
  8
0
100
AcDbLine
 10
15.5
 20
-9.525
 30
0.0
 11
38.370651
 21
-9.525
 31
0.0
  0
LINE
  5
12
330
4D0
100
AcDbEntity
  8
0
100
AcDbLine
 10
37.37065100000001
 20
7.025
 30
0.0
 11
37.37065100000001
 21
-7.025
 31
0.0
  0
LINE
  5
13
330
4D0
100
AcDbEntity
  8
0
100
AcDbLine
 10
36.95398400000001
 20
7.025
 30
0.0
 11
37.787317
 21
7.025
 31
0.0
  0
LINE
  5
14
330
4D0
100
AcDbEntity
  8
0
100
AcDbLine
 10
37.787317
 20
7.025
 30
0.0
 11
37.37065100000001
 21
9.525
 31
0.0
  0
LINE
  5
15
330
4D0
100
AcDbEntity
  8
0
100
AcDbLine
 10
37.37065100000001
 20
9.525
 30
0.0
 11
37.37065100000001
 21
9.525
 31
0.0
  0
LINE
  5
16
330
4D0
100
AcDbEntity
  8
0
100
AcDbLine
 10
37.37065100000001
 20
9.525
 30
0.0
 11
36.95398400000001
 21
7.025
 31
0.0
  0
LINE
  5
17
330
4D0
100
AcDbEntity
  8
0
100
AcDbLine
 10
36.95398400000001
 20
-7.025
 30
0.0
 11
37.787317
 21
-7.025
 31
0.0
  0
LINE
  5
18
330
4D0
100
AcDbEntity
  8
0
100
AcDbLine
 10
37.787317
 20
-7.025
 30
0.0
 11
37.37065100000001
 21
-9.525
 31
0.0
  0
LINE
  5
19
330
4D0
100
AcDbEntity
  8
0
100
AcDbLine
 10
37.37065100000001
 20
-9.525
 30
0.0
 11
37.37065100000001
 21
-9.525
 31
0.0
  0
LINE
  5
1A
330
4D0
100
AcDbEntity
  8
0
100
AcDbLine
 10
37.37065100000001
 20
-9.525
 30
0.0
 11
36.95398400000001
 21
-7.025
 31
0.0
  0
ENDBLK
  5
1B
330
4D0
100
AcDbEntity
  8
0
100
AcDbBlockEnd
  0
ENDSEC
  0
SECTION
  2
ENTITIES
  0
LINE
  5
1C
330
49F
100
AcDbEntity
  8
1
100
AcDbLine
 10
9.065341999999999
 20
-5.712991999999999
 30
0.0
 11
9.070923999999999
 21
-5.730185999999999
 31
0.0
  0
LINE
  5
1D
330
49F
100
AcDbEntity
  8
1
100
AcDbLine
 10
9.070923999999999
 20
-5.730185999999999
 30
0.0
 11
9.075647
 21
-5.747376999999999
 31
0.0
  0
LINE
  5
1E
330
49F
100
AcDbEntity
  8
1
100
AcDbLine
 10
9.075647
 20
-5.747376999999999
 30
0.0
 11
9.079553
 21
-5.764598999999999
 31
0.0
  0
LINE
  5
1F
330
49F
100
AcDbEntity
  8
1
100
AcDbLine
 10
9.079553
 20
-5.764598999999999
 30
0.0
 11
9.082647999999998
 21
-5.781849
 31
0.0
  0
LINE
  5
20
330
49F
100
AcDbEntity
  8
1
100
AcDbLine
 10
9.082647999999998
 20
-5.781849
 30
0.0
 11
9.084928999999998
 21
-5.799112
 31
0.0
  0
LINE
  5
21
330
49F
100
AcDbEntity
  8
1
100
AcDbLine
 10
9.084928999999998
 20
-5.799112
 30
0.0
 11
9.086421000000001
 21
-5.816416999999999
 31
0.0
  0
LINE
  5
22
330
49F
100
AcDbEntity
  8
1
100
AcDbLine
 10
9.086421000000001
 20
-5.816416999999999
 30
0.0
 11
9.08713
 21
-5.833766999999999
 31
0.0
  0
LINE
  5
23
330
49F
100
AcDbEntity
  8
1
100
AcDbLine
 10
9.08713
 20
-5.833766999999999
 30
0.0
 11
9.087049999999999
 21
-5.851141
 31
0.0
  0
LINE
  5
24
330
49F
100
AcDbEntity
  8
1
100
AcDbLine
 10
9.087049999999999
 20
-5.851141
 30
0.0
 11
9.086182
 21
-5.868527999999999
 31
0.0
  0
LINE
  5
25
330
49F
100
AcDbEntity
  8
1
100
AcDbLine
 10
9.527442
 20
-9.372061
 30
0.0
 11
9.478717999999998
 21
-9.361996000000001
 31
0.0
  0
LINE
  5
26
330
49F
100
AcDbEntity
  8
1
100
AcDbLine
 10
9.478717999999998
 20
-9.361996000000001
 30
0.0
 11
9.391586
 21
-9.337717999999998
 31
0.0
  0
LINE
  5
27
330
49F
100
AcDbEntity
  8
1
100
AcDbLine
 10
9.391586
 20
-9.337717999999998
 30
0.0
 11
9.304808999999998
 21
-9.305448
 31
0.0
  0
LINE
  5
28
330
49F
100
AcDbEntity
  8
1
100
AcDbLine
 10
9.304808999999998
 20
-9.305448
 30
0.0
 11
9.218308
 21
-9.265139999999998
 31
0.0
  0
LINE
  5
29
330
49F
100
AcDbEntity
  8
1
100
AcDbLine
 10
9.218308
 20
-9.265139999999998
 30
0.0
 11
9.132160999999999
 21
-9.216841
 31
0.0
  0
LINE
  5
2A
330
49F
100
AcDbEntity
  8
1
100
AcDbLine
 10
9.132160999999999
 20
-9.216841
 30
0.0
 11
9.046599999999999
 21
-9.160699000000001
 31
0.0
  0
LINE
  5
2B
330
49F
100
AcDbEntity
  8
1
100
AcDbLine
 10
9.046599999999999
 20
-9.160699000000001
 30
0.0
 11
8.961702
 21
-9.096764999999999
 31
0.0
  0
LINE
  5
2C
330
49F
100
AcDbEntity
  8
1
100
AcDbLine
 10
8.961702
 20
-9.096764999999999
 30
0.0
 11
8.877388999999999
 21
-9.024986999999999
 31
0.0
  0
LINE
  5
2D
330
49F
100
AcDbEntity
  8
1
100
AcDbLine
 10
8.877388999999999
 20
-9.024986999999999
 30
0.0
 11
8.793661
 21
-8.945366999999999
 31
0.0
  0
LINE
  5
2E
330
49F
100
AcDbEntity
  8
1
100
AcDbLine
 10
9.933643
 20
-9.445437
 30
0.0
 11
9.527642
 21
-9.372116
 31
0.0
  0
LINE
  5
2F
330
49F
100
AcDbEntity
  8
1
100
AcDbLine
 10
9.933278999999998
 20
-9.445372
 30
0.0
 11
10.380438
 21
-9.525
 31
0.0
  0
LINE
  5
30
330
49F
100
AcDbEntity
  8
1
100
AcDbLine
 10
8.793661
 20
-8.945366999999999
 30
0.0
 11
9.039761
 21
-8.969799
 31
0.0
  0
LINE
  5
31
330
49F
100
AcDbEntity
  8
1
100
AcDbLine
 10
9.566202999999999
 20
-4.794944
 30
0.0
 11
9.829816
 21
-4.743142999999999
 31
0.0
  0
LINE
  5
32
330
49F
100
AcDbEntity
  8
1
100
AcDbLine
 10
9.829816
 20
-4.743142999999999
 30
0.0
 11
10.366203
 21
-4.636476999999999
 31
0.0
  0
LINE
  5
33
330
49F
100
AcDbEntity
  8
1
100
AcDbLine
 10
7.660781
 20
-5.135540999999999
 30
0.0
 11
7.703355
 21
-5.125649
 31
0.0
  0
LINE
  5
34
330
49F
100
AcDbEntity
  8
1
100
AcDbLine
 10
7.703355
 20
-5.125649
 30
0.0
 11
7.744705999999999
 21
-5.117638999999999
 31
0.0
  0
LINE
  5
35
330
49F
100
AcDbEntity
  8
1
100
AcDbLine
 10
7.744705999999999
 20
-5.117638999999999
 30
0.0
 11
7.785249999999999
 21
-5.111352
 31
0.0
  0
LINE
  5
36
330
49F
100
AcDbEntity
  8
1
100
AcDbLine
 10
7.785249999999999
 20
-5.111352
 30
0.0
 11
7.824608999999999
 21
-5.106644
 31
0.0
  0
LINE
  5
37
330
49F
100
AcDbEntity
  8
1
100
AcDbLine
 10
7.824608999999999
 20
-5.106644
 30
0.0
 11
7.8627
 21
-5.103525
 31
0.0
  0
LINE
  5
38
330
49F
100
AcDbEntity
  8
1
100
AcDbLine
 10
7.8627
 20
-5.103525
 30
0.0
 11
7.899586
 21
-5.101958999999999
 31
0.0
  0
LINE
  5
39
330
49F
100
AcDbEntity
  8
1
100
AcDbLine
 10
7.899586
 20
-5.101958999999999
 30
0.0
 11
7.935100999999999
 21
-5.101726999999999
 31
0.0
  0
LINE
  5
3A
330
49F
100
AcDbEntity
  8
1
100
AcDbLine
 10
7.935100999999999
 20
-5.101726999999999
 30
0.0
 11
7.969183
 21
-5.102816999999999
 31
0.0
  0
LINE
  5
3B
330
49F
100
AcDbEntity
  8
1
100
AcDbLine
 10
7.969183
 20
-5.102816999999999
 30
0.0
 11
8.001877999999999
 21
-5.105215
 31
0.0
  0
LINE
  5
3C
330
49F
100
AcDbEntity
  8
1
100
AcDbLine
 10
8.001877999999999
 20
-5.105215
 30
0.0
 11
8.033189
 21
-5.108703
 31
0.0
  0
LINE
  5
3D
330
49F
100
AcDbEntity
  8
1
100
AcDbLine
 10
8.033189
 20
-5.108703
 30
0.0
 11
8.063091
 21
-5.113258999999999
 31
0.0
  0
LINE
  5
3E
330
49F
100
AcDbEntity
  8
1
100
AcDbLine
 10
8.063091
 20
-5.113258999999999
 30
0.0
 11
8.091597
 21
-5.118884999999999
 31
0.0
  0
LINE
  5
3F
330
49F
100
AcDbEntity
  8
1
100
AcDbLine
 10
8.091597
 20
-5.118884999999999
 30
0.0
 11
8.118775999999998
 21
-5.125391999999999
 31
0.0
  0
LINE
  5
40
330
49F
100
AcDbEntity
  8
1
100
AcDbLine
 10
8.118775999999998
 20
-5.125391999999999
 30
0.0
 11
8.144610999999999
 21
-5.132756999999999
 31
0.0
  0
LINE
  5
41
330
49F
100
AcDbEntity
  8
1
100
AcDbLine
 10
8.144610999999999
 20
-5.132756999999999
 30
0.0
 11
8.169111
 21
-5.140986999999999
 31
0.0
  0
LINE
  5
42
330
49F
100
AcDbEntity
  8
1
100
AcDbLine
 10
8.169111
 20
-5.140986999999999
 30
0.0
 11
8.192377
 21
-5.149931999999999
 31
0.0
  0
LINE
  5
43
330
49F
100
AcDbEntity
  8
1
100
AcDbLine
 10
8.192377
 20
-5.149931999999999
 30
0.0
 11
8.214427
 21
-5.15959
 31
0.0
  0
LINE
  5
44
330
49F
100
AcDbEntity
  8
1
100
AcDbLine
 10
8.214427
 20
-5.15959
 30
0.0
 11
8.235238
 21
-5.169951999999999
 31
0.0
  0
LINE
  5
45
330
49F
100
AcDbEntity
  8
1
100
AcDbLine
 10
8.235238
 20
-5.169951999999999
 30
0.0
 11
8.254856
 21
-5.180851999999999
 31
0.0
  0
LINE
  5
46
330
49F
100
AcDbEntity
  8
1
100
AcDbLine
 10
8.254856
 20
-5.180851999999999
 30
0.0
 11
8.273296
 21
-5.192234
 31
0.0
  0
LINE
  5
47
330
49F
100
AcDbEntity
  8
1
100
AcDbLine
 10
8.273296
 20
-5.192234
 30
0.0
 11
8.29054
 21
-5.204146999999999
 31
0.0
  0
LINE
  5
48
330
49F
100
AcDbEntity
  8
1
100
AcDbLine
 10
8.29054
 20
-5.204146999999999
 30
0.0
 11
8.306585
 21
-5.216588999999999
 31
0.0
  0
LINE
  5
49
330
49F
100
AcDbEntity
  8
1
100
AcDbLine
 10
9.562948
 20
-4.783094
 30
0.0
 11
9.529728999999999
 21
-4.792666999999999
 31
0.0
  0
LINE
  5
4A
330
49F
100
AcDbEntity
  8
1
100
AcDbLine
 10
7.618063999999999
 20
1.719716
 30
0.0
 11
7.661102
 21
1.717038999999999
 31
0.0
  0
LINE
  5
4B
330
49F
100
AcDbEntity
  8
1
100
AcDbLine
 10
14.5
 20
-8.563350999999999
 30
0.0
 11
14.5
 21
-4.329899
 31
0.0
  0
LINE
  5
4C
330
49F
100
AcDbEntity
  8
1
100
AcDbLine
 10
12.6
 20
-6.843764
 30
0.0
 11
12.6
 21
-8.383022
 31
0.0
  0
LINE
  5
4D
330
49F
100
AcDbEntity
  8
1
100
AcDbLine
 10
14.5
 20
-8.563350999999999
 30
0.0
 11
13.020342
 21
-9.525
 31
0.0
  0
LINE
  5
4E
330
49F
100
AcDbEntity
  8
1
100
AcDbLine
 10
14.5
 20
-7.316364999999999
 30
0.0
 11
12.565846
 21
-8.573396999999999
 31
0.0
  0
LINE
  5
4F
330
49F
100
AcDbEntity
  8
1
100
AcDbLine
 10
14.0
 20
-7.232957999999999
 30
0.0
 11
13.856957
 21
-7.355821
 31
0.0
  0
LINE
  5
50
330
49F
100
AcDbEntity
  8
1
100
AcDbLine
 10
13.856957
 20
-7.355821
 30
0.0
 11
13.710838
 21
-7.479883999999999
 31
0.0
  0
LINE
  5
51
330
49F
100
AcDbEntity
  8
1
100
AcDbLine
 10
13.710838
 20
-7.479883999999999
 30
0.0
 11
13.561643
 21
-7.605147
 31
0.0
  0
LINE
  5
52
330
49F
100
AcDbEntity
  8
1
100
AcDbLine
 10
13.561643
 20
-7.605147
 30
0.0
 11
13.409443
 21
-7.731567999999999
 31
0.0
  0
LINE
  5
53
330
49F
100
AcDbEntity
  8
1
100
AcDbLine
 10
13.409443
 20
-7.731567999999999
 30
0.0
 11
13.254168
 21
-7.859188999999999
 31
0.0
  0
LINE
  5
54
330
49F
100
AcDbEntity
  8
1
100
AcDbLine
 10
13.254168
 20
-7.859188999999999
 30
0.0
 11
13.095607
 21
-7.988133
 31
0.0
  0
LINE
  5
55
330
49F
100
AcDbEntity
  8
1
100
AcDbLine
 10
13.095607
 20
-7.988133
 30
0.0
 11
12.93369
 21
-8.118439999999999
 31
0.0
  0
LINE
  5
56
330
49F
100
AcDbEntity
  8
1
100
AcDbLine
 10
12.93369
 20
-8.118439999999999
 30
0.0
 11
12.768488
 21
-8.250068999999999
 31
0.0
  0
LINE
  5
57
330
49F
100
AcDbEntity
  8
1
100
AcDbLine
 10
12.768488
 20
-8.250068999999999
 30
0.0
 11
12.6
 21
-8.383022
 31
0.0
  0
LINE
  5
58
330
49F
100
AcDbEntity
  8
1
100
AcDbLine
 10
14.0
 20
-5.649766
 30
0.0
 11
13.857366
 21
-5.776129
 31
0.0
  0
LINE
  5
59
330
49F
100
AcDbEntity
  8
1
100
AcDbLine
 10
13.711558
 20
-5.90403
 30
0.0
 11
13.562576
 21
-6.033470999999999
 31
0.0
  0
LINE
  5
5A
330
49F
100
AcDbEntity
  8
1
100
AcDbLine
 10
13.562576
 20
-6.033470999999999
 30
0.0
 11
13.410495
 21
-6.164399999999999
 31
0.0
  0
LINE
  5
5B
330
49F
100
AcDbEntity
  8
1
100
AcDbLine
 10
13.410495
 20
-6.164399999999999
 30
0.0
 11
13.255239
 21
-6.296869
 31
0.0
  0
LINE
  5
5C
330
49F
100
AcDbEntity
  8
1
100
AcDbLine
 10
13.255239
 20
-6.296869
 30
0.0
 11
13.096585
 21
-6.431023999999999
 31
0.0
  0
LINE
  5
5D
330
49F
100
AcDbEntity
  8
1
100
AcDbLine
 10
13.096585
 20
-6.431023999999999
 30
0.0
 11
12.934456
 21
-6.566917
 31
0.0
  0
LINE
  5
5E
330
49F
100
AcDbEntity
  8
1
100
AcDbLine
 10
12.934456
 20
-6.566917
 30
0.0
 11
12.768927
 21
-6.704496999999999
 31
0.0
  0
LINE
  5
5F
330
49F
100
AcDbEntity
  8
1
100
AcDbLine
 10
12.768927
 20
-6.704496999999999
 30
0.0
 11
12.6
 21
-6.843764
 31
0.0
  0
LINE
  5
60
330
49F
100
AcDbEntity
  8
1
100
AcDbLine
 10
14.0
 20
-6.340576999999999
 30
0.0
 11
14.5
 21
-6.488832
 31
0.0
  0
LINE
  5
61
330
49F
100
AcDbEntity
  8
1
100
AcDbLine
 10
13.857366
 20
-5.776129
 30
0.0
 11
13.711558
 21
-5.90403
 31
0.0
  0
LINE
  5
62
330
49F
100
AcDbEntity
  8
1
100
AcDbLine
 10
4.166159999999999
 20
3.762929
 30
0.0
 11
4.083755
 21
3.959130999999999
 31
0.0
  0
LINE
  5
63
330
49F
100
AcDbEntity
  8
1
100
AcDbLine
 10
14.0
 20
-6.554838
 30
0.0
 11
14.5
 21
-6.554838
 31
0.0
  0
LINE
  5
64
330
49F
100
AcDbEntity
  8
1
100
AcDbLine
 10
14.0
 20
-6.734125999999999
 30
0.0
 11
14.5
 21
-6.734125999999999
 31
0.0
  0
LINE
  5
65
330
49F
100
AcDbEntity
  8
1
100
AcDbLine
 10
9.039761
 20
-2.410861
 30
0.0
 11
9.442638999999999
 21
-2.276459999999999
 31
0.0
  0
LINE
  5
66
330
49F
100
AcDbEntity
  8
1
100
AcDbLine
 10
9.442638999999999
 20
-2.276459999999999
 30
0.0
 11
9.842753
 21
-2.141916
 31
0.0
  0
LINE
  5
67
330
49F
100
AcDbEntity
  8
1
100
AcDbLine
 10
9.842753
 20
-2.141916
 30
0.0
 11
10.240101
 21
-2.007232
 31
0.0
  0
LINE
  5
68
330
49F
100
AcDbEntity
  8
1
100
AcDbLine
 10
10.240101
 20
-2.007232
 30
0.0
 11
10.634695
 21
-1.872395
 31
0.0
  0
LINE
  5
69
330
49F
100
AcDbEntity
  8
1
100
AcDbLine
 10
10.634695
 20
-1.872395
 30
0.0
 11
11.026525
 21
-1.737415
 31
0.0
  0
LINE
  5
6A
330
49F
100
AcDbEntity
  8
1
100
AcDbLine
 10
11.026525
 20
-1.737415
 30
0.0
 11
11.415558
 21
-1.602329
 31
0.0
  0
LINE
  5
6B
330
49F
100
AcDbEntity
  8
1
100
AcDbLine
 10
11.415558
 20
-1.602329
 30
0.0
 11
11.801784
 21
-1.467145999999999
 31
0.0
  0
LINE
  5
6C
330
49F
100
AcDbEntity
  8
1
100
AcDbLine
 10
11.801784
 20
-1.467145999999999
 30
0.0
 11
12.185213
 21
-1.331854
 31
0.0
  0
LINE
  5
6D
330
49F
100
AcDbEntity
  8
1
100
AcDbLine
 10
12.185213
 20
-1.331854
 30
0.0
 11
12.565846
 21
-1.196454999999999
 31
0.0
  0
LINE
  5
6E
330
49F
100
AcDbEntity
  8
1
100
AcDbLine
 10
12.6
 20
-1.091425
 30
0.0
 11
12.042608
 21
-1.290502
 31
0.0
  0
LINE
  5
6F
330
49F
100
AcDbEntity
  8
1
100
AcDbLine
 10
12.042608
 20
-1.290502
 30
0.0
 11
11.478798
 21
-1.489424999999999
 31
0.0
  0
LINE
  5
70
330
49F
100
AcDbEntity
  8
1
100
AcDbLine
 10
11.478798
 20
-1.489424999999999
 30
0.0
 11
10.908572
 21
-1.688191999999999
 31
0.0
  0
LINE
  5
71
330
49F
100
AcDbEntity
  8
1
100
AcDbLine
 10
10.908572
 20
-1.688191999999999
 30
0.0
 11
10.331555
 21
-1.886952999999999
 31
0.0
  0
LINE
  5
72
330
49F
100
AcDbEntity
  8
1
100
AcDbLine
 10
10.331555
 20
-1.886952999999999
 30
0.0
 11
9.748121000000001
 21
-2.085558
 31
0.0
  0
LINE
  5
73
330
49F
100
AcDbEntity
  8
1
100
AcDbLine
 10
9.748121000000001
 20
-2.085558
 30
0.0
 11
9.15939
 21
-2.283561
 31
0.0
  0
LINE
  5
74
330
49F
100
AcDbEntity
  8
1
100
AcDbLine
 10
12.053026
 20
1.653761
 30
0.0
 11
11.49974
 21
1.514202
 31
0.0
  0
LINE
  5
75
330
49F
100
AcDbEntity
  8
1
100
AcDbLine
 10
12.648133
 20
7.071409
 30
0.0
 11
12.606002
 21
7.225792
 31
0.0
  0
LINE
  5
76
330
49F
100
AcDbEntity
  8
1
100
AcDbLine
 10
9.086182
 20
1.386581999999999
 30
0.0
 11
9.0844
 21
1.381271999999999
 31
0.0
  0
LINE
  5
77
330
49F
100
AcDbEntity
  8
1
100
AcDbLine
 10
9.0844
 20
1.381271999999999
 30
0.0
 11
9.081583
 21
1.375704
 31
0.0
  0
LINE
  5
78
330
49F
100
AcDbEntity
  8
1
100
AcDbLine
 10
8.130219999999999
 20
5.090596999999999
 30
0.0
 11
7.967185
 21
5.047379
 31
0.0
  0
LINE
  5
79
330
49F
100
AcDbEntity
  8
1
100
AcDbLine
 10
9.081583
 20
1.375704
 30
0.0
 11
9.077714
 21
1.369901999999999
 31
0.0
  0
LINE
  5
7A
330
49F
100
AcDbEntity
  8
1
100
AcDbLine
 10
9.077714
 20
1.369901999999999
 30
0.0
 11
9.072791999999999
 21
1.363903
 31
0.0
  0
LINE
  5
7B
330
49F
100
AcDbEntity
  8
1
100
AcDbLine
 10
9.072791999999999
 20
1.363903
 30
0.0
 11
9.066783
 21
1.357721999999999
 31
0.0
  0
LINE
  5
7C
330
49F
100
AcDbEntity
  8
1
100
AcDbLine
 10
9.066783
 20
1.357721999999999
 30
0.0
 11
9.059617999999998
 21
1.351340999999999
 31
0.0
  0
LINE
  5
7D
330
49F
100
AcDbEntity
  8
1
100
AcDbLine
 10
9.059617999999998
 20
1.351340999999999
 30
0.0
 11
9.057382999999999
 21
1.349505999999999
 31
0.0
  0
LINE
  5
7E
330
49F
100
AcDbEntity
  8
1
100
AcDbLine
 10
8.793661
 20
-2.469570999999999
 30
0.0
 11
8.793661
 21
-2.405089999999999
 31
0.0
  0
LINE
  5
7F
330
49F
100
AcDbEntity
  8
1
100
AcDbLine
 10
8.405333
 20
1.482032999999999
 30
0.0
 11
8.495138999999999
 21
1.482246999999999
 31
0.0
  0
LINE
  5
80
330
49F
100
AcDbEntity
  8
1
100
AcDbLine
 10
8.495138999999999
 20
1.482246999999999
 30
0.0
 11
8.536697999999999
 21
1.482118
 31
0.0
  0
LINE
  5
81
330
49F
100
AcDbEntity
  8
1
100
AcDbLine
 10
8.536697999999999
 20
1.482118
 30
0.0
 11
8.576303999999998
 21
1.481806999999999
 31
0.0
  0
LINE
  5
82
330
49F
100
AcDbEntity
  8
1
100
AcDbLine
 10
8.576303999999998
 20
1.481806999999999
 30
0.0
 11
8.613972
 21
1.481320999999999
 31
0.0
  0
LINE
  5
83
330
49F
100
AcDbEntity
  8
1
100
AcDbLine
 10
8.613972
 20
1.481320999999999
 30
0.0
 11
8.649708
 21
1.480663999999999
 31
0.0
  0
LINE
  5
84
330
49F
100
AcDbEntity
  8
1
100
AcDbLine
 10
8.649708
 20
1.480663999999999
 30
0.0
 11
8.683738999999999
 21
1.479829999999999
 31
0.0
  0
LINE
  5
85
330
49F
100
AcDbEntity
  8
1
100
AcDbLine
 10
8.683738999999999
 20
1.479829999999999
 30
0.0
 11
8.716101
 21
1.478817999999999
 31
0.0
  0
LINE
  5
86
330
49F
100
AcDbEntity
  8
1
100
AcDbLine
 10
8.716101
 20
1.478817999999999
 30
0.0
 11
8.746774999999999
 21
1.477629999999999
 31
0.0
  0
LINE
  5
87
330
49F
100
AcDbEntity
  8
1
100
AcDbLine
 10
8.746774999999999
 20
1.477629999999999
 30
0.0
 11
8.775892999999999
 21
1.476266
 31
0.0
  0
LINE
  5
88
330
49F
100
AcDbEntity
  8
1
100
AcDbLine
 10
8.775892999999999
 20
1.476266
 30
0.0
 11
8.803499
 21
1.474719
 31
0.0
  0
LINE
  5
89
330
49F
100
AcDbEntity
  8
1
100
AcDbLine
 10
8.803499
 20
1.474719
 30
0.0
 11
8.829565999999999
 21
1.472994
 31
0.0
  0
LINE
  5
8A
330
49F
100
AcDbEntity
  8
1
100
AcDbLine
 10
8.829565999999999
 20
1.472994
 30
0.0
 11
8.854110999999999
 21
1.471114
 31
0.0
  0
LINE
  5
8B
330
49F
100
AcDbEntity
  8
1
100
AcDbLine
 10
7.408938
 20
-6.563322
 30
0.0
 11
7.368155
 21
-6.551247
 31
0.0
  0
LINE
  5
8C
330
49F
100
AcDbEntity
  8
1
100
AcDbLine
 10
8.854110999999999
 20
1.471114
 30
0.0
 11
8.877117
 21
1.469065
 31
0.0
  0
LINE
  5
8D
330
49F
100
AcDbEntity
  8
1
100
AcDbLine
 10
8.877117
 20
1.469065
 30
0.0
 11
8.898628
 21
1.466845
 31
0.0
  0
LINE
  5
8E
330
49F
100
AcDbEntity
  8
1
100
AcDbLine
 10
8.898628
 20
1.466845
 30
0.0
 11
8.918749999999999
 21
1.464484
 31
0.0
  0
LINE
  5
8F
330
49F
100
AcDbEntity
  8
1
100
AcDbLine
 10
8.918749999999999
 20
1.464484
 30
0.0
 11
8.937494
 21
1.461972999999999
 31
0.0
  0
LINE
  5
90
330
49F
100
AcDbEntity
  8
1
100
AcDbLine
 10
8.937494
 20
1.461972999999999
 30
0.0
 11
8.954874999999999
 21
1.459302
 31
0.0
  0
LINE
  5
91
330
49F
100
AcDbEntity
  8
1
100
AcDbLine
 10
8.954874999999999
 20
1.459302
 30
0.0
 11
8.971011
 21
1.456503999999999
 31
0.0
  0
LINE
  5
92
330
49F
100
AcDbEntity
  8
1
100
AcDbLine
 10
8.971011
 20
1.456503999999999
 30
0.0
 11
8.985922999999999
 21
1.453565999999999
 31
0.0
  0
LINE
  5
93
330
49F
100
AcDbEntity
  8
1
100
AcDbLine
 10
8.985922999999999
 20
1.453565999999999
 30
0.0
 11
8.999613
 21
1.450483
 31
0.0
  0
LINE
  5
94
330
49F
100
AcDbEntity
  8
1
100
AcDbLine
 10
8.999613
 20
1.450483
 30
0.0
 11
9.012159999999999
 21
1.4473
 31
0.0
  0
LINE
  5
95
330
49F
100
AcDbEntity
  8
1
100
AcDbLine
 10
9.012159999999999
 20
1.4473
 30
0.0
 11
9.023561
 21
1.44401
 31
0.0
  0
LINE
  5
96
330
49F
100
AcDbEntity
  8
1
100
AcDbLine
 10
9.023561
 20
1.44401
 30
0.0
 11
9.033846
 21
1.440596
 31
0.0
  0
LINE
  5
97
330
49F
100
AcDbEntity
  8
1
100
AcDbLine
 10
9.033846
 20
1.440596
 30
0.0
 11
9.043134
 21
1.437086
 31
0.0
  0
LINE
  5
98
330
49F
100
AcDbEntity
  8
1
100
AcDbLine
 10
9.043134
 20
1.437086
 30
0.0
 11
9.051439
 21
1.433486
 31
0.0
  0
LINE
  5
99
330
49F
100
AcDbEntity
  8
1
100
AcDbLine
 10
9.051439
 20
1.433486
 30
0.0
 11
9.058767999999998
 21
1.429771999999999
 31
0.0
  0
LINE
  5
9A
330
49F
100
AcDbEntity
  8
1
100
AcDbLine
 10
9.058767999999998
 20
1.429771999999999
 30
0.0
 11
9.065227
 21
1.425947999999999
 31
0.0
  0
LINE
  5
9B
330
49F
100
AcDbEntity
  8
1
100
AcDbLine
 10
9.065227
 20
1.425947999999999
 30
0.0
 11
9.070836999999999
 21
1.422012
 31
0.0
  0
LINE
  5
9C
330
49F
100
AcDbEntity
  8
1
100
AcDbLine
 10
9.070836999999999
 20
1.422012
 30
0.0
 11
9.075585
 21
1.41796
 31
0.0
  0
LINE
  5
9D
330
49F
100
AcDbEntity
  8
1
100
AcDbLine
 10
9.075585
 20
1.41796
 30
0.0
 11
9.079511
 21
1.413799999999999
 31
0.0
  0
LINE
  5
9E
330
49F
100
AcDbEntity
  8
1
100
AcDbLine
 10
9.079511
 20
1.413799999999999
 30
0.0
 11
9.082622
 21
1.409530999999999
 31
0.0
  0
LINE
  5
9F
330
49F
100
AcDbEntity
  8
1
100
AcDbLine
 10
9.082622
 20
1.409530999999999
 30
0.0
 11
9.084914999999998
 21
1.405151
 31
0.0
  0
LINE
  5
A0
330
49F
100
AcDbEntity
  8
1
100
AcDbLine
 10
9.084914999999998
 20
1.405151
 30
0.0
 11
9.086414999999998
 21
1.400663999999999
 31
0.0
  0
LINE
  5
A1
330
49F
100
AcDbEntity
  8
1
100
AcDbLine
 10
9.086414999999998
 20
1.400663999999999
 30
0.0
 11
9.087128999999999
 21
1.396074999999999
 31
0.0
  0
LINE
  5
A2
330
49F
100
AcDbEntity
  8
1
100
AcDbLine
 10
9.087128999999999
 20
1.396074999999999
 30
0.0
 11
9.087050999999998
 21
1.391379999999999
 31
0.0
  0
LINE
  5
A3
330
49F
100
AcDbEntity
  8
1
100
AcDbLine
 10
9.087050999999998
 20
1.391379999999999
 30
0.0
 11
9.086182
 21
1.386581999999999
 31
0.0
  0
LINE
  5
A4
330
49F
100
AcDbEntity
  8
1
100
AcDbLine
 10
8.306585
 20
1.481079999999999
 30
0.0
 11
8.405333
 21
1.482032999999999
 31
0.0
  0
LINE
  5
A5
330
49F
100
AcDbEntity
  8
1
100
AcDbLine
 10
10.940205
 20
1.373764999999999
 30
0.0
 11
10.374664
 21
1.232521999999999
 31
0.0
  0
LINE
  5
A6
330
49F
100
AcDbEntity
  8
1
100
AcDbLine
 10
11.49974
 20
1.514202
 30
0.0
 11
10.940205
 21
1.373764999999999
 31
0.0
  0
LINE
  5
A7
330
49F
100
AcDbEntity
  8
1
100
AcDbLine
 10
8.793661
 20
-2.469570999999999
 30
0.0
 11
9.039761
 21
-2.410861
 31
0.0
  0
LINE
  5
A8
330
49F
100
AcDbEntity
  8
1
100
AcDbLine
 10
12.998294
 20
-3.525469
 30
0.0
 11
12.94236
 21
-3.24913
 31
0.0
  0
LINE
  5
A9
330
49F
100
AcDbEntity
  8
1
100
AcDbLine
 10
12.94236
 20
-3.24913
 30
0.0
 11
12.888396
 21
-2.977177999999999
 31
0.0
  0
LINE
  5
AA
330
49F
100
AcDbEntity
  8
1
100
AcDbLine
 10
12.888396
 20
-2.977177999999999
 30
0.0
 11
12.836402
 21
-2.70961
 31
0.0
  0
LINE
  5
AB
330
49F
100
AcDbEntity
  8
1
100
AcDbLine
 10
12.836402
 20
-2.70961
 30
0.0
 11
12.786376
 21
-2.446422
 31
0.0
  0
LINE
  5
AC
330
49F
100
AcDbEntity
  8
1
100
AcDbLine
 10
12.786376
 20
-2.446422
 30
0.0
 11
12.73832
 21
-2.187621
 31
0.0
  0
LINE
  5
AD
330
49F
100
AcDbEntity
  8
1
100
AcDbLine
 10
12.692238
 20
-1.933222
 30
0.0
 11
12.648133
 21
-1.68323
 31
0.0
  0
LINE
  5
AE
330
49F
100
AcDbEntity
  8
1
100
AcDbLine
 10
12.648133
 20
-1.68323
 30
0.0
 11
12.606002
 21
-1.437640999999999
 31
0.0
  0
LINE
  5
AF
330
49F
100
AcDbEntity
  8
1
100
AcDbLine
 10
12.606002
 20
-1.437640999999999
 30
0.0
 11
12.565846
 21
-1.196454999999999
 31
0.0
  0
LINE
  5
B0
330
49F
100
AcDbEntity
  8
1
100
AcDbLine
 10
13.016135
 20
-3.574895999999999
 30
0.0
 11
13.033915
 21
-3.623423999999999
 31
0.0
  0
LINE
  5
B1
330
49F
100
AcDbEntity
  8
1
100
AcDbLine
 10
13.033915
 20
-3.623423999999999
 30
0.0
 11
13.052281
 21
-3.671926999999999
 31
0.0
  0
LINE
  5
B2
330
49F
100
AcDbEntity
  8
1
100
AcDbLine
 10
4.252399999999999
 20
-5.48324
 30
0.0
 11
4.166201
 21
-5.308691
 31
0.0
  0
LINE
  5
B3
330
49F
100
AcDbEntity
  8
1
100
AcDbLine
 10
13.052281
 20
-3.671926999999999
 30
0.0
 11
13.071233
 21
-3.720410999999999
 31
0.0
  0
LINE
  5
B4
330
49F
100
AcDbEntity
  8
1
100
AcDbLine
 10
13.090771
 20
-3.768869999999999
 30
0.0
 11
13.110896
 21
-3.817306999999999
 31
0.0
  0
LINE
  5
B5
330
49F
100
AcDbEntity
  8
1
100
AcDbLine
 10
12.998294
 20
-3.525469
 30
0.0
 11
12.998941
 21
-3.526345999999999
 31
0.0
  0
LINE
  5
B6
330
49F
100
AcDbEntity
  8
1
100
AcDbLine
 10
14.5
 20
-2.965574999999999
 30
0.0
 11
14.5
 21
3.389405999999999
 31
0.0
  0
LINE
  5
B7
330
49F
100
AcDbEntity
  8
1
100
AcDbLine
 10
12.998941
 20
-3.526345999999999
 30
0.0
 11
14.5
 21
-2.605967999999999
 31
0.0
  0
LINE
  5
B8
330
49F
100
AcDbEntity
  8
1
100
AcDbLine
 10
12.6
 20
1.792424
 30
0.0
 11
12.6
 21
-1.091425
 31
0.0
  0
LINE
  5
B9
330
49F
100
AcDbEntity
  8
1
100
AcDbLine
 10
14.0
 20
-0.112917
 30
0.0
 11
13.856957
 21
-0.215573
 31
0.0
  0
LINE
  5
BA
330
49F
100
AcDbEntity
  8
1
100
AcDbLine
 10
5.195032
 20
1.747372
 30
0.0
 11
5.075419999999999
 21
1.948072999999999
 31
0.0
  0
LINE
  5
BB
330
49F
100
AcDbEntity
  8
1
100
AcDbLine
 10
5.075419999999999
 20
1.948072999999999
 30
0.0
 11
4.959532
 21
2.149693999999999
 31
0.0
  0
LINE
  5
BC
330
49F
100
AcDbEntity
  8
1
100
AcDbLine
 10
13.561643
 20
-0.425344
 30
0.0
 11
13.409443
 21
-0.532419
 31
0.0
  0
LINE
  5
BD
330
49F
100
AcDbEntity
  8
1
100
AcDbLine
 10
4.847376
 20
2.352330999999999
 30
0.0
 11
4.738944999999999
 21
2.555611999999999
 31
0.0
  0
LINE
  5
BE
330
49F
100
AcDbEntity
  8
1
100
AcDbLine
 10
13.254168
 20
-0.640979
 30
0.0
 11
13.095607
 21
-0.7511479999999999
 31
0.0
  0
LINE
  5
BF
330
49F
100
AcDbEntity
  8
1
100
AcDbLine
 10
4.63422
 20
2.758709
 30
0.0
 11
4.533191999999999
 21
2.961463999999999
 31
0.0
  0
LINE
  5
C0
330
49F
100
AcDbEntity
  8
1
100
AcDbLine
 10
12.93369
 20
-0.8629649999999999
 30
0.0
 11
12.768488
 21
-0.9763899999999999
 31
0.0
  0
LINE
  5
C1
330
49F
100
AcDbEntity
  8
1
100
AcDbLine
 10
4.435869999999999
 20
3.163761
 30
0.0
 11
4.342264
 21
3.364862999999999
 31
0.0
  0
LINE
  5
C2
330
49F
100
AcDbEntity
  8
1
100
AcDbLine
 10
14.0
 20
0.4029170000000001
 30
0.0
 11
14.469632
 21
0.271846
 31
0.0
  0
LINE
  5
C3
330
49F
100
AcDbEntity
  8
1
100
AcDbLine
 10
14.0
 20
0.274772
 30
0.0
 11
14.243743
 21
0.206745
 31
0.0
  0
LINE
  5
C4
330
49F
100
AcDbEntity
  8
1
100
AcDbLine
 10
14.0
 20
0.136498
 30
0.0
 11
14.5
 21
0.280597
 31
0.0
  0
LINE
  5
C5
330
49F
100
AcDbEntity
  8
1
100
AcDbLine
 10
14.0
 20
-3.504351999999999
 30
0.0
 11
13.285441
 21
-3.710284999999999
 31
0.0
  0
LINE
  5
C6
330
49F
100
AcDbEntity
  8
1
100
AcDbLine
 10
8.793661
 20
8.816406
 30
0.0
 11
8.565317999999999
 21
8.836543999999999
 31
0.0
  0
LINE
  5
C7
330
49F
100
AcDbEntity
  8
1
100
AcDbLine
 10
8.565317999999999
 20
8.836543999999999
 30
0.0
 11
7.96595
 21
8.884677999999999
 31
0.0
  0
LINE
  5
C8
330
49F
100
AcDbEntity
  8
1
100
AcDbLine
 10
7.96595
 20
8.884677999999999
 30
0.0
 11
7.362538999999999
 21
8.928352
 31
0.0
  0
LINE
  5
C9
330
49F
100
AcDbEntity
  8
1
100
AcDbLine
 10
7.362538999999999
 20
8.928352
 30
0.0
 11
6.755033999999999
 21
8.967546
 31
0.0
  0
LINE
  5
CA
330
49F
100
AcDbEntity
  8
1
100
AcDbLine
 10
6.755033999999999
 20
8.967546
 30
0.0
 11
6.143487
 21
9.002280999999999
 31
0.0
  0
LINE
  5
CB
330
49F
100
AcDbEntity
  8
1
100
AcDbLine
 10
6.143487
 20
9.002280999999999
 30
0.0
 11
5.529310999999999
 21
9.032405
 31
0.0
  0
LINE
  5
CC
330
49F
100
AcDbEntity
  8
1
100
AcDbLine
 10
5.529310999999999
 20
9.032405
 30
0.0
 11
4.912975
 21
9.057871
 31
0.0
  0
LINE
  5
CD
330
49F
100
AcDbEntity
  8
1
100
AcDbLine
 10
4.912975
 20
9.057871
 30
0.0
 11
4.29401
 21
9.078727
 31
0.0
  0
LINE
  5
CE
330
49F
100
AcDbEntity
  8
1
100
AcDbLine
 10
4.29401
 20
9.078727
 30
0.0
 11
4.113271
 21
9.083449999999999
 31
0.0
  0
LINE
  5
CF
330
49F
100
AcDbEntity
  8
1
100
AcDbLine
 10
10.089626
 20
8.410538
 30
0.0
 11
9.950966000000001
 21
8.397883
 31
0.0
  0
LINE
  5
D0
330
49F
100
AcDbEntity
  8
1
100
AcDbLine
 10
10.634695
 20
-8.812172999999999
 30
0.0
 11
11.026525
 21
-8.768062999999999
 31
0.0
  0
LINE
  5
D1
330
49F
100
AcDbEntity
  8
1
100
AcDbLine
 10
9.950966000000001
 20
8.397883
 30
0.0
 11
9.811427999999999
 21
8.386483999999999
 31
0.0
  0
LINE
  5
D2
330
49F
100
AcDbEntity
  8
1
100
AcDbLine
 10
9.811427999999999
 20
8.386483999999999
 30
0.0
 11
9.671011
 21
8.376371
 31
0.0
  0
LINE
  5
D3
330
49F
100
AcDbEntity
  8
1
100
AcDbLine
 10
9.671011
 20
8.376371
 30
0.0
 11
9.529742
 21
8.367597999999999
 31
0.0
  0
LINE
  5
D4
330
49F
100
AcDbEntity
  8
1
100
AcDbLine
 10
9.529742
 20
8.367597999999999
 30
0.0
 11
9.387596
 21
8.360165
 31
0.0
  0
LINE
  5
D5
330
49F
100
AcDbEntity
  8
1
100
AcDbLine
 10
9.387596
 20
8.360165
 30
0.0
 11
9.244488999999999
 21
8.354002000000001
 31
0.0
  0
LINE
  5
D6
330
49F
100
AcDbEntity
  8
1
100
AcDbLine
 10
9.244488999999999
 20
8.354002000000001
 30
0.0
 11
9.100427999999999
 21
8.349123999999999
 31
0.0
  0
LINE
  5
D7
330
49F
100
AcDbEntity
  8
1
100
AcDbLine
 10
9.100427999999999
 20
8.349123999999999
 30
0.0
 11
8.955408
 21
8.345544
 31
0.0
  0
LINE
  5
D8
330
49F
100
AcDbEntity
  8
1
100
AcDbLine
 10
8.955408
 20
8.345544
 30
0.0
 11
8.809324999999999
 21
8.343200999999998
 31
0.0
  0
LINE
  5
D9
330
49F
100
AcDbEntity
  8
1
100
AcDbLine
 10
8.809324999999999
 20
8.343200999999998
 30
0.0
 11
8.662296000000001
 21
8.342089999999998
 31
0.0
  0
LINE
  5
DA
330
49F
100
AcDbEntity
  8
1
100
AcDbLine
 10
8.662296000000001
 20
8.342089999999998
 30
0.0
 11
8.514205
 21
8.342221
 31
0.0
  0
LINE
  5
DB
330
49F
100
AcDbEntity
  8
1
100
AcDbLine
 10
8.514205
 20
8.342221
 30
0.0
 11
8.364605
 21
8.343543999999999
 31
0.0
  0
LINE
  5
DC
330
49F
100
AcDbEntity
  8
1
100
AcDbLine
 10
8.364605
 20
8.343543999999999
 30
0.0
 11
8.213452
 21
8.346047999999999
 31
0.0
  0
LINE
  5
DD
330
49F
100
AcDbEntity
  8
1
100
AcDbLine
 10
13.409443
 20
-0.532419
 30
0.0
 11
13.254168
 21
-0.640979
 31
0.0
  0
LINE
  5
DE
330
49F
100
AcDbEntity
  8
1
100
AcDbLine
 10
8.213452
 20
8.346047999999999
 30
0.0
 11
8.060789999999999
 21
8.349736
 31
0.0
  0
LINE
  5
DF
330
49F
100
AcDbEntity
  8
1
100
AcDbLine
 10
8.060789999999999
 20
8.349736
 30
0.0
 11
7.906299999999999
 21
8.354580999999999
 31
0.0
  0
LINE
  5
E0
330
49F
100
AcDbEntity
  8
1
100
AcDbLine
 10
7.906299999999999
 20
8.354580999999999
 30
0.0
 11
7.749947999999999
 21
8.360567999999998
 31
0.0
  0
LINE
  5
E1
330
49F
100
AcDbEntity
  8
1
100
AcDbLine
 10
7.749947999999999
 20
8.360567999999998
 30
0.0
 11
7.591767999999999
 21
8.367688000000001
 31
0.0
  0
LINE
  5
E2
330
49F
100
AcDbEntity
  8
1
100
AcDbLine
 10
7.591767999999999
 20
8.367688000000001
 30
0.0
 11
7.431544
 21
8.375917999999998
 31
0.0
  0
LINE
  5
E3
330
49F
100
AcDbEntity
  8
1
100
AcDbLine
 10
7.431544
 20
8.375917999999998
 30
0.0
 11
7.269294
 21
8.385234999999999
 31
0.0
  0
LINE
  5
E4
330
49F
100
AcDbEntity
  8
1
100
AcDbLine
 10
7.269294
 20
8.385234999999999
 30
0.0
 11
7.105
 21
8.395622999999998
 31
0.0
  0
LINE
  5
E5
330
49F
100
AcDbEntity
  8
1
100
AcDbLine
 10
7.105
 20
8.395622999999998
 30
0.0
 11
6.938391
 21
8.407066
 31
0.0
  0
LINE
  5
E6
330
49F
100
AcDbEntity
  8
1
100
AcDbLine
 10
6.769532
 20
8.419525
 30
0.0
 11
6.598358999999999
 21
8.432983
 31
0.0
  0
LINE
  5
E7
330
49F
100
AcDbEntity
  8
1
100
AcDbLine
 10
6.598358999999999
 20
8.432983
 30
0.0
 11
6.424404
 21
8.44744
 31
0.0
  0
LINE
  5
E8
330
49F
100
AcDbEntity
  8
1
100
AcDbLine
 10
6.424404
 20
8.44744
 30
0.0
 11
6.247622999999999
 21
8.462861999999999
 31
0.0
  0
LINE
  5
E9
330
49F
100
AcDbEntity
  8
1
100
AcDbLine
 10
6.247622999999999
 20
8.462861999999999
 30
0.0
 11
6.068061
 21
8.47921
 31
0.0
  0
LINE
  5
EA
330
49F
100
AcDbEntity
  8
1
100
AcDbLine
 10
6.068061
 20
8.47921
 30
0.0
 11
5.885387
 21
8.496475999999999
 31
0.0
  0
LINE
  5
EB
330
49F
100
AcDbEntity
  8
1
100
AcDbLine
 10
5.885387
 20
8.496475999999999
 30
0.0
 11
5.699493
 21
8.514623
 31
0.0
  0
LINE
  5
EC
330
49F
100
AcDbEntity
  8
1
100
AcDbLine
 10
5.699493
 20
8.514623
 30
0.0
 11
5.510487
 21
8.533594
 31
0.0
  0
LINE
  5
ED
330
49F
100
AcDbEntity
  8
1
100
AcDbLine
 10
5.510487
 20
8.533594
 30
0.0
 11
5.318369
 21
8.553335999999999
 31
0.0
  0
LINE
  5
EE
330
49F
100
AcDbEntity
  8
1
100
AcDbLine
 10
8.793661
 20
6.411316
 30
0.0
 11
8.565317999999999
 21
6.355576999999999
 31
0.0
  0
LINE
  5
EF
330
49F
100
AcDbEntity
  8
1
100
AcDbLine
 10
8.565317999999999
 20
6.355576999999999
 30
0.0
 11
7.96595
 21
6.206908999999999
 31
0.0
  0
LINE
  5
F0
330
49F
100
AcDbEntity
  8
1
100
AcDbLine
 10
7.96595
 20
6.206908999999999
 30
0.0
 11
7.362538999999999
 21
6.054844999999999
 31
0.0
  0
LINE
  5
F1
330
49F
100
AcDbEntity
  8
1
100
AcDbLine
 10
7.362538999999999
 20
6.054844999999999
 30
0.0
 11
6.755033999999999
 21
5.899360999999999
 31
0.0
  0
LINE
  5
F2
330
49F
100
AcDbEntity
  8
1
100
AcDbLine
 10
6.755033999999999
 20
5.899360999999999
 30
0.0
 11
6.143487
 21
5.740483
 31
0.0
  0
LINE
  5
F3
330
49F
100
AcDbEntity
  8
1
100
AcDbLine
 10
6.143487
 20
5.740483
 30
0.0
 11
5.529310999999999
 21
5.578541
 31
0.0
  0
LINE
  5
F4
330
49F
100
AcDbEntity
  8
1
100
AcDbLine
 10
5.529310999999999
 20
5.578541
 30
0.0
 11
4.912975
 21
5.413648
 31
0.0
  0
LINE
  5
F5
330
49F
100
AcDbEntity
  8
1
100
AcDbLine
 10
4.912975
 20
5.413648
 30
0.0
 11
4.29401
 21
5.245693
 31
0.0
  0
LINE
  5
F6
330
49F
100
AcDbEntity
  8
1
100
AcDbLine
 10
4.29401
 20
5.245693
 30
0.0
 11
3.672413999999999
 21
5.074673999999999
 31
0.0
  0
LINE
  5
F7
330
49F
100
AcDbEntity
  8
1
100
AcDbLine
 10
8.293661
 20
5.136433999999999
 30
0.0
 11
8.130219999999999
 21
5.090596999999999
 31
0.0
  0
LINE
  5
F8
330
49F
100
AcDbEntity
  8
1
100
AcDbLine
 10
7.804553
 20
5.006782
 30
0.0
 11
7.642195
 21
4.968774999999999
 31
0.0
  0
LINE
  5
F9
330
49F
100
AcDbEntity
  8
1
100
AcDbLine
 10
7.642195
 20
4.968774999999999
 30
0.0
 11
7.480241999999999
 21
4.93339
 31
0.0
  0
LINE
  5
FA
330
49F
100
AcDbEntity
  8
1
100
AcDbLine
 10
7.480241999999999
 20
4.93339
 30
0.0
 11
7.319085
 21
4.900707999999999
 31
0.0
  0
LINE
  5
FB
330
49F
100
AcDbEntity
  8
1
100
AcDbLine
 10
7.319085
 20
4.900707999999999
 30
0.0
 11
7.158727
 21
4.870737999999999
 31
0.0
  0
LINE
  5
FC
330
49F
100
AcDbEntity
  8
1
100
AcDbLine
 10
7.158727
 20
4.870737999999999
 30
0.0
 11
6.999166999999999
 21
4.843473
 31
0.0
  0
LINE
  5
FD
330
49F
100
AcDbEntity
  8
1
100
AcDbLine
 10
6.999166999999999
 20
4.843473
 30
0.0
 11
6.840794999999999
 21
4.81898
 31
0.0
  0
LINE
  5
FE
330
49F
100
AcDbEntity
  8
1
100
AcDbLine
 10
11.246366
 20
-4.061103
 30
0.0
 11
10.806634
 21
-4.193017
 31
0.0
  0
LINE
  5
FF
330
49F
100
AcDbEntity
  8
1
100
AcDbLine
 10
6.840794999999999
 20
4.81898
 30
0.0
 11
6.683616999999999
 21
4.797266
 31
0.0
  0
LINE
  5
100
330
49F
100
AcDbEntity
  8
1
100
AcDbLine
 10
6.683616999999999
 20
4.797266
 30
0.0
 11
6.527626999999999
 21
4.778323999999999
 31
0.0
  0
LINE
  5
101
330
49F
100
AcDbEntity
  8
1
100
AcDbLine
 10
6.527626999999999
 20
4.778323999999999
 30
0.0
 11
6.373208999999999
 21
4.762201
 31
0.0
  0
LINE
  5
102
330
49F
100
AcDbEntity
  8
1
100
AcDbLine
 10
7.967185
 20
5.047379
 30
0.0
 11
7.804553
 21
5.006782
 31
0.0
  0
LINE
  5
103
330
49F
100
AcDbEntity
  8
1
100
AcDbLine
 10
6.373208999999999
 20
4.762201
 30
0.0
 11
6.220366
 21
4.748901999999999
 31
0.0
  0
LINE
  5
104
330
49F
100
AcDbEntity
  8
1
100
AcDbLine
 10
6.220366
 20
4.748901999999999
 30
0.0
 11
6.069094
 21
4.738420999999999
 31
0.0
  0
LINE
  5
105
330
49F
100
AcDbEntity
  8
1
100
AcDbLine
 10
6.069094
 20
4.738420999999999
 30
0.0
 11
5.919762999999999
 21
4.730785
 31
0.0
  0
LINE
  5
106
330
49F
100
AcDbEntity
  8
1
100
AcDbLine
 10
5.919762999999999
 20
4.730785
 30
0.0
 11
5.772378999999999
 21
4.725998999999999
 31
0.0
  0
LINE
  5
107
330
49F
100
AcDbEntity
  8
1
100
AcDbLine
 10
5.772378999999999
 20
4.725998999999999
 30
0.0
 11
5.626935999999999
 21
4.724056
 31
0.0
  0
LINE
  5
108
330
49F
100
AcDbEntity
  8
1
100
AcDbLine
 10
5.626935999999999
 20
4.724056
 30
0.0
 11
5.483791
 21
4.724962
 31
0.0
  0
LINE
  5
109
330
49F
100
AcDbEntity
  8
1
100
AcDbLine
 10
5.483791
 20
4.724962
 30
0.0
 11
5.342948999999999
 21
4.728723
 31
0.0
  0
LINE
  5
10A
330
49F
100
AcDbEntity
  8
1
100
AcDbLine
 10
5.342948999999999
 20
4.728723
 30
0.0
 11
5.204404
 21
4.735332999999999
 31
0.0
  0
LINE
  5
10B
330
49F
100
AcDbEntity
  8
1
100
AcDbLine
 10
12.998294
 20
-9.425763999999999
 30
0.0
 11
12.998941
 21
-9.425900999999999
 31
0.0
  0
LINE
  5
10C
330
49F
100
AcDbEntity
  8
1
100
AcDbLine
 10
5.204404
 20
4.735332999999999
 30
0.0
 11
5.068495999999999
 21
4.744773999999999
 31
0.0
  0
LINE
  5
10D
330
49F
100
AcDbEntity
  8
1
100
AcDbLine
 10
14.5
 20
-2.965574999999999
 30
0.0
 11
13.110896
 21
-3.817306999999999
 31
0.0
  0
LINE
  5
10E
330
49F
100
AcDbEntity
  8
1
100
AcDbLine
 10
5.068495999999999
 20
4.744773999999999
 30
0.0
 11
4.935230999999999
 21
4.757055
 31
0.0
  0
LINE
  5
10F
330
49F
100
AcDbEntity
  8
1
100
AcDbLine
 10
4.935230999999999
 20
4.757055
 30
0.0
 11
4.804603
 21
4.772167999999999
 31
0.0
  0
LINE
  5
110
330
49F
100
AcDbEntity
  8
1
100
AcDbLine
 10
4.804603
 20
4.772167999999999
 30
0.0
 11
4.676931999999999
 21
4.790076
 31
0.0
  0
LINE
  5
111
330
49F
100
AcDbEntity
  8
1
100
AcDbLine
 10
4.676931999999999
 20
4.790076
 30
0.0
 11
4.552223999999999
 21
4.810786
 31
0.0
  0
LINE
  5
112
330
49F
100
AcDbEntity
  8
1
100
AcDbLine
 10
4.552223999999999
 20
4.810786
 30
0.0
 11
4.430473
 21
4.834292999999999
 31
0.0
  0
LINE
  5
113
330
49F
100
AcDbEntity
  8
1
100
AcDbLine
 10
4.430473
 20
4.834292999999999
 30
0.0
 11
4.311976999999999
 21
4.860535999999999
 31
0.0
  0
LINE
  5
114
330
49F
100
AcDbEntity
  8
1
100
AcDbLine
 10
4.311976999999999
 20
4.860535999999999
 30
0.0
 11
4.196742999999999
 21
4.889523
 31
0.0
  0
LINE
  5
115
330
49F
100
AcDbEntity
  8
1
100
AcDbLine
 10
4.196742999999999
 20
4.889523
 30
0.0
 11
4.084763999999999
 21
4.921248999999999
 31
0.0
  0
LINE
  5
116
330
49F
100
AcDbEntity
  8
1
100
AcDbLine
 10
4.084763999999999
 20
4.921248999999999
 30
0.0
 11
3.976314999999999
 21
4.955633999999999
 31
0.0
  0
LINE
  5
117
330
49F
100
AcDbEntity
  8
1
100
AcDbLine
 10
3.976314999999999
 20
4.955633999999999
 30
0.0
 11
3.871484999999999
 21
4.992652999999999
 31
0.0
  0
LINE
  5
118
330
49F
100
AcDbEntity
  8
1
100
AcDbLine
 10
3.871484999999999
 20
4.992652999999999
 30
0.0
 11
3.770184999999999
 21
5.032333999999999
 31
0.0
  0
LINE
  5
119
330
49F
100
AcDbEntity
  8
1
100
AcDbLine
 10
3.770184999999999
 20
5.032333999999999
 30
0.0
 11
3.672413999999999
 21
5.074673999999999
 31
0.0
  0
LINE
  5
11A
330
49F
100
AcDbEntity
  8
1
100
AcDbLine
 10
0.0
 20
9.115322
 30
0.0
 11
3.850466
 21
9.115322
 31
0.0
  0
LINE
  5
11B
330
49F
100
AcDbEntity
  8
1
100
AcDbLine
 10
5.318369
 20
8.553335999999999
 30
0.0
 11
5.194098
 21
8.621883999999999
 31
0.0
  0
LINE
  5
11C
330
49F
100
AcDbEntity
  8
1
100
AcDbLine
 10
5.194098
 20
8.621883999999999
 30
0.0
 11
5.073507
 21
8.686761999999999
 31
0.0
  0
LINE
  5
11D
330
49F
100
AcDbEntity
  8
1
100
AcDbLine
 10
5.073507
 20
8.686761999999999
 30
0.0
 11
4.956596
 21
8.747792999999999
 31
0.0
  0
LINE
  5
11E
330
49F
100
AcDbEntity
  8
1
100
AcDbLine
 10
4.956596
 20
8.747792999999999
 30
0.0
 11
4.843312
 21
8.804892999999999
 31
0.0
  0
LINE
  5
11F
330
49F
100
AcDbEntity
  8
1
100
AcDbLine
 10
4.843312
 20
8.804892999999999
 30
0.0
 11
4.733706999999999
 21
8.857772999999999
 31
0.0
  0
LINE
  5
120
330
49F
100
AcDbEntity
  8
1
100
AcDbLine
 10
4.733706999999999
 20
8.857772999999999
 30
0.0
 11
4.627942
 21
8.906029999999999
 31
0.0
  0
LINE
  5
121
330
49F
100
AcDbEntity
  8
1
100
AcDbLine
 10
4.738944999999999
 20
2.555611999999999
 30
0.0
 11
4.63422
 21
2.758709
 31
0.0
  0
LINE
  5
122
330
49F
100
AcDbEntity
  8
1
100
AcDbLine
 10
4.627942
 20
8.906029999999999
 30
0.0
 11
4.526074999999999
 21
8.949529
 31
0.0
  0
LINE
  5
123
330
49F
100
AcDbEntity
  8
1
100
AcDbLine
 10
4.526074999999999
 20
8.949529
 30
0.0
 11
4.428047
 21
8.988198999999999
 31
0.0
  0
LINE
  5
124
330
49F
100
AcDbEntity
  8
1
100
AcDbLine
 10
4.428047
 20
8.988198999999999
 30
0.0
 11
4.33384
 21
9.021846999999999
 31
0.0
  0
LINE
  5
125
330
49F
100
AcDbEntity
  8
1
100
AcDbLine
 10
4.33384
 20
9.021846999999999
 30
0.0
 11
4.243387
 21
9.050430999999999
 31
0.0
  0
LINE
  5
126
330
49F
100
AcDbEntity
  8
1
100
AcDbLine
 10
4.243387
 20
9.050430999999999
 30
0.0
 11
4.156755
 21
9.073878
 31
0.0
  0
LINE
  5
127
330
49F
100
AcDbEntity
  8
1
100
AcDbLine
 10
4.156755
 20
9.073878
 30
0.0
 11
4.074127999999999
 21
9.092067
 31
0.0
  0
LINE
  5
128
330
49F
100
AcDbEntity
  8
1
100
AcDbLine
 10
4.074127999999999
 20
9.092067
 30
0.0
 11
3.995569
 21
9.105005
 31
0.0
  0
LINE
  5
129
330
49F
100
AcDbEntity
  8
1
100
AcDbLine
 10
3.995569
 20
9.105005
 30
0.0
 11
3.921015
 21
9.112747999999999
 31
0.0
  0
LINE
  5
12A
330
49F
100
AcDbEntity
  8
1
100
AcDbLine
 10
3.921015
 20
9.112747999999999
 30
0.0
 11
3.850466
 21
9.115322
 31
0.0
  0
LINE
  5
12B
330
49F
100
AcDbEntity
  8
1
100
AcDbLine
 10
14.5
 20
4.593519999999999
 30
0.0
 11
14.5
 21
8.563350999999999
 31
0.0
  0
LINE
  5
12C
330
49F
100
AcDbEntity
  8
1
100
AcDbLine
 10
14.0
 20
8.075769000000001
 30
0.0
 11
14.0
 21
7.324222999999999
 31
0.0
  0
LINE
  5
12D
330
49F
100
AcDbEntity
  8
1
100
AcDbLine
 10
12.6
 20
8.636188
 30
0.0
 11
12.6
 21
7.375685999999999
 31
0.0
  0
LINE
  5
12E
330
49F
100
AcDbEntity
  8
1
100
AcDbLine
 10
9.039761
 20
6.558936999999999
 30
0.0
 11
9.442638999999999
 21
6.656752
 31
0.0
  0
LINE
  5
12F
330
49F
100
AcDbEntity
  8
1
100
AcDbLine
 10
9.442638999999999
 20
6.656752
 30
0.0
 11
9.842753
 21
6.752830999999999
 31
0.0
  0
LINE
  5
130
330
49F
100
AcDbEntity
  8
1
100
AcDbLine
 10
9.842753
 20
6.752830999999999
 30
0.0
 11
10.240101
 21
6.847175
 31
0.0
  0
LINE
  5
131
330
49F
100
AcDbEntity
  8
1
100
AcDbLine
 10
10.240101
 20
6.847175
 30
0.0
 11
10.634695
 21
6.939778999999999
 31
0.0
  0
LINE
  5
132
330
49F
100
AcDbEntity
  8
1
100
AcDbLine
 10
10.634695
 20
6.939778999999999
 30
0.0
 11
11.026525
 21
7.030647999999999
 31
0.0
  0
LINE
  5
133
330
49F
100
AcDbEntity
  8
1
100
AcDbLine
 10
11.026525
 20
7.030647999999999
 30
0.0
 11
11.415558
 21
7.119797999999999
 31
0.0
  0
LINE
  5
134
330
49F
100
AcDbEntity
  8
1
100
AcDbLine
 10
11.415558
 20
7.119797999999999
 30
0.0
 11
11.801784
 21
7.207232
 31
0.0
  0
LINE
  5
135
330
49F
100
AcDbEntity
  8
1
100
AcDbLine
 10
11.801784
 20
7.207232
 30
0.0
 11
12.185213
 21
7.292946999999999
 31
0.0
  0
LINE
  5
136
330
49F
100
AcDbEntity
  8
1
100
AcDbLine
 10
12.185213
 20
7.292946999999999
 30
0.0
 11
12.565846
 21
7.376941
 31
0.0
  0
LINE
  5
137
330
49F
100
AcDbEntity
  8
1
100
AcDbLine
 10
12.998294
 20
5.900295999999999
 30
0.0
 11
12.561361
 21
5.784923
 31
0.0
  0
LINE
  5
138
330
49F
100
AcDbEntity
  8
1
100
AcDbLine
 10
12.561361
 20
5.784923
 30
0.0
 11
12.123729
 21
5.668078999999999
 31
0.0
  0
LINE
  5
139
330
49F
100
AcDbEntity
  8
1
100
AcDbLine
 10
12.123729
 20
5.668078999999999
 30
0.0
 11
11.685397
 21
5.549787
 31
0.0
  0
LINE
  5
13A
330
49F
100
AcDbEntity
  8
1
100
AcDbLine
 10
11.685397
 20
5.549787
 30
0.0
 11
11.246366
 21
5.430070999999999
 31
0.0
  0
LINE
  5
13B
330
49F
100
AcDbEntity
  8
1
100
AcDbLine
 10
11.246366
 20
5.430070999999999
 30
0.0
 11
10.806634
 21
5.308955
 31
0.0
  0
LINE
  5
13C
330
49F
100
AcDbEntity
  8
1
100
AcDbLine
 10
10.806634
 20
5.308955
 30
0.0
 11
10.366203
 21
5.186465
 31
0.0
  0
LINE
  5
13D
330
49F
100
AcDbEntity
  8
1
100
AcDbLine
 10
13.110896
 20
5.648839999999999
 30
0.0
 11
12.654922
 21
5.525168999999999
 31
0.0
  0
LINE
  5
13E
330
49F
100
AcDbEntity
  8
1
100
AcDbLine
 10
12.654922
 20
5.525168999999999
 30
0.0
 11
12.198358
 21
5.400108999999999
 31
0.0
  0
LINE
  5
13F
330
49F
100
AcDbEntity
  8
1
100
AcDbLine
 10
12.998941
 20
-3.526345999999999
 30
0.0
 11
13.016135
 21
-3.574895999999999
 31
0.0
  0
LINE
  5
140
330
49F
100
AcDbEntity
  8
1
100
AcDbLine
 10
12.198358
 20
5.400108999999999
 30
0.0
 11
11.741204
 21
5.273660999999999
 31
0.0
  0
LINE
  5
141
330
49F
100
AcDbEntity
  8
1
100
AcDbLine
 10
11.741204
 20
5.273660999999999
 30
0.0
 11
11.283461
 21
5.145826
 31
0.0
  0
LINE
  5
142
330
49F
100
AcDbEntity
  8
1
100
AcDbLine
 10
11.283461
 20
5.145826
 30
0.0
 11
10.825127
 21
5.016601
 31
0.0
  0
LINE
  5
143
330
49F
100
AcDbEntity
  8
1
100
AcDbLine
 10
10.825127
 20
5.016601
 30
0.0
 11
10.366203
 21
4.885987999999999
 31
0.0
  0
LINE
  5
144
330
49F
100
AcDbEntity
  8
1
100
AcDbLine
 10
4.083755
 20
3.959130999999999
 30
0.0
 11
4.005037
 21
4.153355
 31
0.0
  0
LINE
  5
145
330
49F
100
AcDbEntity
  8
1
100
AcDbLine
 10
9.566202999999999
 20
3.171618
 30
0.0
 11
14.5
 21
4.593519999999999
 31
0.0
  0
LINE
  5
146
330
49F
100
AcDbEntity
  8
1
100
AcDbLine
 10
14.0
 20
3.050486999999999
 30
0.0
 11
9.529728999999999
 21
1.762170999999999
 31
0.0
  0
LINE
  5
147
330
49F
100
AcDbEntity
  8
1
100
AcDbLine
 10
9.566202999999999
 20
4.583341
 30
0.0
 11
9.500638
 21
4.756609
 31
0.0
  0
LINE
  5
148
330
49F
100
AcDbEntity
  8
1
100
AcDbLine
 10
9.500638
 20
4.756609
 30
0.0
 11
9.43523
 21
4.927186999999999
 31
0.0
  0
LINE
  5
149
330
49F
100
AcDbEntity
  8
1
100
AcDbLine
 10
9.43523
 20
4.927186999999999
 30
0.0
 11
9.369982
 21
5.095076
 31
0.0
  0
LINE
  5
14A
330
49F
100
AcDbEntity
  8
1
100
AcDbLine
 10
9.369982
 20
5.095076
 30
0.0
 11
9.304857999999999
 21
5.260360999999999
 31
0.0
  0
LINE
  5
14B
330
49F
100
AcDbEntity
  8
1
100
AcDbLine
 10
9.304857999999999
 20
5.260360999999999
 30
0.0
 11
9.239891999999999
 21
5.422958
 31
0.0
  0
LINE
  5
14C
330
49F
100
AcDbEntity
  8
1
100
AcDbLine
 10
9.239891999999999
 20
5.422958
 30
0.0
 11
9.175190999999999
 21
5.582601
 31
0.0
  0
LINE
  5
14D
330
49F
100
AcDbEntity
  8
1
100
AcDbLine
 10
9.175190999999999
 20
5.582601
 30
0.0
 11
9.110755000000001
 21
5.739283999999999
 31
0.0
  0
LINE
  5
14E
330
49F
100
AcDbEntity
  8
1
100
AcDbLine
 10
9.110755000000001
 20
5.739283999999999
 30
0.0
 11
9.046583999999999
 21
5.893015
 31
0.0
  0
LINE
  5
14F
330
49F
100
AcDbEntity
  8
1
100
AcDbLine
 10
9.046583999999999
 20
5.893015
 30
0.0
 11
8.982778999999998
 21
6.043555
 31
0.0
  0
LINE
  5
150
330
49F
100
AcDbEntity
  8
1
100
AcDbLine
 10
8.982778999999998
 20
6.043555
 30
0.0
 11
8.919374000000001
 21
6.190826
 31
0.0
  0
LINE
  5
151
330
49F
100
AcDbEntity
  8
1
100
AcDbLine
 10
8.919374000000001
 20
6.190826
 30
0.0
 11
8.856334
 21
6.334906
 31
0.0
  0
LINE
  5
152
330
49F
100
AcDbEntity
  8
1
100
AcDbLine
 10
8.856334
 20
6.334906
 30
0.0
 11
8.793661
 21
6.475795999999999
 31
0.0
  0
LINE
  5
153
330
49F
100
AcDbEntity
  8
1
100
AcDbLine
 10
14.0
 20
-0.112917
 30
0.0
 11
14.0
 21
4.449422
 31
0.0
  0
LINE
  5
154
330
49F
100
AcDbEntity
  8
1
100
AcDbLine
 10
10.366203
 20
5.186465
 30
0.0
 11
10.366203
 21
4.885987999999999
 31
0.0
  0
LINE
  5
155
330
49F
100
AcDbEntity
  8
1
100
AcDbLine
 10
8.793661
 20
5.370174999999999
 30
0.0
 11
8.870915
 21
5.069641
 31
0.0
  0
LINE
  5
156
330
49F
100
AcDbEntity
  8
1
100
AcDbLine
 10
9.566202999999999
 20
3.171618
 30
0.0
 11
8.870915
 21
5.069641
 31
0.0
  0
LINE
  5
157
330
49F
100
AcDbEntity
  8
1
100
AcDbLine
 10
9.039761
 20
6.558936999999999
 30
0.0
 11
9.038839999999998
 21
6.49073
 31
0.0
  0
LINE
  5
158
330
49F
100
AcDbEntity
  8
1
100
AcDbLine
 10
9.038839999999998
 20
6.49073
 30
0.0
 11
9.042099999999999
 21
6.424046999999999
 31
0.0
  0
LINE
  5
159
330
49F
100
AcDbEntity
  8
1
100
AcDbLine
 10
9.042099999999999
 20
6.424046999999999
 30
0.0
 11
9.049540999999999
 21
6.358928999999999
 31
0.0
  0
LINE
  5
15A
330
49F
100
AcDbEntity
  8
1
100
AcDbLine
 10
9.049540999999999
 20
6.358928999999999
 30
0.0
 11
9.061069999999999
 21
6.295815
 31
0.0
  0
LINE
  5
15B
330
49F
100
AcDbEntity
  8
1
100
AcDbLine
 10
9.061069999999999
 20
6.295815
 30
0.0
 11
9.076781
 21
6.234345999999999
 31
0.0
  0
LINE
  5
15C
330
49F
100
AcDbEntity
  8
1
100
AcDbLine
 10
9.076781
 20
6.234345999999999
 30
0.0
 11
9.096957000000001
 21
6.173334999999999
 31
0.0
  0
LINE
  5
15D
330
49F
100
AcDbEntity
  8
1
100
AcDbLine
 10
9.096957000000001
 20
6.173334999999999
 30
0.0
 11
9.12142
 21
6.112484999999999
 31
0.0
  0
LINE
  5
15E
330
49F
100
AcDbEntity
  8
1
100
AcDbLine
 10
9.12142
 20
6.112484999999999
 30
0.0
 11
9.150347999999999
 21
6.052088999999999
 31
0.0
  0
LINE
  5
15F
330
49F
100
AcDbEntity
  8
1
100
AcDbLine
 10
9.150347999999999
 20
6.052088999999999
 30
0.0
 11
9.184563
 21
5.991787
 31
0.0
  0
LINE
  5
160
330
49F
100
AcDbEntity
  8
1
100
AcDbLine
 10
9.184563
 20
5.991787
 30
0.0
 11
9.224258999999999
 21
5.931201999999999
 31
0.0
  0
LINE
  5
161
330
49F
100
AcDbEntity
  8
1
100
AcDbLine
 10
9.224258999999999
 20
5.931201999999999
 30
0.0
 11
9.269241
 21
5.870674
 31
0.0
  0
LINE
  5
162
330
49F
100
AcDbEntity
  8
1
100
AcDbLine
 10
9.269241
 20
5.870674
 30
0.0
 11
9.319751
 21
5.810912
 31
0.0
  0
LINE
  5
163
330
49F
100
AcDbEntity
  8
1
100
AcDbLine
 10
9.319751
 20
5.810912
 30
0.0
 11
9.375904
 21
5.751992999999999
 31
0.0
  0
LINE
  5
164
330
49F
100
AcDbEntity
  8
1
100
AcDbLine
 10
9.375904
 20
5.751992999999999
 30
0.0
 11
9.437585
 21
5.693840999999999
 31
0.0
  0
LINE
  5
165
330
49F
100
AcDbEntity
  8
1
100
AcDbLine
 10
9.437585
 20
5.693840999999999
 30
0.0
 11
9.504686999999998
 21
5.636970999999999
 31
0.0
  0
LINE
  5
166
330
49F
100
AcDbEntity
  8
1
100
AcDbLine
 10
9.504686999999998
 20
5.636970999999999
 30
0.0
 11
9.577017999999998
 21
5.581587999999999
 31
0.0
  0
LINE
  5
167
330
49F
100
AcDbEntity
  8
1
100
AcDbLine
 10
9.577017999999998
 20
5.581587999999999
 30
0.0
 11
9.654769999999999
 21
5.527516999999999
 31
0.0
  0
LINE
  5
168
330
49F
100
AcDbEntity
  8
1
100
AcDbLine
 10
9.654769999999999
 20
5.527516999999999
 30
0.0
 11
9.738417999999999
 21
5.474704
 31
0.0
  0
LINE
  5
169
330
49F
100
AcDbEntity
  8
1
100
AcDbLine
 10
9.738417999999999
 20
5.474704
 30
0.0
 11
9.828075999999999
 21
5.423066999999999
 31
0.0
  0
LINE
  5
16A
330
49F
100
AcDbEntity
  8
1
100
AcDbLine
 10
9.828075999999999
 20
5.423066999999999
 30
0.0
 11
9.923631
 21
5.372701999999999
 31
0.0
  0
LINE
  5
16B
330
49F
100
AcDbEntity
  8
1
100
AcDbLine
 10
9.923631
 20
5.372701999999999
 30
0.0
 11
10.025208
 21
5.323825
 31
0.0
  0
LINE
  5
16C
330
49F
100
AcDbEntity
  8
1
100
AcDbLine
 10
10.025208
 20
5.323825
 30
0.0
 11
10.13285
 21
5.276520999999999
 31
0.0
  0
LINE
  5
16D
330
49F
100
AcDbEntity
  8
1
100
AcDbLine
 10
10.13285
 20
5.276520999999999
 30
0.0
 11
10.246515
 21
5.23073
 31
0.0
  0
LINE
  5
16E
330
49F
100
AcDbEntity
  8
1
100
AcDbLine
 10
10.246515
 20
5.23073
 30
0.0
 11
10.366203
 21
5.186465
 31
0.0
  0
LINE
  5
16F
330
49F
100
AcDbEntity
  8
1
100
AcDbLine
 10
9.566202999999999
 20
4.583341
 30
0.0
 11
9.566202999999999
 21
3.171618
 31
0.0
  0
LINE
  5
170
330
49F
100
AcDbEntity
  8
1
100
AcDbLine
 10
8.793661
 20
6.475795999999999
 30
0.0
 11
8.793661
 21
5.370174999999999
 31
0.0
  0
LINE
  5
171
330
49F
100
AcDbEntity
  8
1
100
AcDbLine
 10
8.816482999999999
 20
5.287109
 30
0.0
 11
8.293661
 21
5.136433999999999
 31
0.0
  0
LINE
  5
172
330
49F
100
AcDbEntity
  8
1
100
AcDbLine
 10
9.566202999999999
 20
4.583341
 30
0.0
 11
9.962766999999999
 21
4.733832999999999
 31
0.0
  0
LINE
  5
173
330
49F
100
AcDbEntity
  8
1
100
AcDbLine
 10
8.793661
 20
6.475795999999999
 30
0.0
 11
9.039761
 21
6.558936999999999
 31
0.0
  0
LINE
  5
174
330
49F
100
AcDbEntity
  8
1
100
AcDbLine
 10
12.998294
 20
5.900295999999999
 30
0.0
 11
12.94236
 21
6.077266999999999
 31
0.0
  0
LINE
  5
175
330
49F
100
AcDbEntity
  8
1
100
AcDbLine
 10
12.94236
 20
6.077266999999999
 30
0.0
 11
12.888396
 21
6.251014999999999
 31
0.0
  0
LINE
  5
176
330
49F
100
AcDbEntity
  8
1
100
AcDbLine
 10
12.888396
 20
6.251014999999999
 30
0.0
 11
12.836402
 21
6.421542999999999
 31
0.0
  0
LINE
  5
177
330
49F
100
AcDbEntity
  8
1
100
AcDbLine
 10
12.836402
 20
6.421542999999999
 30
0.0
 11
12.786376
 21
6.588852
 31
0.0
  0
LINE
  5
178
330
49F
100
AcDbEntity
  8
1
100
AcDbLine
 10
12.786376
 20
6.588852
 30
0.0
 11
12.73832
 21
6.752938999999999
 31
0.0
  0
LINE
  5
179
330
49F
100
AcDbEntity
  8
1
100
AcDbLine
 10
12.73832
 20
6.752938999999999
 30
0.0
 11
12.692238
 21
6.913792999999999
 31
0.0
  0
LINE
  5
17A
330
49F
100
AcDbEntity
  8
1
100
AcDbLine
 10
12.692238
 20
6.913792999999999
 30
0.0
 11
12.648133
 21
7.071409
 31
0.0
  0
LINE
  5
17B
330
49F
100
AcDbEntity
  8
1
100
AcDbLine
 10
12.606002
 20
7.225792
 30
0.0
 11
12.565846
 21
7.376941
 31
0.0
  0
LINE
  5
17C
330
49F
100
AcDbEntity
  8
1
100
AcDbLine
 10
12.998941
 20
5.899554
 30
0.0
 11
13.016121
 21
5.858430999999999
 31
0.0
  0
LINE
  5
17D
330
49F
100
AcDbEntity
  8
1
100
AcDbLine
 10
13.016121
 20
5.858430999999999
 30
0.0
 11
13.033893
 21
5.817041999999999
 31
0.0
  0
LINE
  5
17E
330
49F
100
AcDbEntity
  8
1
100
AcDbLine
 10
13.033893
 20
5.817041999999999
 30
0.0
 11
13.052257
 21
5.775387999999999
 31
0.0
  0
LINE
  5
17F
330
49F
100
AcDbEntity
  8
1
100
AcDbLine
 10
13.052257
 20
5.775387999999999
 30
0.0
 11
13.071212
 21
5.733469999999999
 31
0.0
  0
LINE
  5
180
330
49F
100
AcDbEntity
  8
1
100
AcDbLine
 10
13.071212
 20
5.733469999999999
 30
0.0
 11
13.090758
 21
5.691288
 31
0.0
  0
LINE
  5
181
330
49F
100
AcDbEntity
  8
1
100
AcDbLine
 10
13.090758
 20
5.691288
 30
0.0
 11
13.110896
 21
5.648839999999999
 31
0.0
  0
LINE
  5
182
330
49F
100
AcDbEntity
  8
1
100
AcDbLine
 10
12.998294
 20
5.900295999999999
 30
0.0
 11
12.998941
 21
5.899554
 31
0.0
  0
LINE
  5
183
330
49F
100
AcDbEntity
  8
1
100
AcDbLine
 10
14.5
 20
3.389405999999999
 30
0.0
 11
14.0
 21
3.705935999999999
 31
0.0
  0
LINE
  5
184
330
49F
100
AcDbEntity
  8
1
100
AcDbLine
 10
14.0
 20
2.435036999999999
 30
0.0
 11
14.5
 21
2.295491
 31
0.0
  0
LINE
  5
185
330
49F
100
AcDbEntity
  8
1
100
AcDbLine
 10
14.5
 20
7.305842999999999
 30
0.0
 11
12.565846
 21
7.376941
 31
0.0
  0
LINE
  5
186
330
49F
100
AcDbEntity
  8
1
100
AcDbLine
 10
13.410495
 20
2.155763
 30
0.0
 11
13.255239
 21
2.085484
 31
0.0
  0
LINE
  5
187
330
49F
100
AcDbEntity
  8
1
100
AcDbLine
 10
14.0
 20
2.426002999999999
 30
0.0
 11
13.711558
 21
2.293061999999999
 31
0.0
  0
LINE
  5
188
330
49F
100
AcDbEntity
  8
1
100
AcDbLine
 10
12.998941
 20
5.899554
 30
0.0
 11
14.5
 21
5.844376
 31
0.0
  0
LINE
  5
189
330
49F
100
AcDbEntity
  8
1
100
AcDbLine
 10
12.934456
 20
1.94134
 30
0.0
 11
12.6
 21
1.792424
 31
0.0
  0
LINE
  5
18A
330
49F
100
AcDbEntity
  8
1
100
AcDbLine
 10
12.6
 20
8.636188
 30
0.0
 11
12.327299
 21
8.613364
 31
0.0
  0
LINE
  5
18B
330
49F
100
AcDbEntity
  8
1
100
AcDbLine
 10
12.327299
 20
8.613364
 30
0.0
 11
12.053026
 21
8.589978
 31
0.0
  0
LINE
  5
18C
330
49F
100
AcDbEntity
  8
1
100
AcDbLine
 10
12.053026
 20
8.589978
 30
0.0
 11
11.777179
 21
8.566031
 31
0.0
  0
LINE
  5
18D
330
49F
100
AcDbEntity
  8
1
100
AcDbLine
 10
11.777179
 20
8.566031
 30
0.0
 11
11.49974
 21
8.541522
 31
0.0
  0
LINE
  5
18E
330
49F
100
AcDbEntity
  8
1
100
AcDbLine
 10
11.49974
 20
8.541522
 30
0.0
 11
11.220728
 21
8.516450999999999
 31
0.0
  0
LINE
  5
18F
330
49F
100
AcDbEntity
  8
1
100
AcDbLine
 10
11.220728
 20
8.516450999999999
 30
0.0
 11
10.940205
 21
8.490816999999999
 31
0.0
  0
LINE
  5
190
330
49F
100
AcDbEntity
  8
1
100
AcDbLine
 10
10.940205
 20
8.490816999999999
 30
0.0
 11
10.65819
 21
8.46462
 31
0.0
  0
LINE
  5
191
330
49F
100
AcDbEntity
  8
1
100
AcDbLine
 10
10.65819
 20
8.46462
 30
0.0
 11
10.374664
 21
8.437860999999999
 31
0.0
  0
LINE
  5
192
330
49F
100
AcDbEntity
  8
1
100
AcDbLine
 10
10.374664
 20
8.437860999999999
 30
0.0
 11
10.089626
 21
8.410538
 31
0.0
  0
LINE
  5
193
330
49F
100
AcDbEntity
  8
1
100
AcDbLine
 10
9.566202999999999
 20
9.378283999999998
 30
0.0
 11
9.566202999999999
 21
8.369863
 31
0.0
  0
LINE
  5
194
330
49F
100
AcDbEntity
  8
1
100
AcDbLine
 10
8.793661
 20
8.945366999999999
 30
0.0
 11
8.793661
 21
8.343082
 31
0.0
  0
LINE
  5
195
330
49F
100
AcDbEntity
  8
1
100
AcDbLine
 10
9.566202999999999
 20
9.378283999999998
 30
0.0
 11
9.527442
 21
9.372061
 31
0.0
  0
LINE
  5
196
330
49F
100
AcDbEntity
  8
1
100
AcDbLine
 10
4.005037
 20
4.153355
 30
0.0
 11
3.930106999999999
 21
4.345245999999999
 31
0.0
  0
LINE
  5
197
330
49F
100
AcDbEntity
  8
1
100
AcDbLine
 10
9.527442
 20
9.372061
 30
0.0
 11
9.478717999999998
 21
9.361996000000001
 31
0.0
  0
LINE
  5
198
330
49F
100
AcDbEntity
  8
1
100
AcDbLine
 10
9.478717999999998
 20
9.361996000000001
 30
0.0
 11
9.391586
 21
9.337717999999998
 31
0.0
  0
LINE
  5
199
330
49F
100
AcDbEntity
  8
1
100
AcDbLine
 10
9.391586
 20
9.337717999999998
 30
0.0
 11
9.304808999999998
 21
9.305448
 31
0.0
  0
LINE
  5
19A
330
49F
100
AcDbEntity
  8
1
100
AcDbLine
 10
9.304808999999998
 20
9.305448
 30
0.0
 11
9.218308
 21
9.265139999999998
 31
0.0
  0
LINE
  5
19B
330
49F
100
AcDbEntity
  8
1
100
AcDbLine
 10
9.218308
 20
9.265139999999998
 30
0.0
 11
9.132160999999999
 21
9.216841
 31
0.0
  0
LINE
  5
19C
330
49F
100
AcDbEntity
  8
1
100
AcDbLine
 10
9.132160999999999
 20
9.216841
 30
0.0
 11
9.046599999999999
 21
9.160699000000001
 31
0.0
  0
LINE
  5
19D
330
49F
100
AcDbEntity
  8
1
100
AcDbLine
 10
9.046599999999999
 20
9.160699000000001
 30
0.0
 11
8.961702
 21
9.096764999999999
 31
0.0
  0
LINE
  5
19E
330
49F
100
AcDbEntity
  8
1
100
AcDbLine
 10
8.961702
 20
9.096764999999999
 30
0.0
 11
8.877388999999999
 21
9.024986999999999
 31
0.0
  0
LINE
  5
19F
330
49F
100
AcDbEntity
  8
1
100
AcDbLine
 10
8.877388999999999
 20
9.024986999999999
 30
0.0
 11
8.793661
 21
8.945366999999999
 31
0.0
  0
LINE
  5
1A0
330
49F
100
AcDbEntity
  8
1
100
AcDbLine
 10
13.1
 20
9.525
 30
0.0
 11
14.5
 21
8.716708999999999
 31
0.0
  0
LINE
  5
1A1
330
49F
100
AcDbEntity
  8
1
100
AcDbLine
 10
14.5
 20
8.716708999999999
 30
0.0
 11
14.5
 21
8.492891
 31
0.0
  0
LINE
  5
1A2
330
49F
100
AcDbEntity
  8
1
100
AcDbLine
 10
14.0
 20
8.075769000000001
 30
0.0
 11
13.857366
 21
8.13621
 31
0.0
  0
LINE
  5
1A3
330
49F
100
AcDbEntity
  8
1
100
AcDbLine
 10
13.857366
 20
8.13621
 30
0.0
 11
13.711558
 21
8.197091999999999
 31
0.0
  0
LINE
  5
1A4
330
49F
100
AcDbEntity
  8
1
100
AcDbLine
 10
13.711558
 20
8.197091999999999
 30
0.0
 11
13.562576
 21
8.258416
 31
0.0
  0
LINE
  5
1A5
330
49F
100
AcDbEntity
  8
1
100
AcDbLine
 10
13.562576
 20
8.258416
 30
0.0
 11
13.410495
 21
8.320164
 31
0.0
  0
LINE
  5
1A6
330
49F
100
AcDbEntity
  8
1
100
AcDbLine
 10
13.410495
 20
8.320164
 30
0.0
 11
13.255239
 21
8.382353
 31
0.0
  0
LINE
  5
1A7
330
49F
100
AcDbEntity
  8
1
100
AcDbLine
 10
13.255239
 20
8.382353
 30
0.0
 11
13.096584
 21
8.445045
 31
0.0
  0
LINE
  5
1A8
330
49F
100
AcDbEntity
  8
1
100
AcDbLine
 10
13.096584
 20
8.445045
 30
0.0
 11
12.934456
 21
8.508257
 31
0.0
  0
LINE
  5
1A9
330
49F
100
AcDbEntity
  8
1
100
AcDbLine
 10
9.100427999999999
 20
-7.342514999999999
 30
0.0
 11
8.955408
 21
-7.347788999999999
 31
0.0
  0
LINE
  5
1AA
330
49F
100
AcDbEntity
  8
1
100
AcDbLine
 10
12.934456
 20
8.508257
 30
0.0
 11
12.768927
 21
8.571972
 31
0.0
  0
LINE
  5
1AB
330
49F
100
AcDbEntity
  8
1
100
AcDbLine
 10
12.768927
 20
8.571972
 30
0.0
 11
12.6
 21
8.636188
 31
0.0
  0
LINE
  5
1AC
330
49F
100
AcDbEntity
  8
1
100
AcDbLine
 10
10.380268
 20
9.525
 30
0.0
 11
13.1
 21
9.525
 31
0.0
  0
LINE
  5
1AD
330
49F
100
AcDbEntity
  8
1
100
AcDbLine
 10
10.380438
 20
-9.525
 30
0.0
 11
13.020342
 21
-9.525
 31
0.0
  0
LINE
  5
1AE
330
49F
100
AcDbEntity
  8
1
100
AcDbLine
 10
12.565846
 20
-8.573396999999999
 30
0.0
 11
13.020342
 21
-9.525
 31
0.0
  0
LINE
  5
1AF
330
49F
100
AcDbEntity
  8
1
100
AcDbLine
 10
9.566202999999999
 20
9.378283999999998
 30
0.0
 11
10.380268
 21
9.525
 31
0.0
  0
LINE
  5
1B0
330
49F
100
AcDbEntity
  8
4
100
AcDbLine
 10
17.311612
 20
0.0
 30
0.0
 11
1.5
 21
0.0
 31
0.0
  0
LINE
  5
1B1
330
49F
100
AcDbEntity
  8
SK1
100
AcDbLine
 10
-8.349999999999999
 20
5.444173999999999
 30
0.0
 11
0.0
 21
6.174173999999999
 31
0.0
  0
LINE
  5
1B2
330
49F
100
AcDbEntity
  8
SK1
100
AcDbLine
 10
-8.349999999999999
 20
-5.444173999999999
 30
0.0
 11
0.0
 21
-6.174173999999999
 31
0.0
  0
LINE
  5
1B3
330
49F
100
AcDbEntity
  8
SK1
100
AcDbLine
 10
-8.349999999999999
 20
5.444173999999999
 30
0.0
 11
-8.349999999999999
 21
-5.444173999999999
 31
0.0
  0
LINE
  5
1B4
330
49F
100
AcDbEntity
  8
SK1
100
AcDbLine
 10
-11.35
 20
4.944173999999999
 30
0.0
 11
-11.35
 21
-4.944173999999999
 31
0.0
  0
LINE
  5
1B5
330
49F
100
AcDbEntity
  8
SK1
100
AcDbLine
 10
-11.35
 20
-4.944173999999999
 30
0.0
 11
-8.349999999999999
 21
-4.944173999999999
 31
0.0
  0
LINE
  5
1B6
330
49F
100
AcDbEntity
  8
SK1
100
AcDbLine
 10
-11.35
 20
4.944173999999999
 30
0.0
 11
-8.349999999999999
 21
4.944173999999999
 31
0.0
  0
LINE
  5
1B7
330
49F
100
AcDbEntity
  8
2
100
AcDbLine
 10
14.1
 20
9.525
 30
0.0
 11
26.412635
 21
9.525
 31
0.0
  0
LINE
  5
1B8
330
49F
100
AcDbEntity
  8
80
100
AcDbLine
 10
0.0
 20
0.0
 30
0.0
 11
-11.35
 21
0.0
 31
0.0
  0
LINE
  5
1B9
330
49F
100
AcDbEntity
  8
1
100
AcDbLine
 10
13.856957
 20
-0.215573
 30
0.0
 11
13.710838
 21
-0.319716
 31
0.0
  0
LINE
  5
1BA
330
49F
100
AcDbEntity
  8
1
100
AcDbLine
 10
14.5
 20
5.597776999999999
 30
0.0
 11
13.110896
 21
5.648839999999999
 31
0.0
  0
LINE
  5
1BB
330
49F
100
AcDbEntity
  8
1
100
AcDbLine
 10
9.078194999999999
 20
-5.92457
 30
0.0
 11
9.073596
 21
-5.943938
 31
0.0
  0
LINE
  5
1BC
330
49F
100
AcDbEntity
  8
1
100
AcDbLine
 10
9.962766999999999
 20
4.733832999999999
 30
0.0
 11
10.366203
 21
4.885987999999999
 31
0.0
  0
LINE
  5
1BD
330
49F
100
AcDbEntity
  8
1
100
AcDbLine
 10
13.095607
 20
-0.7511479999999999
 30
0.0
 11
12.93369
 21
-0.8629649999999999
 31
0.0
  0
LINE
  5
1BE
330
49F
100
AcDbEntity
  8
1
100
AcDbLine
 10
7.041765999999999
 20
-6.398581
 30
0.0
 11
7.011163
 21
-6.377616999999999
 31
0.0
  0
LINE
  5
1BF
330
49F
100
AcDbEntity
  8
1
100
AcDbLine
 10
6.938391
 20
8.407066
 30
0.0
 11
6.769532
 21
8.419525
 31
0.0
  0
LINE
  5
1C0
330
49F
100
AcDbEntity
  8
1
100
AcDbLine
 10
3.930106999999999
 20
4.345245999999999
 30
0.0
 11
3.859342999999999
 21
4.533494
 31
0.0
  0
LINE
  5
1C1
330
49F
100
AcDbEntity
  8
1
100
AcDbLine
 10
3.859342999999999
 20
4.533494
 30
0.0
 11
3.792869
 21
4.717646
 31
0.0
  0
LINE
  5
1C2
330
49F
100
AcDbEntity
  8
1
100
AcDbLine
 10
3.792869
 20
4.717646
 30
0.0
 11
3.730558999999999
 21
4.898055999999999
 31
0.0
  0
LINE
  5
1C3
330
49F
100
AcDbEntity
  8
1
100
AcDbLine
 10
3.730558999999999
 20
4.898055999999999
 30
0.0
 11
3.672413999999999
 21
5.074673999999999
 31
0.0
  0
LINE
  5
1C4
330
49F
100
AcDbEntity
  8
1
100
AcDbLine
 10
6.851933999999999
 20
1.525886
 30
0.0
 11
6.854541
 21
1.527981
 31
0.0
  0
LINE
  5
1C5
330
49F
100
AcDbEntity
  8
1
100
AcDbLine
 10
6.854541
 20
1.527981
 30
0.0
 11
6.878733999999999
 21
1.546375
 31
0.0
  0
LINE
  5
1C6
330
49F
100
AcDbEntity
  8
1
100
AcDbLine
 10
14.5
 20
-0.010523
 30
0.0
 11
12.565846
 21
-1.196454999999999
 31
0.0
  0
LINE
  5
1C7
330
49F
100
AcDbEntity
  8
1
100
AcDbLine
 10
6.878733999999999
 20
1.546375
 30
0.0
 11
6.904441999999999
 21
1.564014999999999
 31
0.0
  0
LINE
  5
1C8
330
49F
100
AcDbEntity
  8
1
100
AcDbLine
 10
6.904441999999999
 20
1.564014999999999
 30
0.0
 11
6.93171
 21
1.580909
 31
0.0
  0
LINE
  5
1C9
330
49F
100
AcDbEntity
  8
1
100
AcDbLine
 10
6.93171
 20
1.580909
 30
0.0
 11
6.960511999999999
 21
1.597077
 31
0.0
  0
LINE
  5
1CA
330
49F
100
AcDbEntity
  8
1
100
AcDbLine
 10
6.960511999999999
 20
1.597077
 30
0.0
 11
6.990697999999999
 21
1.612349999999999
 31
0.0
  0
LINE
  5
1CB
330
49F
100
AcDbEntity
  8
1
100
AcDbLine
 10
6.990697999999999
 20
1.612349999999999
 30
0.0
 11
7.022263
 21
1.626714999999999
 31
0.0
  0
LINE
  5
1CC
330
49F
100
AcDbEntity
  8
1
100
AcDbLine
 10
7.022263
 20
1.626714999999999
 30
0.0
 11
7.055224
 21
1.640211
 31
0.0
  0
LINE
  5
1CD
330
49F
100
AcDbEntity
  8
1
100
AcDbLine
 10
7.055224
 20
1.640211
 30
0.0
 11
7.08946
 21
1.652733999999999
 31
0.0
  0
LINE
  5
1CE
330
49F
100
AcDbEntity
  8
1
100
AcDbLine
 10
7.08946
 20
1.652733999999999
 30
0.0
 11
7.125005
 21
1.664292999999999
 31
0.0
  0
LINE
  5
1CF
330
49F
100
AcDbEntity
  8
1
100
AcDbLine
 10
7.125005
 20
1.664292999999999
 30
0.0
 11
7.161836
 21
1.674902999999999
 31
0.0
  0
LINE
  5
1D0
330
49F
100
AcDbEntity
  8
1
100
AcDbLine
 10
7.161836
 20
1.674902999999999
 30
0.0
 11
7.19973
 21
1.684459999999999
 31
0.0
  0
LINE
  5
1D1
330
49F
100
AcDbEntity
  8
1
100
AcDbLine
 10
7.19973
 20
1.684459999999999
 30
0.0
 11
7.238735
 21
1.692963999999999
 31
0.0
  0
LINE
  5
1D2
330
49F
100
AcDbEntity
  8
1
100
AcDbLine
 10
7.238735
 20
1.692963999999999
 30
0.0
 11
7.278808
 21
1.700433
 31
0.0
  0
LINE
  5
1D3
330
49F
100
AcDbEntity
  8
1
100
AcDbLine
 10
7.278808
 20
1.700433
 30
0.0
 11
7.319590999999999
 21
1.70679
 31
0.0
  0
LINE
  5
1D4
330
49F
100
AcDbEntity
  8
1
100
AcDbLine
 10
7.319590999999999
 20
1.70679
 30
0.0
 11
7.361086999999999
 21
1.712013999999999
 31
0.0
  0
LINE
  5
1D5
330
49F
100
AcDbEntity
  8
1
100
AcDbLine
 10
7.361086999999999
 20
1.712013999999999
 30
0.0
 11
7.403289
 21
1.716129999999999
 31
0.0
  0
LINE
  5
1D6
330
49F
100
AcDbEntity
  8
1
100
AcDbLine
 10
7.403289
 20
1.716129999999999
 30
0.0
 11
7.445819
 21
1.719120999999999
 31
0.0
  0
LINE
  5
1D7
330
49F
100
AcDbEntity
  8
1
100
AcDbLine
 10
7.445819
 20
1.719120999999999
 30
0.0
 11
7.488671
 21
1.720963
 31
0.0
  0
LINE
  5
1D8
330
49F
100
AcDbEntity
  8
1
100
AcDbLine
 10
7.488671
 20
1.720963
 30
0.0
 11
7.531841
 21
1.721668999999999
 31
0.0
  0
LINE
  5
1D9
330
49F
100
AcDbEntity
  8
1
100
AcDbLine
 10
7.531841
 20
1.721668999999999
 30
0.0
 11
7.574940999999999
 21
1.72127
 31
0.0
  0
LINE
  5
1DA
330
49F
100
AcDbEntity
  8
1
100
AcDbLine
 10
4.533191999999999
 20
2.961463999999999
 30
0.0
 11
4.435869999999999
 21
3.163761
 31
0.0
  0
LINE
  5
1DB
330
49F
100
AcDbEntity
  8
1
100
AcDbLine
 10
7.574940999999999
 20
1.72127
 30
0.0
 11
7.618063999999999
 21
1.719716
 31
0.0
  0
LINE
  5
1DC
330
49F
100
AcDbEntity
  8
1
100
AcDbLine
 10
7.661102
 20
1.717038999999999
 30
0.0
 11
7.703355
 21
1.713365999999999
 31
0.0
  0
LINE
  5
1DD
330
49F
100
AcDbEntity
  8
1
100
AcDbLine
 10
7.703355
 20
1.713365999999999
 30
0.0
 11
7.744705999999999
 21
1.708654
 31
0.0
  0
LINE
  5
1DE
330
49F
100
AcDbEntity
  8
1
100
AcDbLine
 10
7.744705999999999
 20
1.708654
 30
0.0
 11
7.785249999999999
 21
1.702911
 31
0.0
  0
LINE
  5
1DF
330
49F
100
AcDbEntity
  8
1
100
AcDbLine
 10
7.785249999999999
 20
1.702911
 30
0.0
 11
7.824608999999999
 21
1.696344999999999
 31
0.0
  0
LINE
  5
1E0
330
49F
100
AcDbEntity
  8
1
100
AcDbLine
 10
7.824608999999999
 20
1.696344999999999
 30
0.0
 11
7.8627
 21
1.688931999999999
 31
0.0
  0
LINE
  5
1E1
330
49F
100
AcDbEntity
  8
1
100
AcDbLine
 10
7.8627
 20
1.688931999999999
 30
0.0
 11
7.899586
 21
1.680659
 31
0.0
  0
LINE
  5
1E2
330
49F
100
AcDbEntity
  8
1
100
AcDbLine
 10
7.899586
 20
1.680659
 30
0.0
 11
7.935100999999999
 21
1.671734999999999
 31
0.0
  0
LINE
  5
1E3
330
49F
100
AcDbEntity
  8
1
100
AcDbLine
 10
7.935100999999999
 20
1.671734999999999
 30
0.0
 11
7.969183
 21
1.662154999999999
 31
0.0
  0
LINE
  5
1E4
330
49F
100
AcDbEntity
  8
1
100
AcDbLine
 10
7.969183
 20
1.662154999999999
 30
0.0
 11
8.001877999999999
 21
1.651893
 31
0.0
  0
LINE
  5
1E5
330
49F
100
AcDbEntity
  8
1
100
AcDbLine
 10
8.001877999999999
 20
1.651893
 30
0.0
 11
8.033189
 21
1.641120999999999
 31
0.0
  0
LINE
  5
1E6
330
49F
100
AcDbEntity
  8
1
100
AcDbLine
 10
8.033189
 20
1.641120999999999
 30
0.0
 11
8.063091
 21
1.629837
 31
0.0
  0
LINE
  5
1E7
330
49F
100
AcDbEntity
  8
1
100
AcDbLine
 10
8.063091
 20
1.629837
 30
0.0
 11
8.091597
 21
1.618018
 31
0.0
  0
LINE
  5
1E8
330
49F
100
AcDbEntity
  8
1
100
AcDbLine
 10
8.091597
 20
1.618018
 30
0.0
 11
8.118775999999998
 21
1.605799999999999
 31
0.0
  0
LINE
  5
1E9
330
49F
100
AcDbEntity
  8
1
100
AcDbLine
 10
8.118775999999998
 20
1.605799999999999
 30
0.0
 11
8.144610999999999
 21
1.593186
 31
0.0
  0
LINE
  5
1EA
330
49F
100
AcDbEntity
  8
1
100
AcDbLine
 10
8.144610999999999
 20
1.593186
 30
0.0
 11
8.169111
 21
1.580153
 31
0.0
  0
LINE
  5
1EB
330
49F
100
AcDbEntity
  8
1
100
AcDbLine
 10
8.169111
 20
1.580153
 30
0.0
 11
8.192377
 21
1.566802
 31
0.0
  0
LINE
  5
1EC
330
49F
100
AcDbEntity
  8
1
100
AcDbLine
 10
8.192377
 20
1.566802
 30
0.0
 11
8.214427
 21
1.553115999999999
 31
0.0
  0
LINE
  5
1ED
330
49F
100
AcDbEntity
  8
1
100
AcDbLine
 10
8.214427
 20
1.553115999999999
 30
0.0
 11
8.235238
 21
1.539096999999999
 31
0.0
  0
LINE
  5
1EE
330
49F
100
AcDbEntity
  8
1
100
AcDbLine
 10
8.235238
 20
1.539096999999999
 30
0.0
 11
8.254856
 21
1.524874999999999
 31
0.0
  0
LINE
  5
1EF
330
49F
100
AcDbEntity
  8
1
100
AcDbLine
 10
8.254856
 20
1.524874999999999
 30
0.0
 11
8.273296
 21
1.510491
 31
0.0
  0
LINE
  5
1F0
330
49F
100
AcDbEntity
  8
1
100
AcDbLine
 10
8.273296
 20
1.510491
 30
0.0
 11
8.29054
 21
1.495894
 31
0.0
  0
LINE
  5
1F1
330
49F
100
AcDbEntity
  8
1
100
AcDbLine
 10
5.525161999999999
 20
1.491746999999999
 30
0.0
 11
5.420364
 21
1.518602
 31
0.0
  0
LINE
  5
1F2
330
49F
100
AcDbEntity
  8
1
100
AcDbLine
 10
8.29054
 20
1.495894
 30
0.0
 11
8.306585
 21
1.481079999999999
 31
0.0
  0
LINE
  5
1F3
330
49F
100
AcDbEntity
  8
1
100
AcDbLine
 10
12.6
 20
1.792424
 30
0.0
 11
12.053026
 21
1.653761
 31
0.0
  0
LINE
  5
1F4
330
49F
100
AcDbEntity
  8
1
100
AcDbLine
 10
9.529728999999999
 20
1.762170999999999
 30
0.0
 11
9.392774000000001
 21
1.723586
 31
0.0
  0
LINE
  5
1F5
330
49F
100
AcDbEntity
  8
1
100
AcDbLine
 10
9.392774000000001
 20
1.723586
 30
0.0
 11
9.255899000000001
 21
1.686792999999999
 31
0.0
  0
LINE
  5
1F6
330
49F
100
AcDbEntity
  8
1
100
AcDbLine
 10
9.255899000000001
 20
1.686792999999999
 30
0.0
 11
9.119180999999999
 21
1.651813999999999
 31
0.0
  0
LINE
  5
1F7
330
49F
100
AcDbEntity
  8
1
100
AcDbLine
 10
9.119180999999999
 20
1.651813999999999
 30
0.0
 11
8.982699
 21
1.618669
 31
0.0
  0
LINE
  5
1F8
330
49F
100
AcDbEntity
  8
1
100
AcDbLine
 10
8.982699
 20
1.618669
 30
0.0
 11
8.846533
 21
1.587377
 31
0.0
  0
LINE
  5
1F9
330
49F
100
AcDbEntity
  8
1
100
AcDbLine
 10
8.846533
 20
1.587377
 30
0.0
 11
8.71076
 21
1.557954999999999
 31
0.0
  0
LINE
  5
1FA
330
49F
100
AcDbEntity
  8
1
100
AcDbLine
 10
8.71076
 20
1.557954999999999
 30
0.0
 11
8.575460000000001
 21
1.530421999999999
 31
0.0
  0
LINE
  5
1FB
330
49F
100
AcDbEntity
  8
1
100
AcDbLine
 10
8.575460000000001
 20
1.530421999999999
 30
0.0
 11
8.440709
 21
1.504790999999999
 31
0.0
  0
LINE
  5
1FC
330
49F
100
AcDbEntity
  8
1
100
AcDbLine
 10
8.440709
 20
1.504790999999999
 30
0.0
 11
8.306585
 21
1.481079999999999
 31
0.0
  0
LINE
  5
1FD
330
49F
100
AcDbEntity
  8
1
100
AcDbLine
 10
6.773392999999999
 20
-5.849218
 30
0.0
 11
6.791361
 21
-5.813663
 31
0.0
  0
LINE
  5
1FE
330
49F
100
AcDbEntity
  8
1
100
AcDbLine
 10
6.791361
 20
-5.813663
 30
0.0
 11
6.810864999999999
 21
-5.778177999999999
 31
0.0
  0
LINE
  5
1FF
330
49F
100
AcDbEntity
  8
1
100
AcDbLine
 10
6.810864999999999
 20
-5.778177999999999
 30
0.0
 11
6.831914999999999
 21
-5.74277
 31
0.0
  0
LINE
  5
200
330
49F
100
AcDbEntity
  8
1
100
AcDbLine
 10
6.831914999999999
 20
-5.74277
 30
0.0
 11
6.854541
 21
-5.707358
 31
0.0
  0
LINE
  5
201
330
49F
100
AcDbEntity
  8
1
100
AcDbLine
 10
6.854541
 20
-5.707358
 30
0.0
 11
6.878733999999999
 21
-5.672041
 31
0.0
  0
LINE
  5
202
330
49F
100
AcDbEntity
  8
1
100
AcDbLine
 10
6.878733999999999
 20
-5.672041
 30
0.0
 11
6.904441999999999
 21
-5.637093
 31
0.0
  0
LINE
  5
203
330
49F
100
AcDbEntity
  8
1
100
AcDbLine
 10
6.904441999999999
 20
-5.637093
 30
0.0
 11
6.93171
 21
-5.602513
 31
0.0
  0
LINE
  5
204
330
49F
100
AcDbEntity
  8
1
100
AcDbLine
 10
6.93171
 20
-5.602513
 30
0.0
 11
6.960511999999999
 21
-5.568319999999999
 31
0.0
  0
LINE
  5
205
330
49F
100
AcDbEntity
  8
1
100
AcDbLine
 10
6.990697999999999
 20
-5.534823
 30
0.0
 11
7.022263
 21
-5.502064999999999
 31
0.0
  0
LINE
  5
206
330
49F
100
AcDbEntity
  8
1
100
AcDbLine
 10
7.022263
 20
-5.502064999999999
 30
0.0
 11
7.055224
 21
-5.470019999999999
 31
0.0
  0
LINE
  5
207
330
49F
100
AcDbEntity
  8
1
100
AcDbLine
 10
7.055224
 20
-5.470019999999999
 30
0.0
 11
7.08946
 21
-5.438892
 31
0.0
  0
LINE
  5
208
330
49F
100
AcDbEntity
  8
1
100
AcDbLine
 10
7.08946
 20
-5.438892
 30
0.0
 11
7.125005
 21
-5.408675999999999
 31
0.0
  0
LINE
  5
209
330
49F
100
AcDbEntity
  8
1
100
AcDbLine
 10
7.125005
 20
-5.408675999999999
 30
0.0
 11
7.161836
 21
-5.379393
 31
0.0
  0
LINE
  5
20A
330
49F
100
AcDbEntity
  8
1
100
AcDbLine
 10
7.161836
 20
-5.379393
 30
0.0
 11
7.19973
 21
-5.351278999999999
 31
0.0
  0
LINE
  5
20B
330
49F
100
AcDbEntity
  8
1
100
AcDbLine
 10
7.19973
 20
-5.351278999999999
 30
0.0
 11
7.238735
 21
-5.324332
 31
0.0
  0
LINE
  5
20C
330
49F
100
AcDbEntity
  8
1
100
AcDbLine
 10
7.238735
 20
-5.324332
 30
0.0
 11
7.278808
 21
-5.298567
 31
0.0
  0
LINE
  5
20D
330
49F
100
AcDbEntity
  8
1
100
AcDbLine
 10
7.278808
 20
-5.298567
 30
0.0
 11
7.319590999999999
 21
-5.27423
 31
0.0
  0
LINE
  5
20E
330
49F
100
AcDbEntity
  8
1
100
AcDbLine
 10
7.319590999999999
 20
-5.27423
 30
0.0
 11
7.361086999999999
 21
-5.251348999999999
 31
0.0
  0
LINE
  5
20F
330
49F
100
AcDbEntity
  8
1
100
AcDbLine
 10
7.361086999999999
 20
-5.251348999999999
 30
0.0
 11
7.403289
 21
-5.229902
 31
0.0
  0
LINE
  5
210
330
49F
100
AcDbEntity
  8
1
100
AcDbLine
 10
7.403289
 20
-5.229902
 30
0.0
 11
7.445819
 21
-5.210055
 31
0.0
  0
LINE
  5
211
330
49F
100
AcDbEntity
  8
1
100
AcDbLine
 10
7.445819
 20
-5.210055
 30
0.0
 11
7.488671
 21
-5.191826999999999
 31
0.0
  0
LINE
  5
212
330
49F
100
AcDbEntity
  8
1
100
AcDbLine
 10
7.488671
 20
-5.191826999999999
 30
0.0
 11
7.531841
 21
-5.175197999999999
 31
0.0
  0
LINE
  5
213
330
49F
100
AcDbEntity
  8
1
100
AcDbLine
 10
7.531841
 20
-5.175197999999999
 30
0.0
 11
7.574940999999999
 21
-5.16026
 31
0.0
  0
LINE
  5
214
330
49F
100
AcDbEntity
  8
1
100
AcDbLine
 10
7.574940999999999
 20
-5.16026
 30
0.0
 11
7.618063999999999
 21
-5.147019
 31
0.0
  0
LINE
  5
215
330
49F
100
AcDbEntity
  8
1
100
AcDbLine
 10
7.618063999999999
 20
-5.147019
 30
0.0
 11
7.660781
 21
-5.135540999999999
 31
0.0
  0
LINE
  5
216
330
49F
100
AcDbEntity
  8
1
100
AcDbLine
 10
9.057382999999999
 20
1.349505999999999
 30
0.0
 11
9.051277
 21
1.344779
 31
0.0
  0
LINE
  5
217
330
49F
100
AcDbEntity
  8
1
100
AcDbLine
 10
9.051277
 20
1.344779
 30
0.0
 11
9.041752
 21
1.338063999999999
 31
0.0
  0
LINE
  5
218
330
49F
100
AcDbEntity
  8
1
100
AcDbLine
 10
9.041752
 20
1.338063999999999
 30
0.0
 11
9.031003
 21
1.331191
 31
0.0
  0
LINE
  5
219
330
49F
100
AcDbEntity
  8
1
100
AcDbLine
 10
9.031003
 20
1.331191
 30
0.0
 11
9.019042
 21
1.324195999999999
 31
0.0
  0
LINE
  5
21A
330
49F
100
AcDbEntity
  8
1
100
AcDbLine
 10
9.019042
 20
1.324195999999999
 30
0.0
 11
9.005833
 21
1.317083999999999
 31
0.0
  0
LINE
  5
21B
330
49F
100
AcDbEntity
  8
1
100
AcDbLine
 10
9.005833
 20
1.317083999999999
 30
0.0
 11
8.991263
 21
1.309812999999999
 31
0.0
  0
LINE
  5
21C
330
49F
100
AcDbEntity
  8
1
100
AcDbLine
 10
8.991263
 20
1.309812999999999
 30
0.0
 11
8.975291999999999
 21
1.302404
 31
0.0
  0
LINE
  5
21D
330
49F
100
AcDbEntity
  8
1
100
AcDbLine
 10
8.975291999999999
 20
1.302404
 30
0.0
 11
8.957924
 21
1.294895999999999
 31
0.0
  0
LINE
  5
21E
330
49F
100
AcDbEntity
  8
1
100
AcDbLine
 10
8.957924
 20
1.294895999999999
 30
0.0
 11
8.939103999999998
 21
1.287287999999999
 31
0.0
  0
LINE
  5
21F
330
49F
100
AcDbEntity
  8
1
100
AcDbLine
 10
8.939103999999998
 20
1.287287999999999
 30
0.0
 11
8.918824
 21
1.27961
 31
0.0
  0
LINE
  5
220
330
49F
100
AcDbEntity
  8
1
100
AcDbLine
 10
8.918824
 20
1.27961
 30
0.0
 11
8.897062
 21
1.271889
 31
0.0
  0
LINE
  5
221
330
49F
100
AcDbEntity
  8
1
100
AcDbLine
 10
8.897062
 20
1.271889
 30
0.0
 11
8.873742
 21
1.264126
 31
0.0
  0
LINE
  5
222
330
49F
100
AcDbEntity
  8
1
100
AcDbLine
 10
8.873742
 20
1.264126
 30
0.0
 11
8.848867
 21
1.256359
 31
0.0
  0
LINE
  5
223
330
49F
100
AcDbEntity
  8
1
100
AcDbLine
 10
8.848867
 20
1.256359
 30
0.0
 11
8.822402999999999
 21
1.248612
 31
0.0
  0
LINE
  5
224
330
49F
100
AcDbEntity
  8
1
100
AcDbLine
 10
8.822402999999999
 20
1.248612
 30
0.0
 11
8.794214999999999
 21
1.240884
 31
0.0
  0
LINE
  5
225
330
49F
100
AcDbEntity
  8
1
100
AcDbLine
 10
8.794214999999999
 20
1.240884
 30
0.0
 11
8.764257999999999
 21
1.233204999999999
 31
0.0
  0
LINE
  5
226
330
49F
100
AcDbEntity
  8
1
100
AcDbLine
 10
8.764257999999999
 20
1.233204999999999
 30
0.0
 11
8.73254
 21
1.225620999999999
 31
0.0
  0
LINE
  5
227
330
49F
100
AcDbEntity
  8
1
100
AcDbLine
 10
8.73254
 20
1.225620999999999
 30
0.0
 11
8.698988999999999
 21
1.218166
 31
0.0
  0
LINE
  5
228
330
49F
100
AcDbEntity
  8
1
100
AcDbLine
 10
8.698988999999999
 20
1.218166
 30
0.0
 11
8.663561999999998
 21
1.210868
 31
0.0
  0
LINE
  5
229
330
49F
100
AcDbEntity
  8
1
100
AcDbLine
 10
8.663561999999998
 20
1.210868
 30
0.0
 11
8.626269
 21
1.203777
 31
0.0
  0
LINE
  5
22A
330
49F
100
AcDbEntity
  8
1
100
AcDbLine
 10
8.626269
 20
1.203777
 30
0.0
 11
8.58712
 21
1.196963999999999
 31
0.0
  0
LINE
  5
22B
330
49F
100
AcDbEntity
  8
1
100
AcDbLine
 10
8.58712
 20
1.196963999999999
 30
0.0
 11
8.545972
 21
1.190429999999999
 31
0.0
  0
LINE
  5
22C
330
49F
100
AcDbEntity
  8
1
100
AcDbLine
 10
8.545972
 20
1.190429999999999
 30
0.0
 11
8.502947
 21
1.184242999999999
 31
0.0
  0
LINE
  5
22D
330
49F
100
AcDbEntity
  8
1
100
AcDbLine
 10
8.502947
 20
1.184242999999999
 30
0.0
 11
8.458460999999999
 21
1.178549999999999
 31
0.0
  0
LINE
  5
22E
330
49F
100
AcDbEntity
  8
1
100
AcDbLine
 10
8.458460999999999
 20
1.178549999999999
 30
0.0
 11
8.412402999999999
 21
1.173326
 31
0.0
  0
LINE
  5
22F
330
49F
100
AcDbEntity
  8
1
100
AcDbLine
 10
8.412402999999999
 20
1.173326
 30
0.0
 11
8.364907
 21
1.168604999999999
 31
0.0
  0
LINE
  5
230
330
49F
100
AcDbEntity
  8
1
100
AcDbLine
 10
8.364907
 20
1.168604999999999
 30
0.0
 11
8.3168
 21
1.164552
 31
0.0
  0
LINE
  5
231
330
49F
100
AcDbEntity
  8
1
100
AcDbLine
 10
8.3168
 20
1.164552
 30
0.0
 11
8.268317999999998
 21
1.161137
 31
0.0
  0
LINE
  5
232
330
49F
100
AcDbEntity
  8
1
100
AcDbLine
 10
8.268317999999998
 20
1.161137
 30
0.0
 11
8.219302
 21
1.158304
 31
0.0
  0
LINE
  5
233
330
49F
100
AcDbEntity
  8
1
100
AcDbLine
 10
8.219302
 20
1.158304
 30
0.0
 11
8.170009
 21
1.156139
 31
0.0
  0
LINE
  5
234
330
49F
100
AcDbEntity
  8
1
100
AcDbLine
 10
8.170009
 20
1.156139
 30
0.0
 11
8.120502
 21
1.154600999999999
 31
0.0
  0
LINE
  5
235
330
49F
100
AcDbEntity
  8
1
100
AcDbLine
 10
8.120502
 20
1.154600999999999
 30
0.0
 11
8.070796000000001
 21
1.153637
 31
0.0
  0
LINE
  5
236
330
49F
100
AcDbEntity
  8
1
100
AcDbLine
 10
8.070796000000001
 20
1.153637
 30
0.0
 11
8.021078999999998
 21
1.153305
 31
0.0
  0
LINE
  5
237
330
49F
100
AcDbEntity
  8
1
100
AcDbLine
 10
8.021078999999998
 20
1.153305
 30
0.0
 11
7.971366999999999
 21
1.153564999999999
 31
0.0
  0
LINE
  5
238
330
49F
100
AcDbEntity
  8
1
100
AcDbLine
 10
7.971366999999999
 20
1.153564999999999
 30
0.0
 11
7.921721999999999
 21
1.15436
 31
0.0
  0
LINE
  5
239
330
49F
100
AcDbEntity
  8
1
100
AcDbLine
 10
7.872402
 20
1.155726999999999
 30
0.0
 11
7.823492999999999
 21
1.157615999999999
 31
0.0
  0
LINE
  5
23A
330
49F
100
AcDbEntity
  8
1
100
AcDbLine
 10
7.823492999999999
 20
1.157615999999999
 30
0.0
 11
7.774986
 21
1.159972999999999
 31
0.0
  0
LINE
  5
23B
330
49F
100
AcDbEntity
  8
1
100
AcDbLine
 10
7.774986
 20
1.159972999999999
 30
0.0
 11
7.726990999999999
 21
1.162818
 31
0.0
  0
LINE
  5
23C
330
49F
100
AcDbEntity
  8
1
100
AcDbLine
 10
7.726990999999999
 20
1.162818
 30
0.0
 11
7.679547
 21
1.166104999999999
 31
0.0
  0
LINE
  5
23D
330
49F
100
AcDbEntity
  8
1
100
AcDbLine
 10
7.679547
 20
1.166104999999999
 30
0.0
 11
7.632686999999999
 21
1.169781999999999
 31
0.0
  0
LINE
  5
23E
330
49F
100
AcDbEntity
  8
1
100
AcDbLine
 10
7.632686999999999
 20
1.169781999999999
 30
0.0
 11
7.586505999999999
 21
1.173858999999999
 31
0.0
  0
LINE
  5
23F
330
49F
100
AcDbEntity
  8
1
100
AcDbLine
 10
7.586505999999999
 20
1.173858999999999
 30
0.0
 11
7.541066999999999
 21
1.178288999999999
 31
0.0
  0
LINE
  5
240
330
49F
100
AcDbEntity
  8
1
100
AcDbLine
 10
7.541066999999999
 20
1.178288999999999
 30
0.0
 11
7.496372
 21
1.183025999999999
 31
0.0
  0
LINE
  5
241
330
49F
100
AcDbEntity
  8
1
100
AcDbLine
 10
7.496372
 20
1.183025999999999
 30
0.0
 11
7.452425999999999
 21
1.188088999999999
 31
0.0
  0
LINE
  5
242
330
49F
100
AcDbEntity
  8
1
100
AcDbLine
 10
7.452425999999999
 20
1.188088999999999
 30
0.0
 11
7.409242999999999
 21
1.193435
 31
0.0
  0
LINE
  5
243
330
49F
100
AcDbEntity
  8
1
100
AcDbLine
 10
7.409242999999999
 20
1.193435
 30
0.0
 11
7.366871
 21
1.199018
 31
0.0
  0
LINE
  5
244
330
49F
100
AcDbEntity
  8
1
100
AcDbLine
 10
7.366871
 20
1.199018
 30
0.0
 11
7.325366999999999
 21
1.204851
 31
0.0
  0
LINE
  5
245
330
49F
100
AcDbEntity
  8
1
100
AcDbLine
 10
7.325366999999999
 20
1.204851
 30
0.0
 11
7.284758999999999
 21
1.210892999999999
 31
0.0
  0
LINE
  5
246
330
49F
100
AcDbEntity
  8
1
100
AcDbLine
 10
6.960511999999999
 20
-5.568319999999999
 30
0.0
 11
6.990697999999999
 21
-5.534823
 31
0.0
  0
LINE
  5
247
330
49F
100
AcDbEntity
  8
1
100
AcDbLine
 10
7.284758999999999
 20
1.210892999999999
 30
0.0
 11
7.245078999999999
 21
1.2171
 31
0.0
  0
LINE
  5
248
330
49F
100
AcDbEntity
  8
1
100
AcDbLine
 10
7.245078999999999
 20
1.2171
 30
0.0
 11
7.206396
 21
1.223486
 31
0.0
  0
LINE
  5
249
330
49F
100
AcDbEntity
  8
1
100
AcDbLine
 10
7.206396
 20
1.223486
 30
0.0
 11
7.16868
 21
1.230026
 31
0.0
  0
LINE
  5
24A
330
49F
100
AcDbEntity
  8
1
100
AcDbLine
 10
7.16868
 20
1.230026
 30
0.0
 11
7.132019
 21
1.236661
 31
0.0
  0
LINE
  5
24B
330
49F
100
AcDbEntity
  8
1
100
AcDbLine
 10
7.132019
 20
1.236661
 30
0.0
 11
7.096658
 21
1.243365999999999
 31
0.0
  0
LINE
  5
24C
330
49F
100
AcDbEntity
  8
1
100
AcDbLine
 10
7.096658
 20
1.243365999999999
 30
0.0
 11
7.062655
 21
1.250107
 31
0.0
  0
LINE
  5
24D
330
49F
100
AcDbEntity
  8
1
100
AcDbLine
 10
7.062655
 20
1.250107
 30
0.0
 11
7.029986999999999
 21
1.256852
 31
0.0
  0
LINE
  5
24E
330
49F
100
AcDbEntity
  8
1
100
AcDbLine
 10
7.029986999999999
 20
1.256852
 30
0.0
 11
6.998755
 21
1.263584
 31
0.0
  0
LINE
  5
24F
330
49F
100
AcDbEntity
  8
1
100
AcDbLine
 10
6.998755
 20
1.263584
 30
0.0
 11
6.968971
 21
1.270286
 31
0.0
  0
LINE
  5
250
330
49F
100
AcDbEntity
  8
1
100
AcDbLine
 10
6.968971
 20
1.270286
 30
0.0
 11
6.940641999999999
 21
1.276928
 31
0.0
  0
LINE
  5
251
330
49F
100
AcDbEntity
  8
1
100
AcDbLine
 10
6.940641999999999
 20
1.276928
 30
0.0
 11
6.913858
 21
1.283474999999999
 31
0.0
  0
LINE
  5
252
330
49F
100
AcDbEntity
  8
1
100
AcDbLine
 10
6.913858
 20
1.283474999999999
 30
0.0
 11
6.888653999999998
 21
1.289914999999999
 31
0.0
  0
LINE
  5
253
330
49F
100
AcDbEntity
  8
1
100
AcDbLine
 10
6.888653999999998
 20
1.289914999999999
 30
0.0
 11
6.864991
 21
1.296242
 31
0.0
  0
LINE
  5
254
330
49F
100
AcDbEntity
  8
1
100
AcDbLine
 10
6.864991
 20
1.296242
 30
0.0
 11
6.842844999999999
 21
1.302438999999999
 31
0.0
  0
LINE
  5
255
330
49F
100
AcDbEntity
  8
1
100
AcDbLine
 10
6.842844999999999
 20
1.302438999999999
 30
0.0
 11
6.822194
 21
1.308512
 31
0.0
  0
LINE
  5
256
330
49F
100
AcDbEntity
  8
1
100
AcDbLine
 10
6.822194
 20
1.308512
 30
0.0
 11
6.803047999999999
 21
1.314446
 31
0.0
  0
LINE
  5
257
330
49F
100
AcDbEntity
  8
1
100
AcDbLine
 10
6.803047999999999
 20
1.314446
 30
0.0
 11
6.785419999999999
 21
1.320203
 31
0.0
  0
LINE
  5
258
330
49F
100
AcDbEntity
  8
1
100
AcDbLine
 10
6.785419999999999
 20
1.320203
 30
0.0
 11
6.769294999999999
 21
1.325803999999999
 31
0.0
  0
LINE
  5
259
330
49F
100
AcDbEntity
  8
1
100
AcDbLine
 10
6.769294999999999
 20
1.325803999999999
 30
0.0
 11
6.754658
 21
1.331242
 31
0.0
  0
LINE
  5
25A
330
49F
100
AcDbEntity
  8
1
100
AcDbLine
 10
6.754658
 20
1.331242
 30
0.0
 11
6.741508
 21
1.336448999999999
 31
0.0
  0
LINE
  5
25B
330
49F
100
AcDbEntity
  8
1
100
AcDbLine
 10
6.741508
 20
1.336448999999999
 30
0.0
 11
6.729821
 21
1.341420999999999
 31
0.0
  0
LINE
  5
25C
330
49F
100
AcDbEntity
  8
1
100
AcDbLine
 10
6.729821
 20
1.341420999999999
 30
0.0
 11
6.719561999999999
 21
1.346214
 31
0.0
  0
LINE
  5
25D
330
49F
100
AcDbEntity
  8
1
100
AcDbLine
 10
6.719561999999999
 20
1.346214
 30
0.0
 11
6.710702999999999
 21
1.350854999999999
 31
0.0
  0
LINE
  5
25E
330
49F
100
AcDbEntity
  8
1
100
AcDbLine
 10
9.15939
 20
-2.283561
 30
0.0
 11
8.565317999999999
 21
-2.480966
 31
0.0
  0
LINE
  5
25F
330
49F
100
AcDbEntity
  8
1
100
AcDbLine
 10
8.565317999999999
 20
-2.480966
 30
0.0
 11
7.96595
 21
-2.677769
 31
0.0
  0
LINE
  5
260
330
49F
100
AcDbEntity
  8
1
100
AcDbLine
 10
7.96595
 20
-2.677769
 30
0.0
 11
7.362538999999999
 21
-2.873507
 31
0.0
  0
LINE
  5
261
330
49F
100
AcDbEntity
  8
1
100
AcDbLine
 10
7.362538999999999
 20
-2.873507
 30
0.0
 11
6.755033999999999
 21
-3.068185999999999
 31
0.0
  0
LINE
  5
262
330
49F
100
AcDbEntity
  8
1
100
AcDbLine
 10
6.755033999999999
 20
-3.068185999999999
 30
0.0
 11
6.143487
 21
-3.261797999999999
 31
0.0
  0
LINE
  5
263
330
49F
100
AcDbEntity
  8
1
100
AcDbLine
 10
6.143487
 20
-3.261797999999999
 30
0.0
 11
5.529310999999999
 21
-3.453863999999999
 31
0.0
  0
LINE
  5
264
330
49F
100
AcDbEntity
  8
1
100
AcDbLine
 10
5.529310999999999
 20
-3.453863999999999
 30
0.0
 11
4.912975
 21
-3.644223
 31
0.0
  0
LINE
  5
265
330
49F
100
AcDbEntity
  8
1
100
AcDbLine
 10
4.912975
 20
-3.644223
 30
0.0
 11
4.29401
 21
-3.833033999999999
 31
0.0
  0
LINE
  5
266
330
49F
100
AcDbEntity
  8
1
100
AcDbLine
 10
4.29401
 20
-3.833033999999999
 30
0.0
 11
3.672413999999999
 21
-4.020298
 31
0.0
  0
LINE
  5
267
330
49F
100
AcDbEntity
  8
1
100
AcDbLine
 10
10.089626
 20
1.161593
 30
0.0
 11
9.950966000000001
 21
1.129170999999999
 31
0.0
  0
LINE
  5
268
330
49F
100
AcDbEntity
  8
1
100
AcDbLine
 10
9.950966000000001
 20
1.129170999999999
 30
0.0
 11
9.811427999999999
 21
1.100187
 31
0.0
  0
LINE
  5
269
330
49F
100
AcDbEntity
  8
1
100
AcDbLine
 10
9.811427999999999
 20
1.100187
 30
0.0
 11
9.671011
 21
1.074645
 31
0.0
  0
LINE
  5
26A
330
49F
100
AcDbEntity
  8
1
100
AcDbLine
 10
9.671011
 20
1.074645
 30
0.0
 11
9.529742
 21
1.052618999999999
 31
0.0
  0
LINE
  5
26B
330
49F
100
AcDbEntity
  8
1
100
AcDbLine
 10
9.529742
 20
1.052618999999999
 30
0.0
 11
9.387596
 21
1.034043
 31
0.0
  0
LINE
  5
26C
330
49F
100
AcDbEntity
  8
1
100
AcDbLine
 10
9.244488999999999
 20
1.018709
 30
0.0
 11
9.100427999999999
 21
1.006609
 31
0.0
  0
LINE
  5
26D
330
49F
100
AcDbEntity
  8
1
100
AcDbLine
 10
9.100427999999999
 20
1.006609
 30
0.0
 11
8.955408
 21
0.9977549999999999
 31
0.0
  0
LINE
  5
26E
330
49F
100
AcDbEntity
  8
1
100
AcDbLine
 10
8.955408
 20
0.9977549999999999
 30
0.0
 11
8.809324999999999
 21
0.991966
 31
0.0
  0
LINE
  5
26F
330
49F
100
AcDbEntity
  8
1
100
AcDbLine
 10
8.809324999999999
 20
0.991966
 30
0.0
 11
8.662296000000001
 21
0.9892239999999999
 31
0.0
  0
LINE
  5
270
330
49F
100
AcDbEntity
  8
1
100
AcDbLine
 10
8.662296000000001
 20
0.9892239999999999
 30
0.0
 11
8.514205
 21
0.9895479999999999
 31
0.0
  0
LINE
  5
271
330
49F
100
AcDbEntity
  8
1
100
AcDbLine
 10
8.514205
 20
0.9895479999999999
 30
0.0
 11
8.364605
 21
0.992815
 31
0.0
  0
LINE
  5
272
330
49F
100
AcDbEntity
  8
1
100
AcDbLine
 10
8.364605
 20
0.992815
 30
0.0
 11
8.213452
 21
0.9989989999999998
 31
0.0
  0
LINE
  5
273
330
49F
100
AcDbEntity
  8
1
100
AcDbLine
 10
8.213452
 20
0.9989989999999998
 30
0.0
 11
8.060789999999999
 21
1.008126999999999
 31
0.0
  0
LINE
  5
274
330
49F
100
AcDbEntity
  8
1
100
AcDbLine
 10
8.060789999999999
 20
1.008126999999999
 30
0.0
 11
7.906299999999999
 21
1.020146999999999
 31
0.0
  0
LINE
  5
275
330
49F
100
AcDbEntity
  8
1
100
AcDbLine
 10
7.906299999999999
 20
1.020146999999999
 30
0.0
 11
7.749947999999999
 21
1.035048999999999
 31
0.0
  0
LINE
  5
276
330
49F
100
AcDbEntity
  8
1
100
AcDbLine
 10
7.749947999999999
 20
1.035048999999999
 30
0.0
 11
7.591767999999999
 21
1.052840999999999
 31
0.0
  0
LINE
  5
277
330
49F
100
AcDbEntity
  8
1
100
AcDbLine
 10
7.591767999999999
 20
1.052840999999999
 30
0.0
 11
7.431544
 21
1.073504
 31
0.0
  0
LINE
  5
278
330
49F
100
AcDbEntity
  8
1
100
AcDbLine
 10
7.431544
 20
1.073504
 30
0.0
 11
7.269294
 21
1.097024
 31
0.0
  0
LINE
  5
279
330
49F
100
AcDbEntity
  8
1
100
AcDbLine
 10
7.269294
 20
1.097024
 30
0.0
 11
7.105
 21
1.123409
 31
0.0
  0
LINE
  5
27A
330
49F
100
AcDbEntity
  8
1
100
AcDbLine
 10
7.105
 20
1.123409
 30
0.0
 11
6.938391
 21
1.15267
 31
0.0
  0
LINE
  5
27B
330
49F
100
AcDbEntity
  8
1
100
AcDbLine
 10
6.938391
 20
1.15267
 30
0.0
 11
6.769532
 21
1.184779
 31
0.0
  0
LINE
  5
27C
330
49F
100
AcDbEntity
  8
1
100
AcDbLine
 10
6.769532
 20
1.184779
 30
0.0
 11
6.598358999999999
 21
1.219754999999999
 31
0.0
  0
LINE
  5
27D
330
49F
100
AcDbEntity
  8
1
100
AcDbLine
 10
6.598358999999999
 20
1.219754999999999
 30
0.0
 11
6.424404
 21
1.257681
 31
0.0
  0
LINE
  5
27E
330
49F
100
AcDbEntity
  8
1
100
AcDbLine
 10
6.424404
 20
1.257681
 30
0.0
 11
6.247622999999999
 21
1.298548
 31
0.0
  0
LINE
  5
27F
330
49F
100
AcDbEntity
  8
1
100
AcDbLine
 10
6.247622999999999
 20
1.298548
 30
0.0
 11
6.068061
 21
1.342353
 31
0.0
  0
LINE
  5
280
330
49F
100
AcDbEntity
  8
1
100
AcDbLine
 10
6.068061
 20
1.342353
 30
0.0
 11
5.885387
 21
1.389172999999999
 31
0.0
  0
LINE
  5
281
330
49F
100
AcDbEntity
  8
1
100
AcDbLine
 10
5.885387
 20
1.389172999999999
 30
0.0
 11
5.699493
 21
1.439029
 31
0.0
  0
LINE
  5
282
330
49F
100
AcDbEntity
  8
1
100
AcDbLine
 10
5.699493
 20
1.439029
 30
0.0
 11
5.510487
 21
1.491881
 31
0.0
  0
LINE
  5
283
330
49F
100
AcDbEntity
  8
1
100
AcDbLine
 10
5.510487
 20
1.491881
 30
0.0
 11
5.379762
 21
1.529651
 31
0.0
  0
LINE
  5
284
330
49F
100
AcDbEntity
  8
1
100
AcDbLine
 10
9.15939
 20
-8.784150999999999
 30
0.0
 11
8.565317999999999
 21
-8.836543999999999
 31
0.0
  0
LINE
  5
285
330
49F
100
AcDbEntity
  8
1
100
AcDbLine
 10
8.565317999999999
 20
-8.836543999999999
 30
0.0
 11
7.96595
 21
-8.884677999999999
 31
0.0
  0
LINE
  5
286
330
49F
100
AcDbEntity
  8
1
100
AcDbLine
 10
7.96595
 20
-8.884677999999999
 30
0.0
 11
7.362538999999999
 21
-8.928352
 31
0.0
  0
LINE
  5
287
330
49F
100
AcDbEntity
  8
1
100
AcDbLine
 10
7.362538999999999
 20
-8.928352
 30
0.0
 11
6.755033999999999
 21
-8.967546
 31
0.0
  0
LINE
  5
288
330
49F
100
AcDbEntity
  8
1
100
AcDbLine
 10
6.755033999999999
 20
-8.967546
 30
0.0
 11
6.143487
 21
-9.002280999999999
 31
0.0
  0
LINE
  5
289
330
49F
100
AcDbEntity
  8
1
100
AcDbLine
 10
6.143487
 20
-9.002280999999999
 30
0.0
 11
5.529310999999999
 21
-9.032405
 31
0.0
  0
LINE
  5
28A
330
49F
100
AcDbEntity
  8
1
100
AcDbLine
 10
5.529310999999999
 20
-9.032405
 30
0.0
 11
4.912975
 21
-9.057871
 31
0.0
  0
LINE
  5
28B
330
49F
100
AcDbEntity
  8
1
100
AcDbLine
 10
4.912975
 20
-9.057871
 30
0.0
 11
4.29401
 21
-9.078727
 31
0.0
  0
LINE
  5
28C
330
49F
100
AcDbEntity
  8
1
100
AcDbLine
 10
4.29401
 20
-9.078727
 30
0.0
 11
3.672413999999999
 21
-9.094972
 31
0.0
  0
LINE
  5
28D
330
49F
100
AcDbEntity
  8
1
100
AcDbLine
 10
10.089626
 20
-7.248944999999999
 30
0.0
 11
9.950966000000001
 21
-7.268713
 31
0.0
  0
LINE
  5
28E
330
49F
100
AcDbEntity
  8
1
100
AcDbLine
 10
9.950966000000001
 20
-7.268713
 30
0.0
 11
9.811427
 21
-7.286297
 31
0.0
  0
LINE
  5
28F
330
49F
100
AcDbEntity
  8
1
100
AcDbLine
 10
9.811427
 20
-7.286297
 30
0.0
 11
9.671011
 21
-7.301725
 31
0.0
  0
LINE
  5
290
330
49F
100
AcDbEntity
  8
1
100
AcDbLine
 10
9.671011
 20
-7.301725
 30
0.0
 11
9.529742
 21
-7.314978999999999
 31
0.0
  0
LINE
  5
291
330
49F
100
AcDbEntity
  8
1
100
AcDbLine
 10
9.529742
 20
-7.314978999999999
 30
0.0
 11
9.387596
 21
-7.326121999999999
 31
0.0
  0
LINE
  5
292
330
49F
100
AcDbEntity
  8
1
100
AcDbLine
 10
9.387596
 20
-7.326121999999999
 30
0.0
 11
9.244488999999999
 21
-7.335292999999999
 31
0.0
  0
LINE
  5
293
330
49F
100
AcDbEntity
  8
1
100
AcDbLine
 10
9.244488999999999
 20
-7.335292999999999
 30
0.0
 11
9.100427999999999
 21
-7.342514999999999
 31
0.0
  0
LINE
  5
294
330
49F
100
AcDbEntity
  8
1
100
AcDbLine
 10
8.955408
 20
-7.347788999999999
 30
0.0
 11
8.809324999999999
 21
-7.351235
 31
0.0
  0
LINE
  5
295
330
49F
100
AcDbEntity
  8
1
100
AcDbLine
 10
8.809324999999999
 20
-7.351235
 30
0.0
 11
8.662296000000001
 21
-7.352864999999999
 31
0.0
  0
LINE
  5
296
330
49F
100
AcDbEntity
  8
1
100
AcDbLine
 10
8.662296000000001
 20
-7.352864999999999
 30
0.0
 11
8.514205
 21
-7.352672999999999
 31
0.0
  0
LINE
  5
297
330
49F
100
AcDbEntity
  8
1
100
AcDbLine
 10
8.514205
 20
-7.352672999999999
 30
0.0
 11
8.364605
 21
-7.35073
 31
0.0
  0
LINE
  5
298
330
49F
100
AcDbEntity
  8
1
100
AcDbLine
 10
8.364605
 20
-7.35073
 30
0.0
 11
8.213452
 21
-7.347049
 31
0.0
  0
LINE
  5
299
330
49F
100
AcDbEntity
  8
1
100
AcDbLine
 10
8.213452
 20
-7.347049
 30
0.0
 11
8.060789999999999
 21
-7.34161
 31
0.0
  0
LINE
  5
29A
330
49F
100
AcDbEntity
  8
1
100
AcDbLine
 10
8.060789999999999
 20
-7.34161
 30
0.0
 11
7.906299999999999
 21
-7.334433999999999
 31
0.0
  0
LINE
  5
29B
330
49F
100
AcDbEntity
  8
1
100
AcDbLine
 10
7.906299999999999
 20
-7.334433999999999
 30
0.0
 11
7.749947999999999
 21
-7.325517999999998
 31
0.0
  0
LINE
  5
29C
330
49F
100
AcDbEntity
  8
1
100
AcDbLine
 10
7.749947999999999
 20
-7.325517999999998
 30
0.0
 11
7.591767999999999
 21
-7.314846000000001
 31
0.0
  0
LINE
  5
29D
330
49F
100
AcDbEntity
  8
1
100
AcDbLine
 10
7.591767999999999
 20
-7.314846000000001
 30
0.0
 11
7.431544
 21
-7.302413999999999
 31
0.0
  0
LINE
  5
29E
330
49F
100
AcDbEntity
  8
1
100
AcDbLine
 10
7.431544
 20
-7.302413999999999
 30
0.0
 11
7.269294
 21
-7.288211
 31
0.0
  0
LINE
  5
29F
330
49F
100
AcDbEntity
  8
1
100
AcDbLine
 10
7.269294
 20
-7.288211
 30
0.0
 11
7.105
 21
-7.272213999999999
 31
0.0
  0
LINE
  5
2A0
330
49F
100
AcDbEntity
  8
1
100
AcDbLine
 10
7.105
 20
-7.272213999999999
 30
0.0
 11
6.938391
 21
-7.254394999999999
 31
0.0
  0
LINE
  5
2A1
330
49F
100
AcDbEntity
  8
1
100
AcDbLine
 10
6.938391
 20
-7.254394999999999
 30
0.0
 11
6.769532
 21
-7.234746
 31
0.0
  0
LINE
  5
2A2
330
49F
100
AcDbEntity
  8
1
100
AcDbLine
 10
6.769532
 20
-7.234746
 30
0.0
 11
6.598358999999999
 21
-7.213227
 31
0.0
  0
LINE
  5
2A3
330
49F
100
AcDbEntity
  8
1
100
AcDbLine
 10
6.598358999999999
 20
-7.213227
 30
0.0
 11
6.424404
 21
-7.18976
 31
0.0
  0
LINE
  5
2A4
330
49F
100
AcDbEntity
  8
1
100
AcDbLine
 10
6.424404
 20
-7.18976
 30
0.0
 11
6.247622999999999
 21
-7.164313
 31
0.0
  0
LINE
  5
2A5
330
49F
100
AcDbEntity
  8
1
100
AcDbLine
 10
6.247622999999999
 20
-7.164313
 30
0.0
 11
6.068061
 21
-7.136857
 31
0.0
  0
LINE
  5
2A6
330
49F
100
AcDbEntity
  8
1
100
AcDbLine
 10
6.068061
 20
-7.136857
 30
0.0
 11
5.885387
 21
-7.107302999999999
 31
0.0
  0
LINE
  5
2A7
330
49F
100
AcDbEntity
  8
1
100
AcDbLine
 10
5.885387
 20
-7.107302999999999
 30
0.0
 11
5.699493
 21
-7.075594999999999
 31
0.0
  0
LINE
  5
2A8
330
49F
100
AcDbEntity
  8
1
100
AcDbLine
 10
5.699493
 20
-7.075594999999999
 30
0.0
 11
5.510487
 21
-7.041711999999999
 31
0.0
  0
LINE
  5
2A9
330
49F
100
AcDbEntity
  8
1
100
AcDbLine
 10
5.510487
 20
-7.041711999999999
 30
0.0
 11
5.318369
 21
-7.005616
 31
0.0
  0
LINE
  5
2AA
330
49F
100
AcDbEntity
  8
1
100
AcDbLine
 10
8.251241
 20
-6.569101999999999
 30
0.0
 11
8.235101
 21
-6.573064999999999
 31
0.0
  0
LINE
  5
2AB
330
49F
100
AcDbEntity
  8
1
100
AcDbLine
 10
8.235101
 20
-6.573064999999999
 30
0.0
 11
8.187774
 21
-6.583736999999999
 31
0.0
  0
LINE
  5
2AC
330
49F
100
AcDbEntity
  8
1
100
AcDbLine
 10
8.187774
 20
-6.583736999999999
 30
0.0
 11
8.140138
 21
-6.593074999999999
 31
0.0
  0
LINE
  5
2AD
330
49F
100
AcDbEntity
  8
1
100
AcDbLine
 10
8.140138
 20
-6.593074999999999
 30
0.0
 11
8.092369999999998
 21
-6.601047999999999
 31
0.0
  0
LINE
  5
2AE
330
49F
100
AcDbEntity
  8
1
100
AcDbLine
 10
8.092369999999998
 20
-6.601047999999999
 30
0.0
 11
8.044494
 21
-6.607661
 31
0.0
  0
LINE
  5
2AF
330
49F
100
AcDbEntity
  8
1
100
AcDbLine
 10
8.044494
 20
-6.607661
 30
0.0
 11
7.996554999999999
 21
-6.612921
 31
0.0
  0
LINE
  5
2B0
330
49F
100
AcDbEntity
  8
1
100
AcDbLine
 10
7.996554999999999
 20
-6.612921
 30
0.0
 11
7.948761999999999
 21
-6.616805999999999
 31
0.0
  0
LINE
  5
2B1
330
49F
100
AcDbEntity
  8
1
100
AcDbLine
 10
7.948761999999999
 20
-6.616805999999999
 30
0.0
 11
7.901161
 21
-6.619333
 31
0.0
  0
LINE
  5
2B2
330
49F
100
AcDbEntity
  8
1
100
AcDbLine
 10
7.901161
 20
-6.619333
 30
0.0
 11
7.853777
 21
-6.620522999999999
 31
0.0
  0
LINE
  5
2B3
330
49F
100
AcDbEntity
  8
1
100
AcDbLine
 10
7.853777
 20
-6.620522999999999
 30
0.0
 11
7.806786999999999
 21
-6.620377
 31
0.0
  0
LINE
  5
2B4
330
49F
100
AcDbEntity
  8
1
100
AcDbLine
 10
7.806786999999999
 20
-6.620377
 30
0.0
 11
7.760257000000001
 21
-6.618922999999999
 31
0.0
  0
LINE
  5
2B5
330
49F
100
AcDbEntity
  8
1
100
AcDbLine
 10
7.760257000000001
 20
-6.618922999999999
 30
0.0
 11
7.714189
 21
-6.616194
 31
0.0
  0
LINE
  5
2B6
330
49F
100
AcDbEntity
  8
1
100
AcDbLine
 10
7.714189
 20
-6.616194
 30
0.0
 11
7.668663999999999
 21
-6.612200999999999
 31
0.0
  0
LINE
  5
2B7
330
49F
100
AcDbEntity
  8
1
100
AcDbLine
 10
7.668663999999999
 20
-6.612200999999999
 30
0.0
 11
7.623723
 21
-6.606977
 31
0.0
  0
LINE
  5
2B8
330
49F
100
AcDbEntity
  8
1
100
AcDbLine
 10
7.623723
 20
-6.606977
 30
0.0
 11
7.579386999999999
 21
-6.600553999999998
 31
0.0
  0
LINE
  5
2B9
330
49F
100
AcDbEntity
  8
1
100
AcDbLine
 10
7.579386999999999
 20
-6.600553999999998
 30
0.0
 11
7.53571
 21
-6.592947
 31
0.0
  0
LINE
  5
2BA
330
49F
100
AcDbEntity
  8
1
100
AcDbLine
 10
7.53571
 20
-6.592947
 30
0.0
 11
7.492732000000001
 21
-6.584188
 31
0.0
  0
LINE
  5
2BB
330
49F
100
AcDbEntity
  8
1
100
AcDbLine
 10
7.492732000000001
 20
-6.584188
 30
0.0
 11
7.45047
 21
-6.574311999999999
 31
0.0
  0
LINE
  5
2BC
330
49F
100
AcDbEntity
  8
1
100
AcDbLine
 10
7.45047
 20
-6.574311999999999
 30
0.0
 11
7.408938
 21
-6.563322
 31
0.0
  0
LINE
  5
2BD
330
49F
100
AcDbEntity
  8
1
100
AcDbLine
 10
7.368155
 20
-6.551247
 30
0.0
 11
7.328157
 21
-6.538119999999999
 31
0.0
  0
LINE
  5
2BE
330
49F
100
AcDbEntity
  8
1
100
AcDbLine
 10
7.328157
 20
-6.538119999999999
 30
0.0
 11
7.288988999999999
 21
-6.523951
 31
0.0
  0
LINE
  5
2BF
330
49F
100
AcDbEntity
  8
1
100
AcDbLine
 10
7.288988999999999
 20
-6.523951
 30
0.0
 11
7.250658
 21
-6.508761999999999
 31
0.0
  0
LINE
  5
2C0
330
49F
100
AcDbEntity
  8
1
100
AcDbLine
 10
7.250658
 20
-6.508761999999999
 30
0.0
 11
7.213210000000001
 21
-6.492595999999999
 31
0.0
  0
LINE
  5
2C1
330
49F
100
AcDbEntity
  8
1
100
AcDbLine
 10
7.213210000000001
 20
-6.492595999999999
 30
0.0
 11
7.176753999999998
 21
-6.475487
 31
0.0
  0
LINE
  5
2C2
330
49F
100
AcDbEntity
  8
1
100
AcDbLine
 10
7.176753999999998
 20
-6.475487
 30
0.0
 11
7.141275
 21
-6.457450999999999
 31
0.0
  0
LINE
  5
2C3
330
49F
100
AcDbEntity
  8
1
100
AcDbLine
 10
7.141275
 20
-6.457450999999999
 30
0.0
 11
7.106833999999999
 21
-6.438549
 31
0.0
  0
LINE
  5
2C4
330
49F
100
AcDbEntity
  8
1
100
AcDbLine
 10
7.106833999999999
 20
-6.438549
 30
0.0
 11
7.073646
 21
-6.418902
 31
0.0
  0
LINE
  5
2C5
330
49F
100
AcDbEntity
  8
1
100
AcDbLine
 10
7.073646
 20
-6.418902
 30
0.0
 11
7.041765999999999
 21
-6.398581
 31
0.0
  0
LINE
  5
2C6
330
49F
100
AcDbEntity
  8
1
100
AcDbLine
 10
7.011163
 20
-6.377616999999999
 30
0.0
 11
6.98191
 21
-6.356086
 31
0.0
  0
LINE
  5
2C7
330
49F
100
AcDbEntity
  8
1
100
AcDbLine
 10
6.98191
 20
-6.356086
 30
0.0
 11
6.954007999999999
 21
-6.334026
 31
0.0
  0
LINE
  5
2C8
330
49F
100
AcDbEntity
  8
1
100
AcDbLine
 10
6.954007999999999
 20
-6.334026
 30
0.0
 11
6.927469
 21
-6.311500999999999
 31
0.0
  0
LINE
  5
2C9
330
49F
100
AcDbEntity
  8
1
100
AcDbLine
 10
6.927469
 20
-6.311500999999999
 30
0.0
 11
6.902371
 21
-6.288623999999999
 31
0.0
  0
LINE
  5
2CA
330
49F
100
AcDbEntity
  8
1
100
AcDbLine
 10
6.902371
 20
-6.288623999999999
 30
0.0
 11
6.878746
 21
-6.265473
 31
0.0
  0
LINE
  5
2CB
330
49F
100
AcDbEntity
  8
1
100
AcDbLine
 10
6.878746
 20
-6.265473
 30
0.0
 11
6.856553999999999
 21
-6.24207
 31
0.0
  0
LINE
  5
2CC
330
49F
100
AcDbEntity
  8
1
100
AcDbLine
 10
6.83576
 20
-6.218448999999999
 30
0.0
 11
6.816339
 21
-6.194619999999999
 31
0.0
  0
LINE
  5
2CD
330
49F
100
AcDbEntity
  8
1
100
AcDbLine
 10
6.816339
 20
-6.194619999999999
 30
0.0
 11
6.798307
 21
-6.170658
 31
0.0
  0
LINE
  5
2CE
330
49F
100
AcDbEntity
  8
1
100
AcDbLine
 10
6.798307
 20
-6.170658
 30
0.0
 11
6.781683
 21
-6.146687
 31
0.0
  0
LINE
  5
2CF
330
49F
100
AcDbEntity
  8
1
100
AcDbLine
 10
6.781683
 20
-6.146687
 30
0.0
 11
6.766453999999999
 21
-6.122727999999999
 31
0.0
  0
LINE
  5
2D0
330
49F
100
AcDbEntity
  8
1
100
AcDbLine
 10
6.766453999999999
 20
-6.122727999999999
 30
0.0
 11
6.752606
 21
-6.098837
 31
0.0
  0
LINE
  5
2D1
330
49F
100
AcDbEntity
  8
1
100
AcDbLine
 10
6.752606
 20
-6.098837
 30
0.0
 11
6.740130999999999
 21
-6.075194999999999
 31
0.0
  0
LINE
  5
2D2
330
49F
100
AcDbEntity
  8
1
100
AcDbLine
 10
6.740130999999999
 20
-6.075194999999999
 30
0.0
 11
6.729008999999999
 21
-6.051883999999999
 31
0.0
  0
LINE
  5
2D3
330
49F
100
AcDbEntity
  8
1
100
AcDbLine
 10
6.729008999999999
 20
-6.051883999999999
 30
0.0
 11
6.719208
 21
-6.028883
 31
0.0
  0
LINE
  5
2D4
330
49F
100
AcDbEntity
  8
1
100
AcDbLine
 10
6.719208
 20
-6.028883
 30
0.0
 11
6.710702999999999
 21
-6.006219
 31
0.0
  0
LINE
  5
2D5
330
49F
100
AcDbEntity
  8
1
100
AcDbLine
 10
5.195033
 20
-6.874013
 30
0.0
 11
5.075423
 21
-6.737683999999999
 31
0.0
  0
LINE
  5
2D6
330
49F
100
AcDbEntity
  8
1
100
AcDbLine
 10
5.075423
 20
-6.737683999999999
 30
0.0
 11
4.95954
 21
-6.596599
 31
0.0
  0
LINE
  5
2D7
330
49F
100
AcDbEntity
  8
1
100
AcDbLine
 10
4.95954
 20
-6.596599
 30
0.0
 11
4.847391
 21
-6.450566
 31
0.0
  0
LINE
  5
2D8
330
49F
100
AcDbEntity
  8
1
100
AcDbLine
 10
4.847391
 20
-6.450566
 30
0.0
 11
4.738968999999999
 21
-6.299726
 31
0.0
  0
LINE
  5
2D9
330
49F
100
AcDbEntity
  8
1
100
AcDbLine
 10
4.634252
 20
-6.144587
 30
0.0
 11
4.533230999999999
 21
-5.985195
 31
0.0
  0
LINE
  5
2DA
330
49F
100
AcDbEntity
  8
1
100
AcDbLine
 10
4.533230999999999
 20
-5.985195
 30
0.0
 11
4.435915
 21
-5.821560999999999
 31
0.0
  0
LINE
  5
2DB
330
49F
100
AcDbEntity
  8
1
100
AcDbLine
 10
4.435915
 20
-5.821560999999999
 30
0.0
 11
4.342312
 21
-5.654215999999999
 31
0.0
  0
LINE
  5
2DC
330
49F
100
AcDbEntity
  8
1
100
AcDbLine
 10
4.342312
 20
-5.654215999999999
 30
0.0
 11
4.252399999999999
 21
-5.48324
 31
0.0
  0
LINE
  5
2DD
330
49F
100
AcDbEntity
  8
1
100
AcDbLine
 10
5.318369
 20
-7.005616
 30
0.0
 11
5.195033
 21
-6.874013
 31
0.0
  0
LINE
  5
2DE
330
49F
100
AcDbEntity
  8
1
100
AcDbLine
 10
4.166201
 20
-5.308691
 30
0.0
 11
4.083789
 21
-5.131122
 31
0.0
  0
LINE
  5
2DF
330
49F
100
AcDbEntity
  8
1
100
AcDbLine
 10
4.083789
 20
-5.131122
 30
0.0
 11
4.005062999999999
 21
-4.950407
 31
0.0
  0
LINE
  5
2E0
330
49F
100
AcDbEntity
  8
1
100
AcDbLine
 10
4.005062999999999
 20
-4.950407
 30
0.0
 11
3.930123
 21
-4.766865
 31
0.0
  0
LINE
  5
2E1
330
49F
100
AcDbEntity
  8
1
100
AcDbLine
 10
3.930123
 20
-4.766865
 30
0.0
 11
3.859351
 21
-4.581805999999999
 31
0.0
  0
LINE
  5
2E2
330
49F
100
AcDbEntity
  8
1
100
AcDbLine
 10
3.859351
 20
-4.581805999999999
 30
0.0
 11
3.792872
 21
-4.395791
 31
0.0
  0
LINE
  5
2E3
330
49F
100
AcDbEntity
  8
1
100
AcDbLine
 10
3.792872
 20
-4.395791
 30
0.0
 11
3.730559999999999
 21
-4.208573
 31
0.0
  0
LINE
  5
2E4
330
49F
100
AcDbEntity
  8
1
100
AcDbLine
 10
3.730559999999999
 20
-4.208573
 30
0.0
 11
3.672413999999999
 21
-4.020298
 31
0.0
  0
LINE
  5
2E5
330
49F
100
AcDbEntity
  8
1
100
AcDbLine
 10
3.850466
 20
-9.115322
 30
0.0
 11
0.0
 21
-9.115322
 31
0.0
  0
LINE
  5
2E6
330
49F
100
AcDbEntity
  8
1
100
AcDbLine
 10
0.0
 20
-9.115322
 30
0.0
 11
0.0
 21
9.115322
 31
0.0
  0
LINE
  5
2E7
330
49F
100
AcDbEntity
  8
1
100
AcDbLine
 10
0.0
 20
9.115322
 30
0.0
 11
3.995569
 21
9.105005
 31
0.0
  0
LINE
  5
2E8
330
49F
100
AcDbEntity
  8
1
100
AcDbLine
 10
6.710702999999999
 20
-6.006219
 30
0.0
 11
6.716255
 21
-5.989023999999999
 31
0.0
  0
LINE
  5
2E9
330
49F
100
AcDbEntity
  8
1
100
AcDbLine
 10
6.716255
 20
-5.989023999999999
 30
0.0
 11
6.722158
 21
-5.971757
 31
0.0
  0
LINE
  5
2EA
330
49F
100
AcDbEntity
  8
1
100
AcDbLine
 10
6.722158
 20
-5.971757
 30
0.0
 11
6.728411999999999
 21
-5.954419
 31
0.0
  0
LINE
  5
2EB
330
49F
100
AcDbEntity
  8
1
100
AcDbLine
 10
6.728411999999999
 20
-5.954419
 30
0.0
 11
6.735017999999999
 21
-5.937003999999999
 31
0.0
  0
LINE
  5
2EC
330
49F
100
AcDbEntity
  8
1
100
AcDbLine
 10
6.735017999999999
 20
-5.937003999999999
 30
0.0
 11
6.741977
 21
-5.919519
 31
0.0
  0
LINE
  5
2ED
330
49F
100
AcDbEntity
  8
1
100
AcDbLine
 10
6.741977
 20
-5.919519
 30
0.0
 11
6.749292999999998
 21
-5.901994
 31
0.0
  0
LINE
  5
2EE
330
49F
100
AcDbEntity
  8
1
100
AcDbLine
 10
6.749292999999998
 20
-5.901994
 30
0.0
 11
6.756966999999999
 21
-5.88444
 31
0.0
  0
LINE
  5
2EF
330
49F
100
AcDbEntity
  8
1
100
AcDbLine
 10
6.756966999999999
 20
-5.88444
 30
0.0
 11
6.764999999999999
 21
-5.866848
 31
0.0
  0
LINE
  5
2F0
330
49F
100
AcDbEntity
  8
1
100
AcDbLine
 10
6.764999999999999
 20
-5.866848
 30
0.0
 11
6.773392999999999
 21
-5.849218
 31
0.0
  0
LINE
  5
2F1
330
49F
100
AcDbEntity
  8
1
100
AcDbLine
 10
6.710702999999999
 20
-6.006219
 30
0.0
 11
6.582096
 21
-6.083833999999999
 31
0.0
  0
LINE
  5
2F2
330
49F
100
AcDbEntity
  8
1
100
AcDbLine
 10
6.582096
 20
-6.083833999999999
 30
0.0
 11
6.455499999999999
 21
-6.162665
 31
0.0
  0
LINE
  5
2F3
330
49F
100
AcDbEntity
  8
1
100
AcDbLine
 10
6.455499999999999
 20
-6.162665
 30
0.0
 11
6.331001
 21
-6.242658
 31
0.0
  0
LINE
  5
2F4
330
49F
100
AcDbEntity
  8
1
100
AcDbLine
 10
6.331001
 20
-6.242658
 30
0.0
 11
6.208683
 21
-6.323756999999999
 31
0.0
  0
LINE
  5
2F5
330
49F
100
AcDbEntity
  8
1
100
AcDbLine
 10
6.208683
 20
-6.323756999999999
 30
0.0
 11
6.088631999999999
 21
-6.405907
 31
0.0
  0
LINE
  5
2F6
330
49F
100
AcDbEntity
  8
1
100
AcDbLine
 10
6.088631999999999
 20
-6.405907
 30
0.0
 11
5.970926999999999
 21
-6.489053
 31
0.0
  0
LINE
  5
2F7
330
49F
100
AcDbEntity
  8
1
100
AcDbLine
 10
5.970926999999999
 20
-6.489053
 30
0.0
 11
5.855649999999999
 21
-6.573139
 31
0.0
  0
LINE
  5
2F8
330
49F
100
AcDbEntity
  8
1
100
AcDbLine
 10
5.855649999999999
 20
-6.573139
 30
0.0
 11
5.742879
 21
-6.658104999999999
 31
0.0
  0
LINE
  5
2F9
330
49F
100
AcDbEntity
  8
1
100
AcDbLine
 10
5.742879
 20
-6.658104999999999
 30
0.0
 11
5.632691
 21
-6.743894
 31
0.0
  0
LINE
  5
2FA
330
49F
100
AcDbEntity
  8
1
100
AcDbLine
 10
5.632691
 20
-6.743894
 30
0.0
 11
5.525161999999999
 21
-6.830449
 31
0.0
  0
LINE
  5
2FB
330
49F
100
AcDbEntity
  8
1
100
AcDbLine
 10
5.525161999999999
 20
-6.830449
 30
0.0
 11
5.420364
 21
-6.917708999999999
 31
0.0
  0
LINE
  5
2FC
330
49F
100
AcDbEntity
  8
1
100
AcDbLine
 10
5.420364
 20
-6.917708999999999
 30
0.0
 11
5.318369
 21
-7.005616
 31
0.0
  0
LINE
  5
2FD
330
49F
100
AcDbEntity
  8
1
100
AcDbLine
 10
3.850466
 20
-9.115322
 30
0.0
 11
3.828962
 21
-9.115066
 31
0.0
  0
LINE
  5
2FE
330
49F
100
AcDbEntity
  8
1
100
AcDbLine
 10
3.828962
 20
-9.115066
 30
0.0
 11
3.807885999999999
 21
-9.114299
 31
0.0
  0
LINE
  5
2FF
330
49F
100
AcDbEntity
  8
1
100
AcDbLine
 10
3.807885999999999
 20
-9.114299
 30
0.0
 11
3.787241
 21
-9.113025
 31
0.0
  0
LINE
  5
300
330
49F
100
AcDbEntity
  8
1
100
AcDbLine
 10
3.787241
 20
-9.113025
 30
0.0
 11
3.767024999999999
 21
-9.111247999999999
 31
0.0
  0
LINE
  5
301
330
49F
100
AcDbEntity
  8
1
100
AcDbLine
 10
3.767024999999999
 20
-9.111247999999999
 30
0.0
 11
3.747238999999999
 21
-9.108972999999998
 31
0.0
  0
LINE
  5
302
330
49F
100
AcDbEntity
  8
1
100
AcDbLine
 10
3.747238999999999
 20
-9.108972999999998
 30
0.0
 11
3.727884999999999
 21
-9.106203
 31
0.0
  0
LINE
  5
303
330
49F
100
AcDbEntity
  8
1
100
AcDbLine
 10
3.727884999999999
 20
-9.106203
 30
0.0
 11
3.708962999999999
 21
-9.102944
 31
0.0
  0
LINE
  5
304
330
49F
100
AcDbEntity
  8
1
100
AcDbLine
 10
3.708962999999999
 20
-9.102944
 30
0.0
 11
3.690473
 21
-9.099199
 31
0.0
  0
LINE
  5
305
330
49F
100
AcDbEntity
  8
1
100
AcDbLine
 10
3.690473
 20
-9.099199
 30
0.0
 11
3.672413999999999
 21
-9.094972
 31
0.0
  0
LINE
  5
306
330
49F
100
AcDbEntity
  8
1
100
AcDbLine
 10
4.113272
 20
-9.083449999999999
 30
0.0
 11
4.075317
 21
-9.091836999999999
 31
0.0
  0
LINE
  5
307
330
49F
100
AcDbEntity
  8
1
100
AcDbLine
 10
4.075317
 20
-9.091836999999999
 30
0.0
 11
3.996539999999999
 21
-9.104877999999999
 31
0.0
  0
LINE
  5
308
330
49F
100
AcDbEntity
  8
1
100
AcDbLine
 10
3.996539999999999
 20
-9.104877999999999
 30
0.0
 11
3.921588999999999
 21
-9.112709999999999
 31
0.0
  0
LINE
  5
309
330
49F
100
AcDbEntity
  8
1
100
AcDbLine
 10
9.037990999999999
 20
-2.501329
 30
0.0
 11
9.041392999999999
 21
-2.592537
 31
0.0
  0
LINE
  5
30A
330
49F
100
AcDbEntity
  8
1
100
AcDbLine
 10
3.921588999999999
 20
-9.112709999999999
 30
0.0
 11
3.850466
 21
-9.115322
 31
0.0
  0
LINE
  5
30B
330
49F
100
AcDbEntity
  8
1
100
AcDbLine
 10
6.710702999999999
 20
1.350854999999999
 30
0.0
 11
6.716255
 21
1.362108
 31
0.0
  0
LINE
  5
30C
330
49F
100
AcDbEntity
  8
1
100
AcDbLine
 10
6.716255
 20
1.362108
 30
0.0
 11
6.722158
 21
1.373267
 31
0.0
  0
LINE
  5
30D
330
49F
100
AcDbEntity
  8
1
100
AcDbLine
 10
6.722158
 20
1.373267
 30
0.0
 11
6.728411999999999
 21
1.384337999999999
 31
0.0
  0
LINE
  5
30E
330
49F
100
AcDbEntity
  8
1
100
AcDbLine
 10
6.735017999999999
 20
1.395326
 30
0.0
 11
6.741977
 21
1.406227
 31
0.0
  0
LINE
  5
30F
330
49F
100
AcDbEntity
  8
1
100
AcDbLine
 10
6.741977
 20
1.406227
 30
0.0
 11
6.749292999999998
 21
1.417018
 31
0.0
  0
LINE
  5
310
330
49F
100
AcDbEntity
  8
1
100
AcDbLine
 10
6.749292999999998
 20
1.417018
 30
0.0
 11
6.756966999999999
 21
1.427689999999999
 31
0.0
  0
LINE
  5
311
330
49F
100
AcDbEntity
  8
1
100
AcDbLine
 10
6.756966999999999
 20
1.427689999999999
 30
0.0
 11
6.764999999999999
 21
1.438254
 31
0.0
  0
LINE
  5
312
330
49F
100
AcDbEntity
  8
1
100
AcDbLine
 10
6.764999999999999
 20
1.438254
 30
0.0
 11
6.773392999999999
 21
1.448713999999999
 31
0.0
  0
LINE
  5
313
330
49F
100
AcDbEntity
  8
1
100
AcDbLine
 10
6.773392999999999
 20
1.448713999999999
 30
0.0
 11
6.791361
 21
1.469425
 31
0.0
  0
LINE
  5
314
330
49F
100
AcDbEntity
  8
1
100
AcDbLine
 10
6.791361
 20
1.469425
 30
0.0
 11
6.810864999999999
 21
1.48952
 31
0.0
  0
LINE
  5
315
330
49F
100
AcDbEntity
  8
1
100
AcDbLine
 10
6.810864999999999
 20
1.48952
 30
0.0
 11
6.831914999999999
 21
1.509012999999999
 31
0.0
  0
LINE
  5
316
330
49F
100
AcDbEntity
  8
1
100
AcDbLine
 10
6.831914999999999
 20
1.509012999999999
 30
0.0
 11
6.851933999999999
 21
1.525886
 31
0.0
  0
LINE
  5
317
330
49F
100
AcDbEntity
  8
1
100
AcDbLine
 10
5.379762
 20
1.529651
 30
0.0
 11
5.318369
 21
1.547719999999999
 31
0.0
  0
LINE
  5
318
330
49F
100
AcDbEntity
  8
1
100
AcDbLine
 10
6.710702999999999
 20
1.350854999999999
 30
0.0
 11
6.582096
 21
1.354341999999999
 31
0.0
  0
LINE
  5
319
330
49F
100
AcDbEntity
  8
1
100
AcDbLine
 10
6.582096
 20
1.354341999999999
 30
0.0
 11
6.455499999999999
 21
1.360204999999999
 31
0.0
  0
LINE
  5
31A
330
49F
100
AcDbEntity
  8
1
100
AcDbLine
 10
6.455499999999999
 20
1.360204999999999
 30
0.0
 11
6.331001
 21
1.368435999999999
 31
0.0
  0
LINE
  5
31B
330
49F
100
AcDbEntity
  8
1
100
AcDbLine
 10
6.331001
 20
1.368435999999999
 30
0.0
 11
6.208683
 21
1.379032999999999
 31
0.0
  0
LINE
  5
31C
330
49F
100
AcDbEntity
  8
1
100
AcDbLine
 10
6.088631999999999
 20
1.391987
 30
0.0
 11
5.970926999999999
 21
1.407287999999999
 31
0.0
  0
LINE
  5
31D
330
49F
100
AcDbEntity
  8
1
100
AcDbLine
 10
5.970926999999999
 20
1.407287999999999
 30
0.0
 11
5.855649999999999
 21
1.424927999999999
 31
0.0
  0
LINE
  5
31E
330
49F
100
AcDbEntity
  8
1
100
AcDbLine
 10
13.711558
 20
2.293061999999999
 30
0.0
 11
13.410495
 21
2.155763
 31
0.0
  0
LINE
  5
31F
330
49F
100
AcDbEntity
  8
1
100
AcDbLine
 10
5.742879
 20
1.444892999999999
 30
0.0
 11
5.632691
 21
1.467171999999999
 31
0.0
  0
LINE
  5
320
330
49F
100
AcDbEntity
  8
1
100
AcDbLine
 10
5.632691
 20
1.467171999999999
 30
0.0
 11
5.525161999999999
 21
1.491746999999999
 31
0.0
  0
LINE
  5
321
330
49F
100
AcDbEntity
  8
1
100
AcDbLine
 10
14.0
 20
-7.232957999999999
 30
0.0
 11
14.0
 21
-3.272151
 31
0.0
  0
LINE
  5
322
330
49F
100
AcDbEntity
  8
1
100
AcDbLine
 10
13.255239
 20
2.085484
 30
0.0
 11
12.934456
 21
1.94134
 31
0.0
  0
LINE
  5
323
330
49F
100
AcDbEntity
  8
1
100
AcDbLine
 10
9.041392999999999
 20
-2.592537
 30
0.0
 11
9.049965999999999
 21
-2.684495
 31
0.0
  0
LINE
  5
324
330
49F
100
AcDbEntity
  8
1
100
AcDbLine
 10
9.049965999999999
 20
-2.684495
 30
0.0
 11
9.063538000000001
 21
-2.777740999999999
 31
0.0
  0
LINE
  5
325
330
49F
100
AcDbEntity
  8
1
100
AcDbLine
 10
9.063538000000001
 20
-2.777740999999999
 30
0.0
 11
9.082281
 21
-2.871755999999999
 31
0.0
  0
LINE
  5
326
330
49F
100
AcDbEntity
  8
1
100
AcDbLine
 10
9.082281
 20
-2.871755999999999
 30
0.0
 11
9.106713
 21
-2.964987999999999
 31
0.0
  0
LINE
  5
327
330
49F
100
AcDbEntity
  8
1
100
AcDbLine
 10
9.106713
 20
-2.964987999999999
 30
0.0
 11
9.137119999999999
 21
-3.057375999999999
 31
0.0
  0
LINE
  5
328
330
49F
100
AcDbEntity
  8
1
100
AcDbLine
 10
9.137119999999999
 20
-3.057375999999999
 30
0.0
 11
9.173216
 21
-3.149039
 31
0.0
  0
LINE
  5
329
330
49F
100
AcDbEntity
  8
1
100
AcDbLine
 10
9.173216
 20
-3.149039
 30
0.0
 11
9.214648
 21
-3.238715
 31
0.0
  0
LINE
  5
32A
330
49F
100
AcDbEntity
  8
1
100
AcDbLine
 10
9.214648
 20
-3.238715
 30
0.0
 11
9.261503999999998
 21
-3.326144999999999
 31
0.0
  0
LINE
  5
32B
330
49F
100
AcDbEntity
  8
1
100
AcDbLine
 10
9.261503999999998
 20
-3.326144999999999
 30
0.0
 11
9.313696999999999
 21
-3.411659999999999
 31
0.0
  0
LINE
  5
32C
330
49F
100
AcDbEntity
  8
1
100
AcDbLine
 10
9.313696999999999
 20
-3.411659999999999
 30
0.0
 11
9.370618999999999
 21
-3.494891999999999
 31
0.0
  0
LINE
  5
32D
330
49F
100
AcDbEntity
  8
1
100
AcDbLine
 10
9.370618999999999
 20
-3.494891999999999
 30
0.0
 11
9.432216
 21
-3.575705999999999
 31
0.0
  0
LINE
  5
32E
330
49F
100
AcDbEntity
  8
1
100
AcDbLine
 10
9.432216
 20
-3.575705999999999
 30
0.0
 11
9.498541000000001
 21
-3.654303
 31
0.0
  0
LINE
  5
32F
330
49F
100
AcDbEntity
  8
1
100
AcDbLine
 10
9.498541000000001
 20
-3.654303
 30
0.0
 11
9.569155
 21
-3.730802999999999
 31
0.0
  0
LINE
  5
330
330
49F
100
AcDbEntity
  8
1
100
AcDbLine
 10
9.569155
 20
-3.730802999999999
 30
0.0
 11
9.644169999999999
 21
-3.805312999999999
 31
0.0
  0
LINE
  5
331
330
49F
100
AcDbEntity
  8
1
100
AcDbLine
 10
9.644169999999999
 20
-3.805312999999999
 30
0.0
 11
9.723472000000001
 21
-3.877781999999999
 31
0.0
  0
LINE
  5
332
330
49F
100
AcDbEntity
  8
1
100
AcDbLine
 10
9.723472000000001
 20
-3.877781999999999
 30
0.0
 11
9.80628
 21
-3.948083
 31
0.0
  0
LINE
  5
333
330
49F
100
AcDbEntity
  8
1
100
AcDbLine
 10
9.80628
 20
-3.948083
 30
0.0
 11
9.892661999999999
 21
-4.016226
 31
0.0
  0
LINE
  5
334
330
49F
100
AcDbEntity
  8
1
100
AcDbLine
 10
9.892661999999999
 20
-4.016226
 30
0.0
 11
9.982547999999999
 21
-4.082244999999999
 31
0.0
  0
LINE
  5
335
330
49F
100
AcDbEntity
  8
1
100
AcDbLine
 10
9.982547999999999
 20
-4.082244999999999
 30
0.0
 11
10.074945
 21
-4.146036
 31
0.0
  0
LINE
  5
336
330
49F
100
AcDbEntity
  8
1
100
AcDbLine
 10
10.074945
 20
-4.146036
 30
0.0
 11
10.169521
 21
-4.207573
 31
0.0
  0
LINE
  5
337
330
49F
100
AcDbEntity
  8
1
100
AcDbLine
 10
10.169521
 20
-4.207573
 30
0.0
 11
10.266607
 21
-4.266912
 31
0.0
  0
LINE
  5
338
330
49F
100
AcDbEntity
  8
1
100
AcDbLine
 10
10.266607
 20
-4.266912
 30
0.0
 11
10.366203
 21
-4.324065
 31
0.0
  0
LINE
  5
339
330
49F
100
AcDbEntity
  8
1
100
AcDbLine
 10
9.566202999999999
 20
-4.794944
 30
0.0
 11
9.500638
 21
-4.610244
 31
0.0
  0
LINE
  5
33A
330
49F
100
AcDbEntity
  8
1
100
AcDbLine
 10
9.500638
 20
-4.610244
 30
0.0
 11
9.43523
 21
-4.423720999999999
 31
0.0
  0
LINE
  5
33B
330
49F
100
AcDbEntity
  8
1
100
AcDbLine
 10
9.43523
 20
-4.423720999999999
 30
0.0
 11
9.369982
 21
-4.235376
 31
0.0
  0
LINE
  5
33C
330
49F
100
AcDbEntity
  8
1
100
AcDbLine
 10
9.369982
 20
-4.235376
 30
0.0
 11
9.304857999999999
 21
-4.045101999999999
 31
0.0
  0
LINE
  5
33D
330
49F
100
AcDbEntity
  8
1
100
AcDbLine
 10
9.304857999999999
 20
-4.045101999999999
 30
0.0
 11
9.239891999999999
 21
-3.853006999999999
 31
0.0
  0
LINE
  5
33E
330
49F
100
AcDbEntity
  8
1
100
AcDbLine
 10
9.239891999999999
 20
-3.853006999999999
 30
0.0
 11
9.175190999999999
 21
-3.659401999999999
 31
0.0
  0
LINE
  5
33F
330
49F
100
AcDbEntity
  8
1
100
AcDbLine
 10
9.110755000000001
 20
-3.464288999999999
 30
0.0
 11
9.046583999999999
 21
-3.267668
 31
0.0
  0
LINE
  5
340
330
49F
100
AcDbEntity
  8
1
100
AcDbLine
 10
9.046583999999999
 20
-3.267668
 30
0.0
 11
8.982778999999998
 21
-3.069852999999999
 31
0.0
  0
LINE
  5
341
330
49F
100
AcDbEntity
  8
1
100
AcDbLine
 10
8.982778999999998
 20
-3.069852999999999
 30
0.0
 11
8.919374000000001
 21
-2.870951999999999
 31
0.0
  0
LINE
  5
342
330
49F
100
AcDbEntity
  8
1
100
AcDbLine
 10
8.919374000000001
 20
-2.870951999999999
 30
0.0
 11
8.856334
 21
-2.670857999999999
 31
0.0
  0
LINE
  5
343
330
49F
100
AcDbEntity
  8
1
100
AcDbLine
 10
8.856334
 20
-2.670857999999999
 30
0.0
 11
8.793661
 21
-2.469570999999999
 31
0.0
  0
LINE
  5
344
330
49F
100
AcDbEntity
  8
1
100
AcDbLine
 10
13.110896
 20
-3.817306999999999
 30
0.0
 11
12.654922
 21
-3.956455999999999
 31
0.0
  0
LINE
  5
345
330
49F
100
AcDbEntity
  8
1
100
AcDbLine
 10
12.654922
 20
-3.956455999999999
 30
0.0
 11
12.198358
 21
-4.094557
 31
0.0
  0
LINE
  5
346
330
49F
100
AcDbEntity
  8
1
100
AcDbLine
 10
12.198358
 20
-4.094557
 30
0.0
 11
11.741204
 21
-4.231608999999999
 31
0.0
  0
LINE
  5
347
330
49F
100
AcDbEntity
  8
1
100
AcDbLine
 10
11.741204
 20
-4.231608999999999
 30
0.0
 11
11.283461
 21
-4.367613999999999
 31
0.0
  0
LINE
  5
348
330
49F
100
AcDbEntity
  8
1
100
AcDbLine
 10
11.283461
 20
-4.367613999999999
 30
0.0
 11
10.825127
 21
-4.502569999999999
 31
0.0
  0
LINE
  5
349
330
49F
100
AcDbEntity
  8
1
100
AcDbLine
 10
10.825127
 20
-4.502569999999999
 30
0.0
 11
10.366203
 21
-4.636476999999999
 31
0.0
  0
LINE
  5
34A
330
49F
100
AcDbEntity
  8
1
100
AcDbLine
 10
12.998294
 20
-3.525469
 30
0.0
 11
12.561361
 21
-3.660505
 31
0.0
  0
LINE
  5
34B
330
49F
100
AcDbEntity
  8
1
100
AcDbLine
 10
12.561361
 20
-3.660505
 30
0.0
 11
12.123729
 21
-3.794812999999999
 31
0.0
  0
LINE
  5
34C
330
49F
100
AcDbEntity
  8
1
100
AcDbLine
 10
12.123729
 20
-3.794812999999999
 30
0.0
 11
11.685397
 21
-3.928357
 31
0.0
  0
LINE
  5
34D
330
49F
100
AcDbEntity
  8
1
100
AcDbLine
 10
11.685397
 20
-3.928357
 30
0.0
 11
11.246366
 21
-4.061103
 31
0.0
  0
LINE
  5
34E
330
49F
100
AcDbEntity
  8
1
100
AcDbLine
 10
10.806634
 20
-4.193017
 30
0.0
 11
10.366203
 21
-4.324065
 31
0.0
  0
LINE
  5
34F
330
49F
100
AcDbEntity
  8
1
100
AcDbLine
 10
14.0
 20
-4.181644999999999
 30
0.0
 11
14.5
 21
-4.329899
 31
0.0
  0
LINE
  5
350
330
49F
100
AcDbEntity
  8
1
100
AcDbLine
 10
9.039761
 20
-8.969799
 30
0.0
 11
9.442638999999999
 21
-8.933211
 31
0.0
  0
LINE
  5
351
330
49F
100
AcDbEntity
  8
1
100
AcDbLine
 10
9.442638999999999
 20
-8.933211
 30
0.0
 11
9.842753
 21
-8.894747999999999
 31
0.0
  0
LINE
  5
352
330
49F
100
AcDbEntity
  8
1
100
AcDbLine
 10
9.842753
 20
-8.894747999999999
 30
0.0
 11
10.240101
 21
-8.854407
 31
0.0
  0
LINE
  5
353
330
49F
100
AcDbEntity
  8
1
100
AcDbLine
 10
10.240101
 20
-8.854407
 30
0.0
 11
10.634695
 21
-8.812172999999999
 31
0.0
  0
LINE
  5
354
330
49F
100
AcDbEntity
  8
1
100
AcDbLine
 10
11.026525
 20
-8.768062999999999
 30
0.0
 11
11.415558
 21
-8.722125999999999
 31
0.0
  0
LINE
  5
355
330
49F
100
AcDbEntity
  8
1
100
AcDbLine
 10
11.415558
 20
-8.722125999999999
 30
0.0
 11
11.801784
 21
-8.674376999999999
 31
0.0
  0
LINE
  5
356
330
49F
100
AcDbEntity
  8
1
100
AcDbLine
 10
11.801784
 20
-8.674376999999999
 30
0.0
 11
12.185213
 21
-8.624800999999999
 31
0.0
  0
LINE
  5
357
330
49F
100
AcDbEntity
  8
1
100
AcDbLine
 10
12.185213
 20
-8.624800999999999
 30
0.0
 11
12.565846
 21
-8.573396999999999
 31
0.0
  0
LINE
  5
358
330
49F
100
AcDbEntity
  8
1
100
AcDbLine
 10
12.768488
 20
-0.9763899999999999
 30
0.0
 11
12.6
 21
-1.091425
 31
0.0
  0
LINE
  5
359
330
49F
100
AcDbEntity
  8
1
100
AcDbLine
 10
12.327299
 20
-6.89016
 30
0.0
 11
12.053026
 21
-6.936215999999999
 31
0.0
  0
LINE
  5
35A
330
49F
100
AcDbEntity
  8
1
100
AcDbLine
 10
4.252354
 20
3.564620999999999
 30
0.0
 11
4.166159999999999
 21
3.762929
 31
0.0
  0
LINE
  5
35B
330
49F
100
AcDbEntity
  8
1
100
AcDbLine
 10
8.696047999999999
 20
-6.384094999999999
 30
0.0
 11
8.661800999999998
 21
-6.404637999999999
 31
0.0
  0
LINE
  5
35C
330
49F
100
AcDbEntity
  8
1
100
AcDbLine
 10
11.777179
 20
-6.981933999999999
 30
0.0
 11
11.49974
 21
-7.027319
 31
0.0
  0
LINE
  5
35D
330
49F
100
AcDbEntity
  8
1
100
AcDbLine
 10
11.49974
 20
-7.027319
 30
0.0
 11
11.220728
 21
-7.072364999999999
 31
0.0
  0
LINE
  5
35E
330
49F
100
AcDbEntity
  8
1
100
AcDbLine
 10
8.464536999999999
 20
-6.500244
 30
0.0
 11
8.420049
 21
-6.517266999999999
 31
0.0
  0
LINE
  5
35F
330
49F
100
AcDbEntity
  8
1
100
AcDbLine
 10
11.220728
 20
-7.072364999999999
 30
0.0
 11
10.940205
 21
-7.117052
 31
0.0
  0
LINE
  5
360
330
49F
100
AcDbEntity
  8
1
100
AcDbLine
 10
9.387596
 20
1.034043
 30
0.0
 11
9.244488999999999
 21
1.018709
 31
0.0
  0
LINE
  5
361
330
49F
100
AcDbEntity
  8
1
100
AcDbLine
 10
10.65819
 20
-7.161374999999999
 30
0.0
 11
10.374663
 21
-7.205339
 31
0.0
  0
LINE
  5
362
330
49F
100
AcDbEntity
  8
1
100
AcDbLine
 10
10.374663
 20
-7.205339
 30
0.0
 11
10.089626
 21
-7.248944999999999
 31
0.0
  0
LINE
  5
363
330
49F
100
AcDbEntity
  8
1
100
AcDbLine
 10
12.6
 20
-8.383022
 30
0.0
 11
12.042608
 21
-8.459901
 31
0.0
  0
LINE
  5
364
330
49F
100
AcDbEntity
  8
1
100
AcDbLine
 10
12.042608
 20
-8.459901
 30
0.0
 11
11.478798
 21
-8.532769999999999
 31
0.0
  0
LINE
  5
365
330
49F
100
AcDbEntity
  8
1
100
AcDbLine
 10
11.478798
 20
-8.532769999999999
 30
0.0
 11
10.908572
 21
-8.60163
 31
0.0
  0
LINE
  5
366
330
49F
100
AcDbEntity
  8
1
100
AcDbLine
 10
10.908572
 20
-8.60163
 30
0.0
 11
10.331555
 21
-8.666563
 31
0.0
  0
LINE
  5
367
330
49F
100
AcDbEntity
  8
1
100
AcDbLine
 10
10.331555
 20
-8.666563
 30
0.0
 11
9.748121000000001
 21
-8.727486
 31
0.0
  0
LINE
  5
368
330
49F
100
AcDbEntity
  8
1
100
AcDbLine
 10
9.748121000000001
 20
-8.727486
 30
0.0
 11
9.15939
 21
-8.784150999999999
 31
0.0
  0
LINE
  5
369
330
49F
100
AcDbEntity
  8
1
100
AcDbLine
 10
10.366203
 20
-4.324065
 30
0.0
 11
10.366203
 21
-4.636476999999999
 31
0.0
  0
LINE
  5
36A
330
49F
100
AcDbEntity
  8
1
100
AcDbLine
 10
9.086182
 20
-5.868527999999999
 30
0.0
 11
9.084481
 21
-5.886851
 31
0.0
  0
LINE
  5
36B
330
49F
100
AcDbEntity
  8
1
100
AcDbLine
 10
9.084481
 20
-5.886851
 30
0.0
 11
9.081824000000001
 21
-5.905539
 31
0.0
  0
LINE
  5
36C
330
49F
100
AcDbEntity
  8
1
100
AcDbLine
 10
9.073596
 20
-5.943938
 30
0.0
 11
9.067992999999999
 21
-5.963608999999999
 31
0.0
  0
LINE
  5
36D
330
49F
100
AcDbEntity
  8
1
100
AcDbLine
 10
9.067992999999999
 20
-5.963608999999999
 30
0.0
 11
9.061325
 21
-5.983539
 31
0.0
  0
LINE
  5
36E
330
49F
100
AcDbEntity
  8
1
100
AcDbLine
 10
9.061325
 20
-5.983539
 30
0.0
 11
9.05357
 21
-6.003701999999999
 31
0.0
  0
LINE
  5
36F
330
49F
100
AcDbEntity
  8
1
100
AcDbLine
 10
9.05357
 20
-6.003701999999999
 30
0.0
 11
9.044722999999999
 21
-6.024078
 31
0.0
  0
LINE
  5
370
330
49F
100
AcDbEntity
  8
1
100
AcDbLine
 10
9.044722999999999
 20
-6.024078
 30
0.0
 11
9.03475
 21
-6.044617999999999
 31
0.0
  0
LINE
  5
371
330
49F
100
AcDbEntity
  8
1
100
AcDbLine
 10
9.03475
 20
-6.044617999999999
 30
0.0
 11
9.023661999999999
 21
-6.065254
 31
0.0
  0
LINE
  5
372
330
49F
100
AcDbEntity
  8
1
100
AcDbLine
 10
9.023661999999999
 20
-6.065254
 30
0.0
 11
9.011427000000001
 21
-6.086008
 31
0.0
  0
LINE
  5
373
330
49F
100
AcDbEntity
  8
1
100
AcDbLine
 10
9.011427000000001
 20
-6.086008
 30
0.0
 11
8.997944
 21
-6.106955999999999
 31
0.0
  0
LINE
  5
374
330
49F
100
AcDbEntity
  8
1
100
AcDbLine
 10
8.997944
 20
-6.106955999999999
 30
0.0
 11
8.983182000000001
 21
-6.128089
 31
0.0
  0
LINE
  5
375
330
49F
100
AcDbEntity
  8
1
100
AcDbLine
 10
8.983182000000001
 20
-6.128089
 30
0.0
 11
8.967140999999999
 21
-6.149348999999999
 31
0.0
  0
LINE
  5
376
330
49F
100
AcDbEntity
  8
1
100
AcDbLine
 10
8.967140999999999
 20
-6.149348999999999
 30
0.0
 11
8.949760000000001
 21
-6.170732
 31
0.0
  0
LINE
  5
377
330
49F
100
AcDbEntity
  8
1
100
AcDbLine
 10
8.949760000000001
 20
-6.170732
 30
0.0
 11
8.931021000000001
 21
-6.192198999999999
 31
0.0
  0
LINE
  5
378
330
49F
100
AcDbEntity
  8
1
100
AcDbLine
 10
12.6
 20
-6.843764
 30
0.0
 11
12.327299
 21
-6.89016
 31
0.0
  0
LINE
  5
379
330
49F
100
AcDbEntity
  8
1
100
AcDbLine
 10
8.931021000000001
 20
-6.192198999999999
 30
0.0
 11
8.910911999999999
 21
-6.213710999999999
 31
0.0
  0
LINE
  5
37A
330
49F
100
AcDbEntity
  8
1
100
AcDbLine
 10
8.910911999999999
 20
-6.213710999999999
 30
0.0
 11
8.889386999999999
 21
-6.235249999999999
 31
0.0
  0
LINE
  5
37B
330
49F
100
AcDbEntity
  8
1
100
AcDbLine
 10
10.940205
 20
-7.117052
 30
0.0
 11
10.65819
 21
-7.161374999999999
 31
0.0
  0
LINE
  5
37C
330
49F
100
AcDbEntity
  8
1
100
AcDbLine
 10
8.889386999999999
 20
-6.235249999999999
 30
0.0
 11
8.866457
 21
-6.256746999999999
 31
0.0
  0
LINE
  5
37D
330
49F
100
AcDbEntity
  8
1
100
AcDbLine
 10
8.866457
 20
-6.256746999999999
 30
0.0
 11
8.842083
 21
-6.278182
 31
0.0
  0
LINE
  5
37E
330
49F
100
AcDbEntity
  8
1
100
AcDbLine
 10
8.842083
 20
-6.278182
 30
0.0
 11
8.816138999999999
 21
-6.299601
 31
0.0
  0
LINE
  5
37F
330
49F
100
AcDbEntity
  8
1
100
AcDbLine
 10
8.816138999999999
 20
-6.299601
 30
0.0
 11
8.788584
 21
-6.320961
 31
0.0
  0
LINE
  5
380
330
49F
100
AcDbEntity
  8
1
100
AcDbLine
 10
4.342264
 20
3.364862999999999
 30
0.0
 11
4.252354
 21
3.564620999999999
 31
0.0
  0
LINE
  5
381
330
49F
100
AcDbEntity
  8
1
100
AcDbLine
 10
8.759425
 20
-6.342183999999999
 30
0.0
 11
8.728589999999998
 21
-6.363250999999999
 31
0.0
  0
LINE
  5
382
330
49F
100
AcDbEntity
  8
1
100
AcDbLine
 10
8.728589999999998
 20
-6.363250999999999
 30
0.0
 11
8.696047999999999
 21
-6.384094999999999
 31
0.0
  0
LINE
  5
383
330
49F
100
AcDbEntity
  8
1
100
AcDbLine
 10
8.661800999999998
 20
-6.404637999999999
 30
0.0
 11
8.625827000000001
 21
-6.424819
 31
0.0
  0
LINE
  5
384
330
49F
100
AcDbEntity
  8
1
100
AcDbLine
 10
8.625827000000001
 20
-6.424819
 30
0.0
 11
8.588058
 21
-6.444581999999999
 31
0.0
  0
LINE
  5
385
330
49F
100
AcDbEntity
  8
1
100
AcDbLine
 10
8.588058
 20
-6.444581999999999
 30
0.0
 11
8.548541
 21
-6.463814
 31
0.0
  0
LINE
  5
386
330
49F
100
AcDbEntity
  8
1
100
AcDbLine
 10
8.548541
 20
-6.463814
 30
0.0
 11
8.507433999999999
 21
-6.482369
 31
0.0
  0
LINE
  5
387
330
49F
100
AcDbEntity
  8
1
100
AcDbLine
 10
8.507433999999999
 20
-6.482369
 30
0.0
 11
8.464536999999999
 21
-6.500244
 31
0.0
  0
LINE
  5
388
330
49F
100
AcDbEntity
  8
1
100
AcDbLine
 10
8.420049
 20
-6.517266999999999
 30
0.0
 11
8.374753999999999
 21
-6.533106
 31
0.0
  0
LINE
  5
389
330
49F
100
AcDbEntity
  8
1
100
AcDbLine
 10
8.374753999999999
 20
-6.533106
 30
0.0
 11
8.328827999999999
 21
-6.547687
 31
0.0
  0
LINE
  5
38A
330
49F
100
AcDbEntity
  8
1
100
AcDbLine
 10
8.328827999999999
 20
-6.547687
 30
0.0
 11
8.282152999999999
 21
-6.561042999999999
 31
0.0
  0
LINE
  5
38B
330
49F
100
AcDbEntity
  8
1
100
AcDbLine
 10
8.282152999999999
 20
-6.561042999999999
 30
0.0
 11
8.251241
 21
-6.569101999999999
 31
0.0
  0
LINE
  5
38C
330
49F
100
AcDbEntity
  8
1
100
AcDbLine
 10
8.793661
 20
-8.945366999999999
 30
0.0
 11
8.793661
 21
-8.816406
 31
0.0
  0
LINE
  5
38D
330
49F
100
AcDbEntity
  8
1
100
AcDbLine
 10
9.529728999999999
 20
-4.792666999999999
 30
0.0
 11
9.392774000000001
 21
-4.833023
 31
0.0
  0
LINE
  5
38E
330
49F
100
AcDbEntity
  8
1
100
AcDbLine
 10
9.392774000000001
 20
-4.833023
 30
0.0
 11
9.255899000000001
 21
-4.875123999999999
 31
0.0
  0
LINE
  5
38F
330
49F
100
AcDbEntity
  8
1
100
AcDbLine
 10
9.255899000000001
 20
-4.875123999999999
 30
0.0
 11
9.119180999999999
 21
-4.918948
 31
0.0
  0
LINE
  5
390
330
49F
100
AcDbEntity
  8
1
100
AcDbLine
 10
9.119180999999999
 20
-4.918948
 30
0.0
 11
8.982699
 21
-4.964470999999999
 31
0.0
  0
LINE
  5
391
330
49F
100
AcDbEntity
  8
1
100
AcDbLine
 10
9.081824000000001
 20
-5.905539
 30
0.0
 11
9.078194999999999
 21
-5.92457
 31
0.0
  0
LINE
  5
392
330
49F
100
AcDbEntity
  8
1
100
AcDbLine
 10
8.846533
 20
-5.011663999999999
 30
0.0
 11
8.71076
 21
-5.0605
 31
0.0
  0
LINE
  5
393
330
49F
100
AcDbEntity
  8
1
100
AcDbLine
 10
8.575460000000001
 20
-5.110953
 30
0.0
 11
8.440709
 21
-5.162992
 31
0.0
  0
LINE
  5
394
330
49F
100
AcDbEntity
  8
1
100
AcDbLine
 10
6.208683
 20
1.379032999999999
 30
0.0
 11
6.088631999999999
 21
1.391987
 31
0.0
  0
LINE
  5
395
330
49F
100
AcDbEntity
  8
1
100
AcDbLine
 10
8.306585
 20
-5.216588999999999
 30
0.0
 11
8.357234
 21
-5.228761
 31
0.0
  0
LINE
  5
396
330
49F
100
AcDbEntity
  8
1
100
AcDbLine
 10
8.357234
 20
-5.228761
 30
0.0
 11
8.405642999999999
 21
-5.241729
 31
0.0
  0
LINE
  5
397
330
49F
100
AcDbEntity
  8
1
100
AcDbLine
 10
5.855649999999999
 20
1.424927999999999
 30
0.0
 11
5.742879
 21
1.444892999999999
 31
0.0
  0
LINE
  5
398
330
49F
100
AcDbEntity
  8
1
100
AcDbLine
 10
8.451816
 20
-5.255374999999999
 30
0.0
 11
8.495675999999999
 21
-5.269554
 31
0.0
  0
LINE
  5
399
330
49F
100
AcDbEntity
  8
1
100
AcDbLine
 10
8.495675999999999
 20
-5.269554
 30
0.0
 11
8.537317999999999
 21
-5.284191
 31
0.0
  0
LINE
  5
39A
330
49F
100
AcDbEntity
  8
1
100
AcDbLine
 10
8.537317999999999
 20
-5.284191
 30
0.0
 11
8.576990999999999
 21
-5.299301999999999
 31
0.0
  0
LINE
  5
39B
330
49F
100
AcDbEntity
  8
1
100
AcDbLine
 10
5.420364
 20
1.518602
 30
0.0
 11
5.379857
 21
1.530004999999999
 31
0.0
  0
LINE
  5
39C
330
49F
100
AcDbEntity
  8
1
100
AcDbLine
 10
8.61471
 20
-5.314814
 30
0.0
 11
8.650482
 21
-5.330646999999999
 31
0.0
  0
LINE
  5
39D
330
49F
100
AcDbEntity
  8
1
100
AcDbLine
 10
9.039761
 20
-2.410861
 30
0.0
 11
9.037990999999999
 21
-2.501329
 31
0.0
  0
LINE
  5
39E
330
49F
100
AcDbEntity
  8
1
100
AcDbLine
 10
8.684537999999999
 20
-5.34684
 30
0.0
 11
8.716917999999999
 21
-5.363355999999999
 31
0.0
  0
LINE
  5
39F
330
49F
100
AcDbEntity
  8
1
100
AcDbLine
 10
8.716917999999999
 20
-5.363355999999999
 30
0.0
 11
8.747599000000001
 21
-5.380123999999999
 31
0.0
  0
LINE
  5
3A0
330
49F
100
AcDbEntity
  8
1
100
AcDbLine
 10
8.747599000000001
 20
-5.380123999999999
 30
0.0
 11
8.776714
 21
-5.397159999999999
 31
0.0
  0
LINE
  5
3A1
330
49F
100
AcDbEntity
  8
1
100
AcDbLine
 10
8.776714
 20
-5.397159999999999
 30
0.0
 11
8.804308
 21
-5.414448999999999
 31
0.0
  0
LINE
  5
3A2
330
49F
100
AcDbEntity
  8
1
100
AcDbLine
 10
8.830353999999999
 20
-5.431924999999999
 30
0.0
 11
8.854872
 21
-5.449525
 31
0.0
  0
LINE
  5
3A3
330
49F
100
AcDbEntity
  8
1
100
AcDbLine
 10
8.854872
 20
-5.449525
 30
0.0
 11
8.877843999999999
 21
-5.467198
 31
0.0
  0
LINE
  5
3A4
330
49F
100
AcDbEntity
  8
1
100
AcDbLine
 10
8.877843999999999
 20
-5.467198
 30
0.0
 11
8.899314999999999
 21
-5.484926
 31
0.0
  0
LINE
  5
3A5
330
49F
100
AcDbEntity
  8
1
100
AcDbLine
 10
8.971517999999999
 20
-5.556041999999999
 30
0.0
 11
8.986382
 21
-5.573808999999999
 31
0.0
  0
LINE
  5
3A6
330
49F
100
AcDbEntity
  8
1
100
AcDbLine
 10
8.899314999999999
 20
-5.484926
 30
0.0
 11
8.919396
 21
-5.502698999999999
 31
0.0
  0
LINE
  5
3A7
330
49F
100
AcDbEntity
  8
1
100
AcDbLine
 10
8.919396
 20
-5.502698999999999
 30
0.0
 11
8.938095
 21
-5.520487
 31
0.0
  0
LINE
  5
3A8
330
49F
100
AcDbEntity
  8
1
100
AcDbLine
 10
8.938095
 20
-5.520487
 30
0.0
 11
8.955429999999999
 21
-5.538266
 31
0.0
  0
LINE
  5
3A9
330
49F
100
AcDbEntity
  8
1
100
AcDbLine
 10
8.955429999999999
 20
-5.538266
 30
0.0
 11
8.971517999999999
 21
-5.556041999999999
 31
0.0
  0
LINE
  5
3AA
330
49F
100
AcDbEntity
  8
1
100
AcDbLine
 10
7.921721999999999
 20
1.15436
 30
0.0
 11
7.872402
 21
1.155726999999999
 31
0.0
  0
LINE
  5
3AB
330
49F
100
AcDbEntity
  8
1
100
AcDbLine
 10
8.576990999999999
 20
-5.299301999999999
 30
0.0
 11
8.61471
 21
-5.314814
 31
0.0
  0
LINE
  5
3AC
330
49F
100
AcDbEntity
  8
1
100
AcDbLine
 10
8.986382
 20
-5.573808999999999
 30
0.0
 11
9.000021
 21
-5.591529
 31
0.0
  0
LINE
  5
3AD
330
49F
100
AcDbEntity
  8
1
100
AcDbLine
 10
9.000021
 20
-5.591529
 30
0.0
 11
9.012519000000001
 21
-5.609170999999999
 31
0.0
  0
LINE
  5
3AE
330
49F
100
AcDbEntity
  8
1
100
AcDbLine
 10
9.012519000000001
 20
-5.609170999999999
 30
0.0
 11
9.023872
 21
-5.626691
 31
0.0
  0
LINE
  5
3AF
330
49F
100
AcDbEntity
  8
1
100
AcDbLine
 10
9.023872
 20
-5.626691
 30
0.0
 11
9.034110999999999
 21
-5.644098
 31
0.0
  0
LINE
  5
3B0
330
49F
100
AcDbEntity
  8
1
100
AcDbLine
 10
9.034110999999999
 20
-5.644098
 30
0.0
 11
9.043355999999999
 21
-5.661438999999999
 31
0.0
  0
LINE
  5
3B1
330
49F
100
AcDbEntity
  8
1
100
AcDbLine
 10
9.043355999999999
 20
-5.661438999999999
 30
0.0
 11
9.051622
 21
-5.678678999999999
 31
0.0
  0
LINE
  5
3B2
330
49F
100
AcDbEntity
  8
1
100
AcDbLine
 10
9.051622
 20
-5.678678999999999
 30
0.0
 11
9.058914999999998
 21
-5.695827999999999
 31
0.0
  0
LINE
  5
3B3
330
49F
100
AcDbEntity
  8
1
100
AcDbLine
 10
9.058914999999998
 20
-5.695827999999999
 30
0.0
 11
9.065341999999999
 21
-5.712991999999999
 31
0.0
  0
LINE
  5
3B4
330
49F
100
AcDbEntity
  8
1
100
AcDbLine
 10
8.982699
 20
-4.964470999999999
 30
0.0
 11
8.846533
 21
-5.011663999999999
 31
0.0
  0
LINE
  5
3B5
330
49F
100
AcDbEntity
  8
1
100
AcDbLine
 10
10.374664
 20
1.232521999999999
 30
0.0
 11
10.089626
 21
1.161593
 31
0.0
  0
LINE
  5
3B6
330
49F
100
AcDbEntity
  8
1
100
AcDbLine
 10
9.175190999999999
 20
-3.659401999999999
 30
0.0
 11
9.110755000000001
 21
-3.464288999999999
 31
0.0
  0
LINE
  5
3B7
330
49F
100
AcDbEntity
  8
1
100
AcDbLine
 10
8.788584
 20
-6.320961
 30
0.0
 11
8.759425
 21
-6.342183999999999
 31
0.0
  0
LINE
  5
3B8
330
49F
100
AcDbEntity
  8
1
100
AcDbLine
 10
6.856553999999999
 20
-6.24207
 30
0.0
 11
6.83576
 21
-6.218448999999999
 31
0.0
  0
LINE
  5
3B9
330
49F
100
AcDbEntity
  8
1
100
AcDbLine
 10
6.728411999999999
 20
1.384337999999999
 30
0.0
 11
6.735017999999999
 21
1.395326
 31
0.0
  0
LINE
  5
3BA
330
49F
100
AcDbEntity
  8
1
100
AcDbLine
 10
13.071233
 20
-3.720410999999999
 30
0.0
 11
13.090771
 21
-3.768869999999999
 31
0.0
  0
LINE
  5
3BB
330
49F
100
AcDbEntity
  8
1
100
AcDbLine
 10
8.71076
 20
-5.0605
 30
0.0
 11
8.575460000000001
 21
-5.110953
 31
0.0
  0
LINE
  5
3BC
330
49F
100
AcDbEntity
  8
1
100
AcDbLine
 10
5.318369
 20
1.547719999999999
 30
0.0
 11
5.195032
 21
1.747372
 31
0.0
  0
LINE
  5
3BD
330
49F
100
AcDbEntity
  8
1
100
AcDbLine
 10
4.738968999999999
 20
-6.299726
 30
0.0
 11
4.634252
 21
-6.144587
 31
0.0
  0
LINE
  5
3BE
330
49F
100
AcDbEntity
  8
1
100
AcDbLine
 10
13.710838
 20
-0.319716
 30
0.0
 11
13.561643
 21
-0.425344
 31
0.0
  0
LINE
  5
3BF
330
49F
100
AcDbEntity
  8
1
100
AcDbLine
 10
8.804308
 20
-5.414448999999999
 30
0.0
 11
8.830353999999999
 21
-5.431924999999999
 31
0.0
  0
LINE
  5
3C0
330
49F
100
AcDbEntity
  8
1
100
AcDbLine
 10
4.959532
 20
2.149693999999999
 30
0.0
 11
4.847376
 21
2.352330999999999
 31
0.0
  0
LINE
  5
3C1
330
49F
100
AcDbEntity
  8
1
100
AcDbLine
 10
8.440709
 20
-5.162992
 30
0.0
 11
8.306585
 21
-5.216588999999999
 31
0.0
  0
LINE
  5
3C2
330
49F
100
AcDbEntity
  8
1
100
AcDbLine
 10
12.73832
 20
-2.187621
 30
0.0
 11
12.692238
 21
-1.933222
 31
0.0
  0
LINE
  5
3C3
330
49F
100
AcDbEntity
  8
1
100
AcDbLine
 10
8.405642999999999
 20
-5.241729
 30
0.0
 11
8.451816
 21
-5.255374999999999
 31
0.0
  0
LINE
  5
3C4
330
49F
100
AcDbEntity
  8
1
100
AcDbLine
 10
12.053026
 20
-6.936215999999999
 30
0.0
 11
11.777179
 21
-6.981933999999999
 31
0.0
  0
LINE
  5
3C5
330
49F
100
AcDbEntity
  8
1
100
AcDbLine
 10
8.650482
 20
-5.330646999999999
 30
0.0
 11
8.684537999999999
 21
-5.34684
 31
0.0
  0
LINE
  5
3C6
330
49F
100
AcDbEntity
  8
SK4
100
AcDbLine
 10
-12.648563
 20
0.0
 30
0.0
 11
16.09544
 21
0.0
 31
0.0
  0
LINE
  5
3C7
330
49F
100
AcDbEntity
  8
81
100
AcDbLine
 10
14.5
 20
0.0
 30
0.0
 11
22.063375
 21
0.0
 31
0.0
  0
POINT
  5
3C8
330
49F
100
AcDbEntity
  8
80
100
AcDbPoint
 10
0.0
 20
0.0
 30
0.0
  0
POINT
  5
3C9
330
49F
100
AcDbEntity
  8
81
100
AcDbPoint
 10
14.5
 20
9.525
 30
0.0
  0
TEXT
  5
3CA
330
49F
100
AcDbEntity
  8
SK6
100
AcDbText
 10
-16.329959
 20
-32.332876
 30
0.0
 40
3.5
  1
830A-E06D1905H7S12
 41
0.7299977696629211
  7
SANDVIK_STYLE
 72
     5
 11
26.983242
 21
-32.332876
 31
0.0
100
AcDbText
  0
TEXT
  5
3CB
330
49F
100
AcDbEntity
  8
SK6
100
AcDbText
 10
-17.86953299999999
 20
13.71111
 30
0.0
 40
3.5
  1
HFS12
 41
0.7378954666666666
  7
SANDVIK_STYLE
 72
     5
 11
-6.801100999999999
 21
13.71111
 31
0.0
100
AcDbText
  0
TEXT
  5
3CC
330
49F
100
AcDbEntity
  8
2
100
AcDbText
 10
7.25
 20
24.698072
 30
0.0
 40
3.5
  1
L=14.5 
100
AcDbText
  0
INSERT
  5
3CD
330
49F
100
AcDbEntity
  8
2
100
AcDbBlockReference
  2
*D0
 10
0.0
 20
0.0
 30
0.0
  0
TEXT
  5
3CE
330
49F
100
AcDbEntity
  8
2
100
AcDbText
 10
36.787901
 20
0.0
 30
0.0
 40
3.5
  1
%%c19.05H7
 50
90.0
100
AcDbText
  0
INSERT
  5
3CF
330
49F
100
AcDbEntity
  8
2
100
AcDbBlockReference
  2
*D1
 10
0.0
 20
0.0
 30
0.0
  0
ENDSEC
  0
SECTION
  2
OBJECTS
  0
DICTIONARY
  5
43B
330
0
100
AcDbDictionary
281
     1
  3
ACAD_CIP_PREVIOUS_PRODUCT_INFO
350
4D2
  3
ACAD_COLOR
350
491
  3
ACAD_DETAILVIEWSTYLE
350
499
  3
ACAD_GROUP
350
43C
  3
ACAD_LAYOUT
350
490
  3
ACAD_MATERIAL
350
43F
  3
ACAD_MLEADERSTYLE
350
494
  3
ACAD_MLINESTYLE
350
48D
  3
ACAD_PLOTSETTINGS
350
48F
  3
ACAD_PLOTSTYLENAME
350
43D
  3
ACAD_SCALELIST
350
471
  3
ACAD_SECTIONVIEWSTYLE
350
496
  3
ACAD_TABLESTYLE
350
492
  3
ACAD_VISUALSTYLE
350
458
  3
ACDB_RECOMPOSE_DATA
350
52E
  3
AcDbVariableDictionary
350
521
  3
DWGPROPS
350
52F
  0
DICTIONARY
  5
4D5
330
483
100
AcDbDictionary
280
     1
281
     1
  3
ADSK_XREC_LAYER_RECONCILED
360
4D6
  0
DICTIONARY
  5
4D7
330
4A3
100
AcDbDictionary
280
     1
281
     1
  3
ADSK_XREC_LAYER_RECONCILED
360
4D8
  0
DICTIONARY
  5
4D9
330
4A7
100
AcDbDictionary
280
     1
281
     1
  3
ADSK_XREC_LAYER_RECONCILED
360
4DA
  0
DICTIONARY
  5
4DB
330
4A8
100
AcDbDictionary
280
     1
281
     1
  3
ADSK_XREC_LAYER_RECONCILED
360
4DC
  0
DICTIONARY
  5
4DD
330
4A9
100
AcDbDictionary
280
     1
281
     1
  3
ADSK_XREC_LAYER_RECONCILED
360
4DE
  0
DICTIONARY
  5
4DF
330
4AA
100
AcDbDictionary
280
     1
281
     1
  3
ADSK_XREC_LAYER_RECONCILED
360
4E0
  0
DICTIONARY
  5
4E1
330
4AB
100
AcDbDictionary
280
     1
281
     1
  3
ADSK_XREC_LAYER_RECONCILED
360
4E2
  0
DICTIONARY
  5
4E3
330
4AC
100
AcDbDictionary
280
     1
281
     1
  3
ADSK_XREC_LAYER_RECONCILED
360
4E4
  0
DICTIONARY
  5
4E5
330
4AD
100
AcDbDictionary
280
     1
281
     1
  3
ADSK_XREC_LAYER_RECONCILED
360
4E6
  0
DICTIONARY
  5
4E7
330
4AE
100
AcDbDictionary
280
     1
281
     1
  3
ADSK_XREC_LAYER_RECONCILED
360
4E8
  0
DICTIONARY
  5
4E9
330
4AF
100
AcDbDictionary
280
     1
281
     1
  3
ADSK_XREC_LAYER_RECONCILED
360
4EA
  0
DICTIONARY
  5
4EB
330
4B0
100
AcDbDictionary
280
     1
281
     1
  3
ADSK_XREC_LAYER_RECONCILED
360
4EC
  0
DICTIONARY
  5
4ED
330
4B1
100
AcDbDictionary
280
     1
281
     1
  3
ADSK_XREC_LAYER_RECONCILED
360
4EE
  0
DICTIONARY
  5
4EF
330
4B2
100
AcDbDictionary
280
     1
281
     1
  3
ADSK_XREC_LAYER_RECONCILED
360
4F0
  0
DICTIONARY
  5
4F1
330
4B3
100
AcDbDictionary
280
     1
281
     1
  3
ADSK_XREC_LAYER_RECONCILED
360
4F2
  0
DICTIONARY
  5
4F3
330
4B4
100
AcDbDictionary
280
     1
281
     1
  3
ADSK_XREC_LAYER_RECONCILED
360
4F4
  0
DICTIONARY
  5
4F5
330
4B5
100
AcDbDictionary
280
     1
281
     1
  3
ADSK_XREC_LAYER_RECONCILED
360
4F6
  0
DICTIONARY
  5
4F7
330
4B6
100
AcDbDictionary
280
     1
281
     1
  3
ADSK_XREC_LAYER_RECONCILED
360
4F8
  0
DICTIONARY
  5
4F9
330
4B7
100
AcDbDictionary
280
     1
281
     1
  3
ADSK_XREC_LAYER_RECONCILED
360
4FA
  0
DICTIONARY
  5
4FB
330
4B8
100
AcDbDictionary
280
     1
281
     1
  3
ADSK_XREC_LAYER_RECONCILED
360
4FC
  0
DICTIONARY
  5
4FD
330
4B9
100
AcDbDictionary
280
     1
281
     1
  3
ADSK_XREC_LAYER_RECONCILED
360
4FE
  0
DICTIONARY
  5
4FF
330
4BA
100
AcDbDictionary
280
     1
281
     1
  3
ADSK_XREC_LAYER_RECONCILED
360
500
  0
DICTIONARY
  5
501
330
4BB
100
AcDbDictionary
280
     1
281
     1
  3
ADSK_XREC_LAYER_RECONCILED
360
502
  0
DICTIONARY
  5
503
330
4BC
100
AcDbDictionary
280
     1
281
     1
  3
ADSK_XREC_LAYER_RECONCILED
360
504
  0
DICTIONARY
  5
505
330
4BD
100
AcDbDictionary
280
     1
281
     1
  3
ADSK_XREC_LAYER_RECONCILED
360
506
  0
DICTIONARY
  5
507
330
4BE
100
AcDbDictionary
280
     1
281
     1
  3
ADSK_XREC_LAYER_RECONCILED
360
508
  0
DICTIONARY
  5
509
330
4BF
100
AcDbDictionary
280
     1
281
     1
  3
ADSK_XREC_LAYER_RECONCILED
360
50A
  0
DICTIONARY
  5
50B
330
4C0
100
AcDbDictionary
280
     1
281
     1
  3
ADSK_XREC_LAYER_RECONCILED
360
50C
  0
DICTIONARY
  5
50D
330
4C1
100
AcDbDictionary
280
     1
281
     1
  3
ADSK_XREC_LAYER_RECONCILED
360
50E
  0
DICTIONARY
  5
50F
330
4C2
100
AcDbDictionary
280
     1
281
     1
  3
ADSK_XREC_LAYER_RECONCILED
360
510
  0
DICTIONARY
  5
511
330
4C3
100
AcDbDictionary
280
     1
281
     1
  3
ADSK_XREC_LAYER_RECONCILED
360
512
  0
DICTIONARY
  5
513
330
4C4
100
AcDbDictionary
280
     1
281
     1
  3
ADSK_XREC_LAYER_RECONCILED
360
514
  0
DICTIONARY
  5
515
330
4C5
100
AcDbDictionary
280
     1
281
     1
  3
ADSK_XREC_LAYER_RECONCILED
360
516
  0
DICTIONARY
  5
517
330
4C6
100
AcDbDictionary
280
     1
281
     1
  3
ADSK_XREC_LAYER_RECONCILED
360
518
  0
DICTIONARY
  5
519
330
4C7
100
AcDbDictionary
280
     1
281
     1
  3
ADSK_XREC_LAYER_RECONCILED
360
51A
  0
DICTIONARY
  5
51B
330
4C8
100
AcDbDictionary
280
     1
281
     1
  3
ADSK_XREC_LAYER_RECONCILED
360
51C
  0
DICTIONARY
  5
51D
330
4C9
100
AcDbDictionary
280
     1
281
     1
  3
ADSK_XREC_LAYER_RECONCILED
360
51E
  0
DICTIONARY
  5
51F
330
4CA
100
AcDbDictionary
280
     1
281
     1
  3
ADSK_XREC_LAYER_RECONCILED
360
520
  0
XRECORD
  5
4D2
102
{ACAD_REACTORS
330
43B
102
}
330
43B
100
AcDbXrecord
280
     1
300
AMECH_PP
300
2013
300
PDSU_F_S
  0
DICTIONARY
  5
491
102
{ACAD_REACTORS
330
43B
102
}
330
43B
100
AcDbDictionary
281
     1
  0
DICTIONARY
  5
499
102
{ACAD_REACTORS
330
43B
102
}
330
43B
100
AcDbDictionary
281
     1
  3
Imperial24
350
49A
  0
DICTIONARY
  5
43C
102
{ACAD_REACTORS
330
43B
102
}
330
43B
100
AcDbDictionary
281
     1
  0
DICTIONARY
  5
490
102
{ACAD_REACTORS
330
43B
102
}
330
43B
100
AcDbDictionary
281
     1
  3
Layout1
350
49E
  3
Model
350
4A2
  0
DICTIONARY
  5
43F
102
{ACAD_REACTORS
330
43B
102
}
330
43B
100
AcDbDictionary
281
     1
  3
ByBlock
350
448
  3
ByLayer
350
440
  3
Global
350
450
  0
DICTIONARY
  5
494
102
{ACAD_REACTORS
330
43B
102
}
330
43B
100
AcDbDictionary
281
     1
  3
Standard
350
495
  0
DICTIONARY
  5
48D
102
{ACAD_REACTORS
330
43B
102
}
330
43B
100
AcDbDictionary
281
     1
  3
Standard
350
48E
  0
DICTIONARY
  5
48F
102
{ACAD_REACTORS
330
43B
102
}
330
43B
100
AcDbDictionary
281
     1
  0
ACDBDICTIONARYWDFLT
  5
43D
102
{ACAD_REACTORS
330
43B
102
}
330
43B
100
AcDbDictionary
281
     1
  3
Normal
350
43E
100
AcDbDictionaryWithDefault
340
43E
  0
DICTIONARY
  5
471
102
{ACAD_REACTORS
330
43B
102
}
330
43B
100
AcDbDictionary
281
     1
  3
A0
350
472
  3
A1
350
473
  3
A2
350
474
  3
A3
350
475
  3
A4
350
476
  3
A5
350
477
  3
A6
350
478
  3
A7
350
479
  3
A8
350
47A
  3
A9
350
47B
  3
B0
350
47C
  3
B1
350
47D
  3
B2
350
47E
  3
B3
350
47F
  3
B4
350
480
  3
B5
350
481
  3
B6
350
482
  0
DICTIONARY
  5
496
102
{ACAD_REACTORS
330
43B
102
}
330
43B
100
AcDbDictionary
281
     1
  3
Imperial24
350
498
  0
DICTIONARY
  5
492
102
{ACAD_REACTORS
330
43B
102
}
330
43B
100
AcDbDictionary
281
     1
  3
Standard
350
493
  0
DICTIONARY
  5
458
102
{ACAD_REACTORS
330
43B
102
}
330
43B
100
AcDbDictionary
281
     1
  3
2dWireframe
350
45E
  3
Basic
350
45D
  3
Brighten
350
464
  3
ColorChange
350
468
  3
Conceptual
350
461
  3
Dim
350
463
  3
EdgeColorOff
350
470
  3
Facepattern
350
467
  3
Flat
350
459
  3
FlatWithEdges
350
45A
  3
Gouraud
350
45B
  3
GouraudWithEdges
350
45C
  3
Hidden
350
460
  3
JitterOff
350
46E
  3
Linepattern
350
466
  3
OverhangOff
350
46F
  3
Realistic
350
462
  3
Shaded
350
46D
  3
Shaded with edges
350
46C
  3
Shades of Gray
350
469
  3
Sketchy
350
46A
  3
Thicken
350
465
  3
Wireframe
350
45F
  3
X-Ray
350
46B
  0
XRECORD
  5
52E
102
{ACAD_REACTORS
330
43B
102
}
330
43B
100
AcDbXrecord
280
     1
 90
        1
330
493
  0
DICTIONARY
  5
521
102
{ACAD_REACTORS
330
43B
102
}
330
43B
100
AcDbDictionary
281
     1
  3
CANNOSCALE
350
526
  3
CMLEADERSTYLE
350
523
  3
CTABLESTYLE
350
522
  3
CVIEWDETAILSTYLE
350
524
  3
CVIEWSECTIONSTYLE
350
525
  3
DIMASSOC
350
529
  3
INDEXCTL
350
528
  3
SORTENTS
350
527
  3
XCLIPFRAME
350
52A
  0
XRECORD
  5
52F
102
{ACAD_REACTORS
330
43B
102
}
330
43B
100
AcDbXrecord
280
     1
  1
DWGPROPS COOKIE
  2

  3

  4

  6

  7

  8
Micke
  9

300
=
301
=
302
=
303
=
304
=
305
=
306
=
307
=
308
=
309
=
 40
0.0000044560185185
 41
2456818.317949167
 42
2456818.317953565
  1

 90
        0
  0
XRECORD
  5
4D6
102
{ACAD_REACTORS
330
4D5
102
}
330
4D5
100
AcDbXrecord
280
     1
290
     1
  0
XRECORD
  5
4D8
102
{ACAD_REACTORS
330
4D7
102
}
330
4D7
100
AcDbXrecord
280
     1
290
     1
  0
XRECORD
  5
4DA
102
{ACAD_REACTORS
330
4D9
102
}
330
4D9
100
AcDbXrecord
280
     1
290
     1
  0
XRECORD
  5
4DC
102
{ACAD_REACTORS
330
4DB
102
}
330
4DB
100
AcDbXrecord
280
     1
290
     1
  0
XRECORD
  5
4DE
102
{ACAD_REACTORS
330
4DD
102
}
330
4DD
100
AcDbXrecord
280
     1
290
     1
  0
XRECORD
  5
4E0
102
{ACAD_REACTORS
330
4DF
102
}
330
4DF
100
AcDbXrecord
280
     1
290
     1
  0
XRECORD
  5
4E2
102
{ACAD_REACTORS
330
4E1
102
}
330
4E1
100
AcDbXrecord
280
     1
290
     1
  0
XRECORD
  5
4E4
102
{ACAD_REACTORS
330
4E3
102
}
330
4E3
100
AcDbXrecord
280
     1
290
     1
  0
XRECORD
  5
4E6
102
{ACAD_REACTORS
330
4E5
102
}
330
4E5
100
AcDbXrecord
280
     1
290
     1
  0
XRECORD
  5
4E8
102
{ACAD_REACTORS
330
4E7
102
}
330
4E7
100
AcDbXrecord
280
     1
290
     1
  0
XRECORD
  5
4EA
102
{ACAD_REACTORS
330
4E9
102
}
330
4E9
100
AcDbXrecord
280
     1
290
     1
  0
XRECORD
  5
4EC
102
{ACAD_REACTORS
330
4EB
102
}
330
4EB
100
AcDbXrecord
280
     1
290
     1
  0
XRECORD
  5
4EE
102
{ACAD_REACTORS
330
4ED
102
}
330
4ED
100
AcDbXrecord
280
     1
290
     1
  0
XRECORD
  5
4F0
102
{ACAD_REACTORS
330
4EF
102
}
330
4EF
100
AcDbXrecord
280
     1
290
     1
  0
XRECORD
  5
4F2
102
{ACAD_REACTORS
330
4F1
102
}
330
4F1
100
AcDbXrecord
280
     1
290
     1
  0
XRECORD
  5
4F4
102
{ACAD_REACTORS
330
4F3
102
}
330
4F3
100
AcDbXrecord
280
     1
290
     1
  0
XRECORD
  5
4F6
102
{ACAD_REACTORS
330
4F5
102
}
330
4F5
100
AcDbXrecord
280
     1
290
     1
  0
XRECORD
  5
4F8
102
{ACAD_REACTORS
330
4F7
102
}
330
4F7
100
AcDbXrecord
280
     1
290
     1
  0
XRECORD
  5
4FA
102
{ACAD_REACTORS
330
4F9
102
}
330
4F9
100
AcDbXrecord
280
     1
290
     1
  0
XRECORD
  5
4FC
102
{ACAD_REACTORS
330
4FB
102
}
330
4FB
100
AcDbXrecord
280
     1
290
     1
  0
XRECORD
  5
4FE
102
{ACAD_REACTORS
330
4FD
102
}
330
4FD
100
AcDbXrecord
280
     1
290
     1
  0
XRECORD
  5
500
102
{ACAD_REACTORS
330
4FF
102
}
330
4FF
100
AcDbXrecord
280
     1
290
     1
  0
XRECORD
  5
502
102
{ACAD_REACTORS
330
501
102
}
330
501
100
AcDbXrecord
280
     1
290
     1
  0
XRECORD
  5
504
102
{ACAD_REACTORS
330
503
102
}
330
503
100
AcDbXrecord
280
     1
290
     1
  0
XRECORD
  5
506
102
{ACAD_REACTORS
330
505
102
}
330
505
100
AcDbXrecord
280
     1
290
     1
  0
XRECORD
  5
508
102
{ACAD_REACTORS
330
507
102
}
330
507
100
AcDbXrecord
280
     1
290
     1
  0
XRECORD
  5
50A
102
{ACAD_REACTORS
330
509
102
}
330
509
100
AcDbXrecord
280
     1
290
     1
  0
XRECORD
  5
50C
102
{ACAD_REACTORS
330
50B
102
}
330
50B
100
AcDbXrecord
280
     1
290
     1
  0
XRECORD
  5
50E
102
{ACAD_REACTORS
330
50D
102
}
330
50D
100
AcDbXrecord
280
     1
290
     1
  0
XRECORD
  5
510
102
{ACAD_REACTORS
330
50F
102
}
330
50F
100
AcDbXrecord
280
     1
290
     1
  0
XRECORD
  5
512
102
{ACAD_REACTORS
330
511
102
}
330
511
100
AcDbXrecord
280
     1
290
     1
  0
XRECORD
  5
514
102
{ACAD_REACTORS
330
513
102
}
330
513
100
AcDbXrecord
280
     1
290
     1
  0
XRECORD
  5
516
102
{ACAD_REACTORS
330
515
102
}
330
515
100
AcDbXrecord
280
     1
290
     1
  0
XRECORD
  5
518
102
{ACAD_REACTORS
330
517
102
}
330
517
100
AcDbXrecord
280
     1
290
     1
  0
XRECORD
  5
51A
102
{ACAD_REACTORS
330
519
102
}
330
519
100
AcDbXrecord
280
     1
290
     1
  0
XRECORD
  5
51C
102
{ACAD_REACTORS
330
51B
102
}
330
51B
100
AcDbXrecord
280
     1
290
     1
  0
XRECORD
  5
51E
102
{ACAD_REACTORS
330
51D
102
}
330
51D
100
AcDbXrecord
280
     1
290
     1
  0
XRECORD
  5
520
102
{ACAD_REACTORS
330
51F
102
}
330
51F
100
AcDbXrecord
280
     1
290
     1
  0
ACDBDETAILVIEWSTYLE
  5
49A
102
{ACAD_REACTORS
330
499
102
}
330
499
100
AcDbModelDocViewStyle
 70
     0
  3
Imperial24
290
     0
100
AcDbDetailViewStyle
 70
     0
 71
     0
 90
        3
 71
     1
340
484
 40
0.24
340
0
 40
0.24
300

 40
0.36
280
     3
 71
     2
340
48B
 90
       25
 71
     3
340
484
 40
0.24
 90
        1
 40
0.75
 90
        1
300
%<\AcVar ViewType \f "%tc1">% %<\AcVar ViewDetailId>%\PSCALE %<\AcVar ViewScale \f "%sn">%
 71
     4
340
48B
 90
       25
340
48B
 90
       25
280
     0
  0
LAYOUT
  5
49E
102
{ACAD_XDICTIONARY
360
565
102
}
102
{ACAD_REACTORS
330
490
102
}
330
490
100
AcDbPlotSettings
  1

  2
Brother DCP-9020CDW Printer
  4

  6

 40
0.0
 41
0.0
 42
0.0
 43
0.0
 44
0.0
 45
0.0
 46
0.0
 47
0.0
 48
0.0
 49
0.0
140
0.0
141
0.0
142
1.0
143
1.0
 70
   688
 72
     0
 73
     0
 74
     5
  7

 75
    16
147
1.0
148
0.0
149
0.0
100
AcDbLayout
  1
Layout1
 70
     1
 71
     1
 10
0.0
 20
0.0
 11
12.0
 21
9.0
 12
0.0
 22
0.0
 32
0.0
 14
1.000000000000000E+20
 24
1.000000000000000E+20
 34
1.000000000000000E+20
 15
-1.000000000000000E+20
 25
-1.000000000000000E+20
 35
-1.000000000000000E+20
146
0.0
 13
0.0
 23
0.0
 33
0.0
 16
1.0
 26
0.0
 36
0.0
 17
0.0
 27
1.0
 37
0.0
 76
     0
330
49B
  0
LAYOUT
  5
4A2
102
{ACAD_XDICTIONARY
360
567
102
}
102
{ACAD_REACTORS
330
490
102
}
330
490
100
AcDbPlotSettings
  1

  2
Brother DCP-9020CDW Printer
  4

  6

 40
0.0
 41
0.0
 42
0.0
 43
0.0
 44
0.0
 45
0.0
 46
0.0
 47
0.0
 48
0.0
 49
0.0
140
0.0
141
0.0
142
1.0
143
1.0
 70
  1712
 72
     0
 73
     0
 74
     0
  7

 75
     0
147
1.0
148
0.0
149
0.0
100
AcDbLayout
  1
Model
 70
     1
 71
     0
 10
0.0
 20
0.0
 11
12.0
 21
9.0
 12
0.0
 22
0.0
 32
0.0
 14
0.0
 24
0.0
 34
0.0
 15
0.0
 25
0.0
 35
0.0
146
0.0
 13
0.0
 23
0.0
 33
0.0
 16
1.0
 26
0.0
 36
0.0
 17
0.0
 27
1.0
 37
0.0
 76
     0
330
49F
331
4CE
  0
MATERIAL
  5
448
102
{ACAD_XDICTIONARY
360
449
102
}
102
{ACAD_REACTORS
330
43F
102
}
330
43F
100
AcDbMaterial
  1
ByBlock
 72
     0
 43
0.0208333333333333
 43
0.0
 43
0.0
 43
0.0
 43
0.0
 43
0.0208333333333333
 43
0.0
 43
0.0
 43
0.0
 43
0.0
 43
1.0
 43
0.0
 43
0.0
 43
0.0
 43
0.0
 43
1.0
 77
     0
 47
0.0208333333333333
 47
0.0
 47
0.0
 47
0.0
 47
0.0
 47
0.0208333333333333
 47
0.0
 47
0.0
 47
0.0
 47
0.0
 47
1.0
 47
0.0
 47
0.0
 47
0.0
 47
0.0
 47
1.0
171
     0
 49
0.0208333333333333
 49
0.0
 49
0.0
 49
0.0
 49
0.0
 49
0.0208333333333333
 49
0.0
 49
0.0
 49
0.0
 49
0.0
 49
1.0
 49
0.0
 49
0.0
 49
0.0
 49
0.0
 49
1.0
175
     0
142
0.0208333333333333
142
0.0
142
0.0
142
0.0
142
0.0
142
0.0208333333333333
142
0.0
142
0.0
142
0.0
142
0.0
142
1.0
142
0.0
142
0.0
142
0.0
142
0.0
142
1.0
179
     0
144
0.0208333333333333
144
0.0
144
0.0
144
0.0
144
0.0
144
0.0208333333333333
144
0.0
144
0.0
144
0.0
144
0.0
144
1.0
144
0.0
144
0.0
144
0.0
144
0.0
144
1.0
147
0.0208333333333333
147
0.0
147
0.0
147
0.0
147
0.0
147
0.0208333333333333
147
0.0
147
0.0
147
0.0
147
0.0
147
1.0
147
0.0
147
0.0
147
0.0
147
0.0
147
1.0
  0
MATERIAL
  5
440
102
{ACAD_XDICTIONARY
360
441
102
}
102
{ACAD_REACTORS
330
43F
102
}
330
43F
100
AcDbMaterial
  1
ByLayer
 72
     0
 43
0.0208333333333333
 43
0.0
 43
0.0
 43
0.0
 43
0.0
 43
0.0208333333333333
 43
0.0
 43
0.0
 43
0.0
 43
0.0
 43
1.0
 43
0.0
 43
0.0
 43
0.0
 43
0.0
 43
1.0
 77
     0
 47
0.0208333333333333
 47
0.0
 47
0.0
 47
0.0
 47
0.0
 47
0.0208333333333333
 47
0.0
 47
0.0
 47
0.0
 47
0.0
 47
1.0
 47
0.0
 47
0.0
 47
0.0
 47
0.0
 47
1.0
171
     0
 49
0.0208333333333333
 49
0.0
 49
0.0
 49
0.0
 49
0.0
 49
0.0208333333333333
 49
0.0
 49
0.0
 49
0.0
 49
0.0
 49
1.0
 49
0.0
 49
0.0
 49
0.0
 49
0.0
 49
1.0
175
     0
142
0.0208333333333333
142
0.0
142
0.0
142
0.0
142
0.0
142
0.0208333333333333
142
0.0
142
0.0
142
0.0
142
0.0
142
1.0
142
0.0
142
0.0
142
0.0
142
0.0
142
1.0
179
     0
144
0.0208333333333333
144
0.0
144
0.0
144
0.0
144
0.0
144
0.0208333333333333
144
0.0
144
0.0
144
0.0
144
0.0
144
1.0
144
0.0
144
0.0
144
0.0
144
0.0
144
1.0
147
0.0208333333333333
147
0.0
147
0.0
147
0.0
147
0.0
147
0.0208333333333333
147
0.0
147
0.0
147
0.0
147
0.0
147
1.0
147
0.0
147
0.0
147
0.0
147
0.0
147
1.0
  0
MATERIAL
  5
450
102
{ACAD_XDICTIONARY
360
451
102
}
102
{ACAD_REACTORS
330
43F
102
}
330
43F
100
AcDbMaterial
  1
Global
 72
     0
 43
0.0208333333333333
 43
0.0
 43
0.0
 43
0.0
 43
0.0
 43
0.0208333333333333
 43
0.0
 43
0.0
 43
0.0
 43
0.0
 43
1.0
 43
0.0
 43
0.0
 43
0.0
 43
0.0
 43
1.0
 77
     0
 47
0.0208333333333333
 47
0.0
 47
0.0
 47
0.0
 47
0.0
 47
0.0208333333333333
 47
0.0
 47
0.0
 47
0.0
 47
0.0
 47
1.0
 47
0.0
 47
0.0
 47
0.0
 47
0.0
 47
1.0
171
     0
 49
0.0208333333333333
 49
0.0
 49
0.0
 49
0.0
 49
0.0
 49
0.0208333333333333
 49
0.0
 49
0.0
 49
0.0
 49
0.0
 49
1.0
 49
0.0
 49
0.0
 49
0.0
 49
0.0
 49
1.0
175
     0
142
0.0208333333333333
142
0.0
142
0.0
142
0.0
142
0.0
142
0.0208333333333333
142
0.0
142
0.0
142
0.0
142
0.0
142
1.0
142
0.0
142
0.0
142
0.0
142
0.0
142
1.0
179
     0
144
0.0208333333333333
144
0.0
144
0.0
144
0.0
144
0.0
144
0.0208333333333333
144
0.0
144
0.0
144
0.0
144
0.0
144
1.0
144
0.0
144
0.0
144
0.0
144
0.0
144
1.0
147
0.0208333333333333
147
0.0
147
0.0
147
0.0
147
0.0
147
0.0208333333333333
147
0.0
147
0.0
147
0.0
147
0.0
147
1.0
147
0.0
147
0.0
147
0.0
147
0.0
147
1.0
  0
MLEADERSTYLE
  5
495
102
{ACAD_REACTORS
330
494
102
}
330
494
100
AcDbMLeaderStyle
170
     2
171
     1
172
     0
 90
        2
 40
0.0
 41
0.0
173
     1
 91
-1056964608
340
489
 92
       -2
290
     1
 42
0.09
291
     1
 43
0.36
  3
Standard
 44
0.18
300

342
484
174
     1
178
     6
175
     1
176
     0
 93
-1056964608
 45
0.18
292
     0
297
     0
 46
0.18
 94
-1056964608
 47
1.0
 49
1.0
140
1.0
293
     1
141
0.0
294
     1
177
     0
142
1.0
295
     0
296
     0
143
0.125
1001
ACAD_MLEADERVER
1070
     2
  0
MLINESTYLE
  5
48E
102
{ACAD_REACTORS
330
48D
102
}
330
48D
100
AcDbMlineStyle
  2
STANDARD
 70
     0
  3

 62
   256
 51
90.0
 52
90.0
 71
     2
 49
0.5
 62
   256
  6
BYLAYER
 49
-0.5
 62
   256
  6
BYLAYER
  0
ACDBPLACEHOLDER
  5
43E
102
{ACAD_REACTORS
330
43D
102
}
330
43D
  0
SCALE
  5
472
102
{ACAD_REACTORS
330
471
102
}
330
471
100
AcDbScale
 70
     0
300
1:1
140
1.0
141
1.0
290
     1
  0
SCALE
  5
473
102
{ACAD_REACTORS
330
471
102
}
330
471
100
AcDbScale
 70
     0
300
1/128" = 1'-0"
140
0.0078125
141
12.0
290
     0
  0
SCALE
  5
474
102
{ACAD_REACTORS
330
471
102
}
330
471
100
AcDbScale
 70
     0
300
1/64" = 1'-0"
140
0.015625
141
12.0
290
     0
  0
SCALE
  5
475
102
{ACAD_REACTORS
330
471
102
}
330
471
100
AcDbScale
 70
     0
300
1/32" = 1'-0"
140
0.03125
141
12.0
290
     0
  0
SCALE
  5
476
102
{ACAD_REACTORS
330
471
102
}
330
471
100
AcDbScale
 70
     0
300
1/16" = 1'-0"
140
0.0625
141
12.0
290
     0
  0
SCALE
  5
477
102
{ACAD_REACTORS
330
471
102
}
330
471
100
AcDbScale
 70
     0
300
3/32" = 1'-0"
140
0.09375
141
12.0
290
     0
  0
SCALE
  5
478
102
{ACAD_REACTORS
330
471
102
}
330
471
100
AcDbScale
 70
     0
300
1/8" = 1'-0"
140
0.125
141
12.0
290
     0
  0
SCALE
  5
479
102
{ACAD_REACTORS
330
471
102
}
330
471
100
AcDbScale
 70
     0
300
3/16" = 1'-0"
140
0.1875
141
12.0
290
     0
  0
SCALE
  5
47A
102
{ACAD_REACTORS
330
471
102
}
330
471
100
AcDbScale
 70
     0
300
1/4" = 1'-0"
140
0.25
141
12.0
290
     0
  0
SCALE
  5
47B
102
{ACAD_REACTORS
330
471
102
}
330
471
100
AcDbScale
 70
     0
300
3/8" = 1'-0"
140
0.375
141
12.0
290
     0
  0
SCALE
  5
47C
102
{ACAD_REACTORS
330
471
102
}
330
471
100
AcDbScale
 70
     0
300
1/2" = 1'-0"
140
0.5
141
12.0
290
     0
  0
SCALE
  5
47D
102
{ACAD_REACTORS
330
471
102
}
330
471
100
AcDbScale
 70
     0
300
3/4" = 1'-0"
140
0.75
141
12.0
290
     0
  0
SCALE
  5
47E
102
{ACAD_REACTORS
330
471
102
}
330
471
100
AcDbScale
 70
     0
300
1" = 1'-0"
140
1.0
141
12.0
290
     0
  0
SCALE
  5
47F
102
{ACAD_REACTORS
330
471
102
}
330
471
100
AcDbScale
 70
     0
300
1-1/2" = 1'-0"
140
1.5
141
12.0
290
     0
  0
SCALE
  5
480
102
{ACAD_REACTORS
330
471
102
}
330
471
100
AcDbScale
 70
     0
300
3" = 1'-0"
140
3.0
141
12.0
290
     0
  0
SCALE
  5
481
102
{ACAD_REACTORS
330
471
102
}
330
471
100
AcDbScale
 70
     0
300
6" = 1'-0"
140
6.0
141
12.0
290
     0
  0
SCALE
  5
482
102
{ACAD_REACTORS
330
471
102
}
330
471
100
AcDbScale
 70
     0
300
1'-0" = 1'-0"
140
12.0
141
12.0
290
     0
  0
ACDBSECTIONVIEWSTYLE
  5
498
102
{ACAD_REACTORS
330
496
102
}
330
496
100
AcDbModelDocViewStyle
 70
     0
  3
Imperial24
290
     0
100
AcDbSectionViewStyle
 70
     0
 71
     0
 90
       78
 71
     1
340
484
 40
0.24
340
0
340
0
 40
0.24
300
I, O, Q, S, X, Z
 40
0.48
 90
        3
 40
0.18
 90
        1
 71
     2
340
497
 90
       25
340
48B
 90
       50
 40
0.24
 40
0.0
 40
0.24
 71
     3
340
484
 40
0.24
 90
        1
 40
0.75
 90
        1
300
%<\AcVar ViewType \f "%tc1">% %<\AcVar ViewSectionStartId>%-%<\AcVar ViewSectionEndId>%\PSCALE %<\AcVar ViewScale \f "%sn">%
 71
     4
300
ANSI31
 40
1.0
 90
        0
290
     0
290
     0
 90
        6
 40
0.0
 40
1.570796326794896
 40
0.2617993877991494
 40
1.308996938995747
 40
-0.2617993877991494
 40
1.832595714594046
  0
TABLESTYLE
  5
493
102
{ACAD_XDICTIONARY
360
52C
102
}
102
{ACAD_REACTORS
330
492
102
}
330
492
100
AcDbTableStyle
  3
Standard
 70
     0
 71
     0
 40
0.06
 41
0.06
280
     0
281
     0
  7
STANDARD
140
0.18
170
     2
 62
     0
 63
     7
283
     0
274
    -2
284
     1
 64
     0
275
    -2
285
     1
 65
     0
276
    -2
286
     1
 66
     0
277
    -2
287
     1
 67
     0
278
    -2
288
     1
 68
     0
279
    -2
289
     1
 69
     0
  7
STANDARD
140
0.25
170
     5
 62
     0
 63
     7
283
     0
274
    -2
284
     1
 64
     0
275
    -2
285
     1
 65
     0
276
    -2
286
     1
 66
     0
277
    -2
287
     1
 67
     0
278
    -2
288
     1
 68
     0
279
    -2
289
     1
 69
     0
  7
STANDARD
140
0.18
170
     5
 62
     0
 63
     7
283
     0
274
    -2
284
     1
 64
     0
275
    -2
285
     1
 65
     0
276
    -2
286
     1
 66
     0
277
    -2
287
     1
 67
     0
278
    -2
288
     1
 68
     0
279
    -2
289
     1
 69
     0
  0
VISUALSTYLE
  5
45E
102
{ACAD_XDICTIONARY
360
53D
102
}
102
{ACAD_REACTORS
330
458
102
}
330
458
100
AcDbVisualStyle
  2
2dWireframe
 70
     4
 71
     0
 72
     2
 73
     0
 90
        0
 40
-0.6
 41
-30.0
 62
     5
 63
     7
 74
     1
 91
        4
 64
     7
 65
   257
 75
     1
175
     1
 42
1.0
 92
        0
 66
   257
 43
1.0
 76
     1
 77
     6
 78
     2
 67
     7
 79
     5
170
     0
171
     0
290
     0
174
     0
 93
        1
 44
0.0
173
     0
291
     0
 45
0.0
1001
ACAD
1000
AcDbSavedByObjectVersion
1070
     0
  0
VISUALSTYLE
  5
45D
102
{ACAD_XDICTIONARY
360
53B
102
}
102
{ACAD_REACTORS
330
458
102
}
330
458
100
AcDbVisualStyle
  2
Basic
 70
     7
 71
     1
 72
     0
 73
     1
 90
        0
 40
-0.6
 41
-30.0
 62
     5
 63
     7
 74
     0
 91
        4
 64
     7
 65
   257
 75
     1
175
     1
 42
1.0
 92
        8
 66
     7
 43
1.0
 76
     1
 77
     6
 78
     2
 67
     7
 79
     5
170
     0
171
     0
290
     0
174
     0
 93
        1
 44
0.0
173
     0
291
     1
 45
0.0
1001
ACAD
1000
AcDbSavedByObjectVersion
1070
     0
  0
VISUALSTYLE
  5
464
102
{ACAD_XDICTIONARY
360
549
102
}
102
{ACAD_REACTORS
330
458
102
}
330
458
100
AcDbVisualStyle
  2
Brighten
 70
    12
 71
     2
 72
     2
 73
     0
 90
        0
 40
-0.6
 41
-30.0
 62
     5
 63
     7
 74
     1
 91
        4
 64
     7
 65
   257
 75
     1
175
     1
 42
1.0
 92
        8
 66
     7
 43
1.0
 76
     1
 77
     6
 78
     2
 67
     7
 79
     5
170
     0
171
     0
290
     0
174
     0
 93
        1
 44
50.0
173
     0
291
     1
 45
0.0
1001
ACAD
1000
AcDbSavedByObjectVersion
1070
     0
  0
VISUALSTYLE
  5
468
102
{ACAD_XDICTIONARY
360
551
102
}
102
{ACAD_REACTORS
330
458
102
}
330
458
100
AcDbVisualStyle
  2
ColorChange
 70
    16
 71
     2
 72
     2
 73
     3
 90
        0
 40
-0.6
 41
-30.0
 62
     5
 63
     8
 74
     1
 91
        4
 64
     7
 65
   257
 75
     1
175
     1
 42
1.0
 92
        8
 66
     8
 43
1.0
 76
     1
 77
     6
 78
     2
 67
     7
 79
     5
170
     0
171
     0
290
     0
174
     0
 93
        1
 44
0.0
173
     0
291
     1
 45
0.0
1001
ACAD
1000
AcDbSavedByObjectVersion
1070
     0
  0
VISUALSTYLE
  5
461
102
{ACAD_XDICTIONARY
360
543
102
}
102
{ACAD_REACTORS
330
458
102
}
330
458
100
AcDbVisualStyle
  2
Conceptual
 70
     9
 71
     3
 72
     2
 73
     0
 90
        0
 40
-0.6
 41
-30.0
 62
     5
 63
     7
 74
     2
 91
        2
 64
     7
 65
   257
 75
     1
175
     1
 42
179.0
 92
        8
 66
     7
 43
1.0
 76
     1
 77
     6
 78
     2
 67
     7
 79
     3
170
     0
171
     0
290
     0
174
     0
 93
        1
 44
0.0
173
     0
291
     0
 45
0.0
1001
ACAD
1000
AcDbSavedByObjectVersion
1070
     0
  0
VISUALSTYLE
  5
463
102
{ACAD_XDICTIONARY
360
547
102
}
102
{ACAD_REACTORS
330
458
102
}
330
458
100
AcDbVisualStyle
  2
Dim
 70
    11
 71
     2
 72
     2
 73
     0
 90
        0
 40
-0.6
 41
-30.0
 62
     5
 63
     7
 74
     1
 91
        4
 64
     7
 65
   257
 75
     1
175
     1
 42
1.0
 92
        8
 66
     7
 43
1.0
 76
     1
 77
     6
 78
     2
 67
     7
 79
     5
170
     0
171
     0
290
     0
174
     0
 93
        1
 44
-50.0
173
     0
291
     1
 45
0.0
1001
ACAD
1000
AcDbSavedByObjectVersion
1070
     0
  0
VISUALSTYLE
  5
470
102
{ACAD_XDICTIONARY
360
561
102
}
102
{ACAD_REACTORS
330
458
102
}
330
458
100
AcDbVisualStyle
  2
EdgeColorOff
 70
    22
 71
     2
 72
     2
 73
     0
 90
        0
 40
-0.6
 41
-30.0
 62
     5
 63
     7
 74
     1
 91
        4
 64
     7
 65
   257
 75
     1
175
     1
 42
1.0
 92
        8
 66
     7
 43
1.0
 76
     1
 77
     6
 78
     2
 67
     7
 79
     5
170
     0
171
     0
290
     0
174
     0
 93
        1
 44
0.0
173
     0
291
     1
 45
0.0
1001
ACAD
1000
AcDbSavedByObjectVersion
1070
     0
  0
VISUALSTYLE
  5
467
102
{ACAD_XDICTIONARY
360
54F
102
}
102
{ACAD_REACTORS
330
458
102
}
330
458
100
AcDbVisualStyle
  2
Facepattern
 70
    15
 71
     2
 72
     2
 73
     0
 90
        0
 40
-0.6
 41
-30.0
 62
     5
 63
     7
 74
     1
 91
        4
 64
     7
 65
   257
 75
     1
175
     1
 42
1.0
 92
        8
 66
     7
 43
1.0
 76
     1
 77
     6
 78
     2
 67
     7
 79
     5
170
     0
171
     0
290
     0
174
     0
 93
        1
 44
0.0
173
     0
291
     1
 45
0.0
1001
ACAD
1000
AcDbSavedByObjectVersion
1070
     0
  0
VISUALSTYLE
  5
459
102
{ACAD_XDICTIONARY
360
533
102
}
102
{ACAD_REACTORS
330
458
102
}
330
458
100
AcDbVisualStyle
  2
Flat
 70
     0
 71
     2
 72
     1
 73
     1
 90
        2
 40
-0.6
 41
30.0
 62
     5
 63
     7
 74
     0
 91
        0
 64
     7
 65
   257
 75
     1
175
     1
 42
1.0
 92
        8
 66
     7
 43
1.0
 76
     1
 77
     6
 78
     2
 67
     7
 79
     5
170
     0
171
     0
290
     0
174
     0
 93
       13
 44
0.0
173
     0
291
     1
 45
0.0
1001
ACAD
1000
AcDbSavedByObjectVersion
1070
     0
  0
VISUALSTYLE
  5
45A
102
{ACAD_XDICTIONARY
360
535
102
}
102
{ACAD_REACTORS
330
458
102
}
330
458
100
AcDbVisualStyle
  2
FlatWithEdges
 70
     1
 71
     2
 72
     1
 73
     1
 90
        2
 40
-0.6
 41
30.0
 62
     5
 63
     7
 74
     1
 91
        0
 64
     7
 65
   257
 75
     1
175
     1
 42
1.0
 92
        0
 66
   257
 43
1.0
 76
     1
 77
     6
 78
     2
 67
     7
 79
     5
170
     0
171
     0
290
     0
174
     0
 93
       13
 44
0.0
173
     0
291
     1
 45
0.0
1001
ACAD
1000
AcDbSavedByObjectVersion
1070
     0
  0
VISUALSTYLE
  5
45B
102
{ACAD_XDICTIONARY
360
537
102
}
102
{ACAD_REACTORS
330
458
102
}
330
458
100
AcDbVisualStyle
  2
Gouraud
 70
     2
 71
     2
 72
     2
 73
     1
 90
        2
 40
-0.6
 41
30.0
 62
     5
 63
     7
 74
     0
 91
        0
 64
     7
 65
   257
 75
     1
175
     1
 42
1.0
 92
        0
 66
     7
 43
1.0
 76
     1
 77
     6
 78
     2
 67
     7
 79
     5
170
     0
171
     0
290
     0
174
     0
 93
       13
 44
0.0
173
     0
291
     1
 45
0.0
1001
ACAD
1000
AcDbSavedByObjectVersion
1070
     0
  0
VISUALSTYLE
  5
45C
102
{ACAD_XDICTIONARY
360
539
102
}
102
{ACAD_REACTORS
330
458
102
}
330
458
100
AcDbVisualStyle
  2
GouraudWithEdges
 70
     3
 71
     2
 72
     2
 73
     1
 90
        2
 40
-0.6
 41
30.0
 62
     5
 63
     7
 74
     1
 91
        0
 64
     7
 65
   257
 75
     1
175
     1
 42
1.0
 92
        0
 66
   257
 43
1.0
 76
     1
 77
     6
 78
     2
 67
     7
 79
     5
170
     0
171
     0
290
     0
174
     0
 93
       13
 44
0.0
173
     0
291
     1
 45
0.0
1001
ACAD
1000
AcDbSavedByObjectVersion
1070
     0
  0
VISUALSTYLE
  5
460
102
{ACAD_XDICTIONARY
360
541
102
}
102
{ACAD_REACTORS
330
458
102
}
330
458
100
AcDbVisualStyle
  2
Hidden
 70
     6
 71
     1
 72
     2
 73
     2
 90
        0
 40
-0.6
 41
-30.0
 62
     5
 63
     7
 74
     2
 91
        2
 64
     7
 65
   257
 75
     2
175
     1
 42
40.0
 92
        0
 66
   257
 43
1.0
 76
     1
 77
     6
 78
     2
 67
     7
 79
     3
170
     0
171
     0
290
     0
174
     0
 93
        1
 44
0.0
173
     0
291
     0
 45
0.0
1001
ACAD
1000
AcDbSavedByObjectVersion
1070
     0
  0
VISUALSTYLE
  5
46E
102
{ACAD_XDICTIONARY
360
55D
102
}
102
{ACAD_REACTORS
330
458
102
}
330
458
100
AcDbVisualStyle
  2
JitterOff
 70
    20
 71
     2
 72
     2
 73
     0
 90
        0
 40
-0.6
 41
-30.0
 62
     5
 63
     7
 74
     1
 91
        4
 64
     7
 65
   257
 75
     1
175
     1
 42
1.0
 92
       10
 66
     7
 43
1.0
 76
     1
 77
     6
 78
     2
 67
     7
 79
     5
170
     0
171
     0
290
     0
174
     0
 93
        1
 44
0.0
173
     0
291
     1
 45
0.0
1001
ACAD
1000
AcDbSavedByObjectVersion
1070
     0
  0
VISUALSTYLE
  5
466
102
{ACAD_XDICTIONARY
360
54D
102
}
102
{ACAD_REACTORS
330
458
102
}
330
458
100
AcDbVisualStyle
  2
Linepattern
 70
    14
 71
     2
 72
     2
 73
     0
 90
        0
 40
-0.6
 41
-30.0
 62
     5
 63
     7
 74
     1
 91
        4
 64
     7
 65
   257
 75
     7
175
     7
 42
1.0
 92
        8
 66
     7
 43
1.0
 76
     1
 77
     6
 78
     2
 67
     7
 79
     5
170
     0
171
     0
290
     0
174
     0
 93
        1
 44
0.0
173
     0
291
     1
 45
0.0
1001
ACAD
1000
AcDbSavedByObjectVersion
1070
     0
  0
VISUALSTYLE
  5
46F
102
{ACAD_XDICTIONARY
360
55F
102
}
102
{ACAD_REACTORS
330
458
102
}
330
458
100
AcDbVisualStyle
  2
OverhangOff
 70
    21
 71
     2
 72
     2
 73
     0
 90
        0
 40
-0.6
 41
-30.0
 62
     5
 63
     7
 74
     1
 91
        4
 64
     7
 65
   257
 75
     1
175
     1
 42
1.0
 92
        9
 66
     7
 43
1.0
 76
     1
 77
     6
 78
     2
 67
     7
 79
     5
170
     0
171
     0
290
     0
174
     0
 93
        1
 44
0.0
173
     0
291
     1
 45
0.0
1001
ACAD
1000
AcDbSavedByObjectVersion
1070
     0
  0
VISUALSTYLE
  5
462
102
{ACAD_XDICTIONARY
360
545
102
}
102
{ACAD_REACTORS
330
458
102
}
330
458
100
AcDbVisualStyle
  2
Realistic
 70
     8
 71
     2
 72
     3
 73
     0
 90
        2
 40
-0.6
 41
30.0
 62
     5
 63
     7
 74
     0
 91
        0
 64
     7
 65
   257
 75
     1
175
     1
 42
1.0
 92
        8
 66
   257
 43
1.0
 76
     1
 77
     6
 78
     2
 67
     7
 79
     3
170
     0
171
     0
290
     0
174
     0
 93
       13
 44
0.0
173
     0
291
     0
 45
0.0
1001
ACAD
1000
AcDbSavedByObjectVersion
1070
     0
  0
VISUALSTYLE
  5
46D
102
{ACAD_XDICTIONARY
360
55B
102
}
102
{ACAD_REACTORS
330
458
102
}
330
458
100
AcDbVisualStyle
  2
Shaded
 70
    27
 71
     2
 72
     2
 73
     1
 90
        2
 40
-0.6
 41
30.0
 62
     5
 63
     7
 74
     0
 91
        4
 64
     7
 65
   257
 75
     1
175
     1
 42
1.0
 92
        8
 66
   257
 43
1.0
 76
     1
 77
     6
 78
     2
 67
     8
 79
     3
170
     0
171
     0
290
     0
174
     0
 93
        5
 44
0.0
173
     0
291
     0
 45
0.0
1001
ACAD
1000
AcDbSavedByObjectVersion
1070
     0
  0
VISUALSTYLE
  5
46C
102
{ACAD_XDICTIONARY
360
559
102
}
102
{ACAD_REACTORS
330
458
102
}
330
458
100
AcDbVisualStyle
  2
Shaded with edges
 70
    26
 71
     2
 72
     2
 73
     1
 90
        2
 40
-0.6
 41
30.0
 62
     5
 63
     7
 74
     1
 91
       10
 64
     7
 65
   257
 75
     2
175
     1
 42
1.0
 92
        8
 66
   257
 43
1.0
 76
     1
 77
     6
 78
     2
 67
     7
 79
     3
170
     0
171
     0
290
     0
174
     0
 93
        5
 44
0.0
173
     0
291
     0
 45
0.0
1001
ACAD
1000
AcDbSavedByObjectVersion
1070
     0
  0
VISUALSTYLE
  5
469
102
{ACAD_XDICTIONARY
360
553
102
}
102
{ACAD_REACTORS
330
458
102
}
330
458
100
AcDbVisualStyle
  2
Shades of Gray
 70
    23
 71
     2
 72
     2
 73
     3
 90
        0
 40
-0.6
 41
-30.0
 62
     5
 63
     7
 74
     2
 91
        2
 64
     7
 65
     7
 75
     1
175
     1
 42
40.0
 92
        8
 66
     7
 43
1.0
 76
     1
 77
     6
 78
     2
 67
     7
 79
     3
170
     0
171
     0
290
     0
174
     0
 93
        1
 44
0.0
173
     0
291
     0
 45
0.0
1001
ACAD
1000
AcDbSavedByObjectVersion
1070
     0
  0
VISUALSTYLE
  5
46A
102
{ACAD_XDICTIONARY
360
555
102
}
102
{ACAD_REACTORS
330
458
102
}
330
458
100
AcDbVisualStyle
  2
Sketchy
 70
    24
 71
     1
 72
     2
 73
     2
 90
        0
 40
-0.6
 41
-30.0
 62
     5
 63
     7
 74
     2
 91
        2
 64
     7
 65
     7
 75
     1
175
     1
 42
40.0
 92
       11
 66
     7
 43
1.0
 76
     1
 77
     6
 78
     2
 67
     7
 79
     6
170
     0
171
     0
290
     0
174
     0
 93
        1
 44
0.0
173
     0
291
     0
 45
0.0
1001
ACAD
1000
AcDbSavedByObjectVersion
1070
     0
  0
VISUALSTYLE
  5
465
102
{ACAD_XDICTIONARY
360
54B
102
}
102
{ACAD_REACTORS
330
458
102
}
330
458
100
AcDbVisualStyle
  2
Thicken
 70
    13
 71
     2
 72
     2
 73
     0
 90
        0
 40
-0.6
 41
-30.0
 62
     5
 63
     7
 74
     1
 91
        4
 64
     7
 65
   257
 75
     1
175
     1
 42
1.0
 92
       12
 66
     7
 43
1.0
 76
     1
 77
     6
 78
     2
 67
     7
 79
     5
170
     0
171
     0
290
     0
174
     0
 93
        1
 44
0.0
173
     0
291
     1
 45
0.0
1001
ACAD
1000
AcDbSavedByObjectVersion
1070
     0
  0
VISUALSTYLE
  5
45F
102
{ACAD_XDICTIONARY
360
53F
102
}
102
{ACAD_REACTORS
330
458
102
}
330
458
100
AcDbVisualStyle
  2
Wireframe
 70
     5
 71
     0
 72
     2
 73
     0
 90
        0
 40
-0.6
 41
-30.0
 62
     5
 63
     7
 74
     1
 91
        4
 64
     7
 65
   257
 75
     1
175
     1
 42
1.0
 92
        0
 66
   257
 43
1.0
 76
     1
 77
     6
 78
     2
 67
     7
 79
     3
170
     0
171
     0
290
     0
174
     0
 93
        1
 44
0.0
173
     0
291
     0
 45
0.0
1001
ACAD
1000
AcDbSavedByObjectVersion
1070
     0
  0
VISUALSTYLE
  5
46B
102
{ACAD_XDICTIONARY
360
557
102
}
102
{ACAD_REACTORS
330
458
102
}
330
458
100
AcDbVisualStyle
  2
X-Ray
 70
    25
 71
     2
 72
     2
 73
     1
 90
        1
 40
0.5
 41
-30.0
 62
     5
 63
     7
 74
     1
 91
        0
 64
     7
 65
   257
 75
     1
175
     1
 42
1.0
 92
        8
 66
     7
 43
1.0
 76
     1
 77
     6
 78
     2
 67
     7
 79
     3
170
     0
171
     0
290
     0
174
     0
 93
       13
 44
0.0
173
     0
291
     0
 45
0.0
1001
ACAD
1000
AcDbSavedByObjectVersion
1070
     0
  0
DICTIONARYVAR
  5
526
102
{ACAD_REACTORS
330
521
102
}
330
521
100
DictionaryVariables
280
     0
  1
1:1
  0
DICTIONARYVAR
  5
523
102
{ACAD_REACTORS
330
521
102
}
330
521
100
DictionaryVariables
280
     0
  1
STANDARD
  0
DICTIONARYVAR
  5
522
102
{ACAD_REACTORS
330
521
102
}
330
521
100
DictionaryVariables
280
     0
  1
STANDARD
  0
DICTIONARYVAR
  5
524
102
{ACAD_REACTORS
330
521
102
}
330
521
100
DictionaryVariables
280
     0
  1
Imperial24
  0
DICTIONARYVAR
  5
525
102
{ACAD_REACTORS
330
521
102
}
330
521
100
DictionaryVariables
280
     0
  1
Imperial24
  0
DICTIONARYVAR
  5
529
102
{ACAD_REACTORS
330
521
102
}
330
521
100
DictionaryVariables
280
     0
  1
1
  0
DICTIONARYVAR
  5
528
102
{ACAD_REACTORS
330
521
102
}
330
521
100
DictionaryVariables
280
     0
  1
0
  0
DICTIONARYVAR
  5
527
102
{ACAD_REACTORS
330
521
102
}
330
521
100
DictionaryVariables
280
     0
  1
127
  0
DICTIONARYVAR
  5
52A
102
{ACAD_REACTORS
330
521
102
}
330
521
100
DictionaryVariables
280
     0
  1
2
  0
DICTIONARY
  5
565
330
49E
100
AcDbDictionary
280
     1
281
     1
  3
ACAD_XREC_ROUNDTRIP
360
566
  0
DICTIONARY
  5
567
330
4A2
100
AcDbDictionary
280
     1
281
     1
  3
ACAD_XREC_ROUNDTRIP
360
568
  0
DICTIONARY
  5
449
330
448
100
AcDbDictionary
280
     1
281
     1
  3
ACAD_XREC_ROUNDTRIP
360
531
  3
BUMPTILE
360
44B
  3
DIFFUSETILE
360
44A
  3
OPACITYTILE
360
44E
  3
REFLECTIONTILE
360
44D
  3
REFRACTIONTILE
360
44F
  3
SPECULARTILE
360
44C
  0
DICTIONARY
  5
441
330
440
100
AcDbDictionary
280
     1
281
     1
  3
ACAD_XREC_ROUNDTRIP
360
530
  3
BUMPTILE
360
443
  3
DIFFUSETILE
360
442
  3
OPACITYTILE
360
446
  3
REFLECTIONTILE
360
445
  3
REFRACTIONTILE
360
447
  3
SPECULARTILE
360
444
  0
DICTIONARY
  5
451
330
450
100
AcDbDictionary
280
     1
281
     1
  3
ACAD_XREC_ROUNDTRIP
360
532
  3
BUMPTILE
360
453
  3
DIFFUSETILE
360
452
  3
OPACITYTILE
360
456
  3
REFLECTIONTILE
360
455
  3
REFRACTIONTILE
360
457
  3
SPECULARTILE
360
454
  0
DICTIONARY
  5
52C
330
493
100
AcDbDictionary
280
     1
281
     1
  3
ACAD_ROUNDTRIP_2008_TABLESTYLE_CELLSTYLEMAP
360
52D
  3
ACAD_XREC_ROUNDTRIP
360
563
  0
DICTIONARY
  5
53D
330
45E
100
AcDbDictionary
280
     1
281
     1
  3
ACAD_XREC_ROUNDTRIP
360
53E
  0
DICTIONARY
  5
53B
330
45D
100
AcDbDictionary
280
     1
281
     1
  3
ACAD_XREC_ROUNDTRIP
360
53C
  0
DICTIONARY
  5
549
330
464
100
AcDbDictionary
280
     1
281
     1
  3
ACAD_XREC_ROUNDTRIP
360
54A
  0
DICTIONARY
  5
551
330
468
100
AcDbDictionary
280
     1
281
     1
  3
ACAD_XREC_ROUNDTRIP
360
552
  0
DICTIONARY
  5
543
330
461
100
AcDbDictionary
280
     1
281
     1
  3
ACAD_XREC_ROUNDTRIP
360
544
  0
DICTIONARY
  5
547
330
463
100
AcDbDictionary
280
     1
281
     1
  3
ACAD_XREC_ROUNDTRIP
360
548
  0
DICTIONARY
  5
561
330
470
100
AcDbDictionary
280
     1
281
     1
  3
ACAD_XREC_ROUNDTRIP
360
562
  0
DICTIONARY
  5
54F
330
467
100
AcDbDictionary
280
     1
281
     1
  3
ACAD_XREC_ROUNDTRIP
360
550
  0
DICTIONARY
  5
533
330
459
100
AcDbDictionary
280
     1
281
     1
  3
ACAD_XREC_ROUNDTRIP
360
534
  0
DICTIONARY
  5
535
330
45A
100
AcDbDictionary
280
     1
281
     1
  3
ACAD_XREC_ROUNDTRIP
360
536
  0
DICTIONARY
  5
537
330
45B
100
AcDbDictionary
280
     1
281
     1
  3
ACAD_XREC_ROUNDTRIP
360
538
  0
DICTIONARY
  5
539
330
45C
100
AcDbDictionary
280
     1
281
     1
  3
ACAD_XREC_ROUNDTRIP
360
53A
  0
DICTIONARY
  5
541
330
460
100
AcDbDictionary
280
     1
281
     1
  3
ACAD_XREC_ROUNDTRIP
360
542
  0
DICTIONARY
  5
55D
330
46E
100
AcDbDictionary
280
     1
281
     1
  3
ACAD_XREC_ROUNDTRIP
360
55E
  0
DICTIONARY
  5
54D
330
466
100
AcDbDictionary
280
     1
281
     1
  3
ACAD_XREC_ROUNDTRIP
360
54E
  0
DICTIONARY
  5
55F
330
46F
100
AcDbDictionary
280
     1
281
     1
  3
ACAD_XREC_ROUNDTRIP
360
560
  0
DICTIONARY
  5
545
330
462
100
AcDbDictionary
280
     1
281
     1
  3
ACAD_XREC_ROUNDTRIP
360
546
  0
DICTIONARY
  5
55B
330
46D
100
AcDbDictionary
280
     1
281
     1
  3
ACAD_XREC_ROUNDTRIP
360
55C
  0
DICTIONARY
  5
559
330
46C
100
AcDbDictionary
280
     1
281
     1
  3
ACAD_XREC_ROUNDTRIP
360
55A
  0
DICTIONARY
  5
553
330
469
100
AcDbDictionary
280
     1
281
     1
  3
ACAD_XREC_ROUNDTRIP
360
554
  0
DICTIONARY
  5
555
330
46A
100
AcDbDictionary
280
     1
281
     1
  3
ACAD_XREC_ROUNDTRIP
360
556
  0
DICTIONARY
  5
54B
330
465
100
AcDbDictionary
280
     1
281
     1
  3
ACAD_XREC_ROUNDTRIP
360
54C
  0
DICTIONARY
  5
53F
330
45F
100
AcDbDictionary
280
     1
281
     1
  3
ACAD_XREC_ROUNDTRIP
360
540
  0
DICTIONARY
  5
557
330
46B
100
AcDbDictionary
280
     1
281
     1
  3
ACAD_XREC_ROUNDTRIP
360
558
  0
XRECORD
  5
566
102
{ACAD_REACTORS
330
565
102
}
330
565
100
AcDbXrecord
280
     1
102
SHADEPLOT
 70
     0
102
SHADEPLOTRESLEVEL
 70
     2
102
SHADEPLOTCUSTOMDPI
 70
   300
  0
XRECORD
  5
568
102
{ACAD_REACTORS
330
567
102
}
330
567
100
AcDbXrecord
280
     1
102
SHADEPLOT
 70
     0
102
SHADEPLOTRESLEVEL
 70
     2
102
SHADEPLOTCUSTOMDPI
 70
   300
  0
XRECORD
  5
531
102
{ACAD_REACTORS
330
449
102
}
330
449
100
AcDbXrecord
280
     1
102
MATERIAL
148
0.0
149
0.0
149
0.0
 93
        0
 94
      127
282
     0
 72
     0
 77
     0
171
     0
175
     0
179
     0
273
     0
  0
XRECORD
  5
44B
102
{ACAD_REACTORS
330
449
102
}
330
449
100
AcDbXrecord
280
     1
270
     1
271
     1
  0
XRECORD
  5
44A
102
{ACAD_REACTORS
330
449
102
}
330
449
100
AcDbXrecord
280
     1
270
     1
271
     1
  0
XRECORD
  5
44E
102
{ACAD_REACTORS
330
449
102
}
330
449
100
AcDbXrecord
280
     1
270
     1
271
     1
  0
XRECORD
  5
44D
102
{ACAD_REACTORS
330
449
102
}
330
449
100
AcDbXrecord
280
     1
270
     1
271
     1
  0
XRECORD
  5
44F
102
{ACAD_REACTORS
330
449
102
}
330
449
100
AcDbXrecord
280
     1
270
     1
271
     1
  0
XRECORD
  5
44C
102
{ACAD_REACTORS
330
449
102
}
330
449
100
AcDbXrecord
280
     1
270
     1
271
     1
  0
XRECORD
  5
530
102
{ACAD_REACTORS
330
441
102
}
330
441
100
AcDbXrecord
280
     1
102
MATERIAL
148
0.0
149
0.0
149
0.0
 93
        0
 94
      127
282
     0
 72
     0
 77
     0
171
     0
175
     0
179
     0
273
     0
  0
XRECORD
  5
443
102
{ACAD_REACTORS
330
441
102
}
330
441
100
AcDbXrecord
280
     1
270
     1
271
     1
  0
XRECORD
  5
442
102
{ACAD_REACTORS
330
441
102
}
330
441
100
AcDbXrecord
280
     1
270
     1
271
     1
  0
XRECORD
  5
446
102
{ACAD_REACTORS
330
441
102
}
330
441
100
AcDbXrecord
280
     1
270
     1
271
     1
  0
XRECORD
  5
445
102
{ACAD_REACTORS
330
441
102
}
330
441
100
AcDbXrecord
280
     1
270
     1
271
     1
  0
XRECORD
  5
447
102
{ACAD_REACTORS
330
441
102
}
330
441
100
AcDbXrecord
280
     1
270
     1
271
     1
  0
XRECORD
  5
444
102
{ACAD_REACTORS
330
441
102
}
330
441
100
AcDbXrecord
280
     1
270
     1
271
     1
  0
XRECORD
  5
532
102
{ACAD_REACTORS
330
451
102
}
330
451
100
AcDbXrecord
280
     1
102
MATERIAL
148
0.0
149
0.0
149
0.0
 93
        0
 94
      127
282
     0
 72
     0
 77
     0
171
     0
175
     0
179
     0
273
     0
  0
XRECORD
  5
453
102
{ACAD_REACTORS
330
451
102
}
330
451
100
AcDbXrecord
280
     1
270
     1
271
     1
  0
XRECORD
  5
452
102
{ACAD_REACTORS
330
451
102
}
330
451
100
AcDbXrecord
280
     1
270
     1
271
     1
  0
XRECORD
  5
456
102
{ACAD_REACTORS
330
451
102
}
330
451
100
AcDbXrecord
280
     1
270
     1
271
     1
  0
XRECORD
  5
455
102
{ACAD_REACTORS
330
451
102
}
330
451
100
AcDbXrecord
280
     1
270
     1
271
     1
  0
XRECORD
  5
457
102
{ACAD_REACTORS
330
451
102
}
330
451
100
AcDbXrecord
280
     1
270
     1
271
     1
  0
XRECORD
  5
454
102
{ACAD_REACTORS
330
451
102
}
330
451
100
AcDbXrecord
280
     1
270
     1
271
     1
  0
CELLSTYLEMAP
  5
52D
102
{ACAD_REACTORS
330
52C
102
}
330
52C
100
AcDbCellStyleMap
 90
        3
300
CELLSTYLE
  1
TABLEFORMAT_BEGIN
 90
        5
170
     1
 91
        0
 92
    32768
 62
   257
 93
        1
300
CONTENTFORMAT
  1
CONTENTFORMAT_BEGIN
 90
        0
 91
        0
 92
      512
 93
        0
300

 40
0.0
140
1.0
 94
        5
 62
     0
340
484
144
0.25
309
CONTENTFORMAT_END
171
     0
 94
        0
309
TABLEFORMAT_END
  1
CELLSTYLE_BEGIN
 90
        1
 91
        1
300
_TITLE
309
CELLSTYLE_END
300
CELLSTYLE
  1
TABLEFORMAT_BEGIN
 90
        5
170
     1
 91
        0
 92
        0
 62
   257
 93
        1
300
CONTENTFORMAT
  1
CONTENTFORMAT_BEGIN
 90
        0
 91
        0
 92
      512
 93
        0
300

 40
0.0
140
1.0
 94
        5
 62
     0
340
484
144
0.18
309
CONTENTFORMAT_END
171
     0
 94
        0
309
TABLEFORMAT_END
  1
CELLSTYLE_BEGIN
 90
        2
 91
        1
300
_HEADER
309
CELLSTYLE_END
300
CELLSTYLE
  1
TABLEFORMAT_BEGIN
 90
        5
170
     1
 91
        0
 92
        0
 62
   257
 93
        1
300
CONTENTFORMAT
  1
CONTENTFORMAT_BEGIN
 90
        0
 91
        0
 92
      512
 93
        0
300

 40
0.0
140
1.0
 94
        2
 62
     0
340
484
144
0.18
309
CONTENTFORMAT_END
171
     0
 94
        0
309
TABLEFORMAT_END
  1
CELLSTYLE_BEGIN
 90
        3
 91
        2
300
_DATA
309
CELLSTYLE_END
  0
XRECORD
  5
563
102
{ACAD_REACTORS
330
52C
102
}
330
52C
100
AcDbXrecord
280
     1
102
ACAD_ROUNDTRIP_PRE2007_TABLESTYLE
 90
      512
 91
        0
  1

 92
      512
 93
        0
  2

 94
      512
 95
        0
  3

  0
XRECORD
  5
53E
102
{ACAD_REACTORS
330
53D
102
}
330
53D
100
AcDbXrecord
280
     1
102
RTVSPost2010Prop28
280
     1
102
RTVSPost2010PropOp28
 70
     1
102
RTVSPost2010Prop29
280
     1
102
RTVSPost2010PropOp29
 70
     1
102
RTVSPost2010Prop30
280
     0
102
RTVSPost2010PropOp30
 70
     1
102
RTVSPost2010Prop31
280
     0
102
RTVSPost2010PropOp31
 70
     1
102
RTVSPost2010Prop32
280
     0
102
RTVSPost2010PropOp32
 70
     1
102
RTVSPost2010Prop33
280
     0
102
RTVSPost2010PropOp33
 70
     1
102
RTVSPost2010Prop34
280
     0
102
RTVSPost2010PropOp34
 70
     1
102
RTVSPost2010Prop35
280
     0
102
RTVSPost2010PropOp35
 70
     1
102
RTVSPost2010Prop36
280
     0
102
RTVSPost2010PropOp36
 70
     1
102
RTVSPost2010Prop37
 90
       50
102
RTVSPost2010PropOp37
 70
     1
102
RTVSPost2010Prop38
140
0.0
102
RTVSPost2010PropOp38
 70
     1
102
RTVSPost2010Prop39
140
1.0
102
RTVSPost2010PropOp39
 70
     1
102
RTVSPost2010Prop40
 90
        0
102
RTVSPost2010PropOp40
 70
     1
102
RTVSPost2010Prop41ColorIndex
 90
       18
102
RTVSPost2010Prop41ColorRGB
 90
        0
102
RTVSPost2010PropOp41
 70
     1
102
RTVSPost2010Prop42
 90
       50
102
RTVSPost2010PropOp42
 70
     1
102
RTVSPost2010Prop43
 90
        3
102
RTVSPost2010PropOp43
 70
     1
102
RTVSPost2010Prop44ColorIndex
 90
        5
102
RTVSPost2010Prop44ColorRGB
 90
      255
102
RTVSPost2010PropOp44
 70
     1
102
RTVSPost2010Prop45
280
     0
102
RTVSPost2010PropOp45
 70
     1
102
RTVSPost2010Prop46
 90
       50
102
RTVSPost2010PropOp46
 70
     1
102
RTVSPost2010Prop47
 90
       50
102
RTVSPost2010PropOp47
 70
     1
102
RTVSPost2010Prop48
 90
       50
102
RTVSPost2010PropOp48
 70
     1
102
RTVSPost2010Prop49
280
     0
102
RTVSPost2010PropOp49
 70
     1
102
RTVSPost2010Prop50
 90
       50
102
RTVSPost2010PropOp50
 70
     1
102
RTVSPost2010Prop51ColorIndex
 90
      256
102
RTVSPost2010Prop51ColorRGB
 90
-16777216
102
RTVSPost2010PropOp51
 70
     0
102
RTVSPost2010Prop52
140
1.0
102
RTVSPost2010PropOp52
 70
     0
102
RTVSPost2010Prop53
 90
        2
102
RTVSPost2010PropOp53
 70
     1
102
RTVSPost2010Prop54
  1
strokes_ogs.tif
102
RTVSPost2010PropOp54
 70
     1
102
RTVSPost2010Prop55
280
     0
102
RTVSPost2010PropOp55
 70
     1
102
RTVSPost2010Prop56
140
1.0
102
RTVSPost2010PropOp56
 70
     1
102
RTVSPost2010Prop57
140
1.0
102
RTVSPost2010PropOp57
 70
     1
102
RTVSPropertyOp0
 70
     1
102
RTVSPropertyOp1
 70
     1
102
RTVSPropertyOp2
 70
     1
102
RTVSPropertyOp3
 70
     1
102
RTVSPropertyOp4
 70
     1
102
RTVSPropertyOp5
 70
     1
102
RTVSPropertyOp6
 70
     1
102
RTVSPropertyOp7
 70
     1
102
RTVSPropertyOp8
 70
     1
102
RTVSPropertyOp9
 70
     1
102
RTVSPropertyOp10
 70
     1
102
RTVSPropertyOp11
 70
     1
102
RTVSPropertyOp12
 70
     1
102
RTVSPropertyOp13
 70
     1
102
RTVSPropertyOp14
 70
     1
102
RTVSPropertyOp15
 70
     1
102
RTVSPropertyOp16
 70
     1
102
RTVSPropertyOp17
 70
     1
102
RTVSPropertyOp18
 70
     1
102
RTVSPropertyOp19
 70
     1
102
RTVSPropertyOp20
 70
     1
102
RTVSPropertyOp21
 70
     1
102
RTVSPropertyOp22
 70
     1
102
RTVSPropertyOp23
 70
     1
102
RTVSPropertyOp24
 70
     1
102
RTVSPropertyOp25
 70
     1
102
RTVSPropertyOp26
 70
     1
102
RTVSPropertyOp27
 70
     1
102
RTVSPropertyOp28
 70
     1
102
RTVSPropertyOp29
 70
     1
102
RTVSPropertyOp30
 70
     1
102
RTVSPropertyOp31
 70
     1
102
RTVSPropertyOp32
 70
     1
102
RTVSPropertyOp33
 70
     1
102
RTVSPropertyOp34
 70
     1
102
RTVSPropertyOp35
 70
     1
102
RTVSPropertyOp36
 70
     1
102
RTVSPropertyOp37
 70
     1
102
RTVSPropertyOp38
 70
     1
102
RTVSPropertyOp39
 70
     1
102
RTVSPropertyOp40
 70
     1
102
RTVSPropertyOp41
 70
     1
102
RTVSPropertyOp42
 70
     1
102
RTVSPropertyOp43
 70
     1
102
RTVSPropertyOp44
 70
     1
102
RTVSPropertyOp45
 70
     1
102
RTVSPropertyOp46
 70
     1
102
RTVSPropertyOp47
 70
     1
102
RTVSPropertyOp48
 70
     1
102
RTVSPropertyOp49
 70
     1
102
RTVSPropertyOp50
 70
     1
102
RTVSPropertyOp51
 70
     0
102
RTVSPropertyOp52
 70
     0
102
RTVSPropertyOp53
 70
     1
102
RTVSPropertyOp54
 70
     1
102
RTVSPropertyOp55
 70
     1
102
RTVSPropertyOp56
 70
     1
102
RTVSPropertyOp57
 70
     1
102
RTVSPropertyOp58
 70
     1
102
RTVSPropertyOp59
 70
     1
102
RTVSPropertyOp60
 70
     1
102
RTVSPropertyOp61
 70
     1
102
RTVSPropertyOp62
 70
     1
  0
XRECORD
  5
53C
102
{ACAD_REACTORS
330
53B
102
}
330
53B
100
AcDbXrecord
280
     1
102
RTVSPost2010Prop28
280
     0
102
RTVSPost2010PropOp28
 70
     1
102
RTVSPost2010Prop29
280
     1
102
RTVSPost2010PropOp29
 70
     1
102
RTVSPost2010Prop30
280
     1
102
RTVSPost2010PropOp30
 70
     1
102
RTVSPost2010Prop31
280
     0
102
RTVSPost2010PropOp31
 70
     1
102
RTVSPost2010Prop32
280
     0
102
RTVSPost2010PropOp32
 70
     1
102
RTVSPost2010Prop33
280
     0
102
RTVSPost2010PropOp33
 70
     1
102
RTVSPost2010Prop34
280
     0
102
RTVSPost2010PropOp34
 70
     1
102
RTVSPost2010Prop35
280
     0
102
RTVSPost2010PropOp35
 70
     1
102
RTVSPost2010Prop36
280
     0
102
RTVSPost2010PropOp36
 70
     1
102
RTVSPost2010Prop37
 90
       50
102
RTVSPost2010PropOp37
 70
     1
102
RTVSPost2010Prop38
140
0.0
102
RTVSPost2010PropOp38
 70
     1
102
RTVSPost2010Prop39
140
1.0
102
RTVSPost2010PropOp39
 70
     1
102
RTVSPost2010Prop40
 90
        0
102
RTVSPost2010PropOp40
 70
     1
102
RTVSPost2010Prop41ColorIndex
 90
       18
102
RTVSPost2010Prop41ColorRGB
 90
        0
102
RTVSPost2010PropOp41
 70
     1
102
RTVSPost2010Prop42
 90
       50
102
RTVSPost2010PropOp42
 70
     1
102
RTVSPost2010Prop43
 90
        3
102
RTVSPost2010PropOp43
 70
     1
102
RTVSPost2010Prop44ColorIndex
 90
        5
102
RTVSPost2010Prop44ColorRGB
 90
      255
102
RTVSPost2010PropOp44
 70
     1
102
RTVSPost2010Prop45
280
     0
102
RTVSPost2010PropOp45
 70
     1
102
RTVSPost2010Prop46
 90
       50
102
RTVSPost2010PropOp46
 70
     1
102
RTVSPost2010Prop47
 90
       50
102
RTVSPost2010PropOp47
 70
     1
102
RTVSPost2010Prop48
 90
       50
102
RTVSPost2010PropOp48
 70
     1
102
RTVSPost2010Prop49
280
     0
102
RTVSPost2010PropOp49
 70
     1
102
RTVSPost2010Prop50
 90
       50
102
RTVSPost2010PropOp50
 70
     1
102
RTVSPost2010Prop51ColorIndex
 90
      256
102
RTVSPost2010Prop51ColorRGB
 90
-16777216
102
RTVSPost2010PropOp51
 70
     0
102
RTVSPost2010Prop52
140
1.0
102
RTVSPost2010PropOp52
 70
     0
102
RTVSPost2010Prop53
 90
        2
102
RTVSPost2010PropOp53
 70
     1
102
RTVSPost2010Prop54
  1
strokes_ogs.tif
102
RTVSPost2010PropOp54
 70
     1
102
RTVSPost2010Prop55
280
     0
102
RTVSPost2010PropOp55
 70
     1
102
RTVSPost2010Prop56
140
1.0
102
RTVSPost2010PropOp56
 70
     1
102
RTVSPost2010Prop57
140
1.0
102
RTVSPost2010PropOp57
 70
     1
102
RTVSPropertyOp0
 70
     1
102
RTVSPropertyOp1
 70
     1
102
RTVSPropertyOp2
 70
     1
102
RTVSPropertyOp3
 70
     1
102
RTVSPropertyOp4
 70
     1
102
RTVSPropertyOp5
 70
     1
102
RTVSPropertyOp6
 70
     1
102
RTVSPropertyOp7
 70
     1
102
RTVSPropertyOp8
 70
     1
102
RTVSPropertyOp9
 70
     1
102
RTVSPropertyOp10
 70
     1
102
RTVSPropertyOp11
 70
     1
102
RTVSPropertyOp12
 70
     1
102
RTVSPropertyOp13
 70
     1
102
RTVSPropertyOp14
 70
     1
102
RTVSPropertyOp15
 70
     1
102
RTVSPropertyOp16
 70
     1
102
RTVSPropertyOp17
 70
     1
102
RTVSPropertyOp18
 70
     1
102
RTVSPropertyOp19
 70
     1
102
RTVSPropertyOp20
 70
     1
102
RTVSPropertyOp21
 70
     1
102
RTVSPropertyOp22
 70
     1
102
RTVSPropertyOp23
 70
     1
102
RTVSPropertyOp24
 70
     1
102
RTVSPropertyOp25
 70
     1
102
RTVSPropertyOp26
 70
     1
102
RTVSPropertyOp27
 70
     1
102
RTVSPropertyOp28
 70
     1
102
RTVSPropertyOp29
 70
     1
102
RTVSPropertyOp30
 70
     1
102
RTVSPropertyOp31
 70
     1
102
RTVSPropertyOp32
 70
     1
102
RTVSPropertyOp33
 70
     1
102
RTVSPropertyOp34
 70
     1
102
RTVSPropertyOp35
 70
     1
102
RTVSPropertyOp36
 70
     1
102
RTVSPropertyOp37
 70
     1
102
RTVSPropertyOp38
 70
     1
102
RTVSPropertyOp39
 70
     1
102
RTVSPropertyOp40
 70
     1
102
RTVSPropertyOp41
 70
     1
102
RTVSPropertyOp42
 70
     1
102
RTVSPropertyOp43
 70
     1
102
RTVSPropertyOp44
 70
     1
102
RTVSPropertyOp45
 70
     1
102
RTVSPropertyOp46
 70
     1
102
RTVSPropertyOp47
 70
     1
102
RTVSPropertyOp48
 70
     1
102
RTVSPropertyOp49
 70
     1
102
RTVSPropertyOp50
 70
     1
102
RTVSPropertyOp51
 70
     0
102
RTVSPropertyOp52
 70
     0
102
RTVSPropertyOp53
 70
     1
102
RTVSPropertyOp54
 70
     1
102
RTVSPropertyOp55
 70
     1
102
RTVSPropertyOp56
 70
     1
102
RTVSPropertyOp57
 70
     1
102
RTVSPropertyOp58
 70
     1
102
RTVSPropertyOp59
 70
     1
102
RTVSPropertyOp60
 70
     1
102
RTVSPropertyOp61
 70
     1
102
RTVSPropertyOp62
 70
     1
  0
XRECORD
  5
54A
102
{ACAD_REACTORS
330
549
102
}
330
549
100
AcDbXrecord
280
     1
102
RTVSPost2010Prop28
280
     0
102
RTVSPost2010PropOp28
 70
     1
102
RTVSPost2010Prop29
280
     1
102
RTVSPost2010PropOp29
 70
     1
102
RTVSPost2010Prop30
280
     1
102
RTVSPost2010PropOp30
 70
     1
102
RTVSPost2010Prop31
280
     0
102
RTVSPost2010PropOp31
 70
     1
102
RTVSPost2010Prop32
280
     0
102
RTVSPost2010PropOp32
 70
     1
102
RTVSPost2010Prop33
280
     0
102
RTVSPost2010PropOp33
 70
     1
102
RTVSPost2010Prop34
280
     0
102
RTVSPost2010PropOp34
 70
     1
102
RTVSPost2010Prop35
280
     0
102
RTVSPost2010PropOp35
 70
     1
102
RTVSPost2010Prop36
280
     0
102
RTVSPost2010PropOp36
 70
     1
102
RTVSPost2010Prop37
 90
       50
102
RTVSPost2010PropOp37
 70
     1
102
RTVSPost2010Prop38
140
0.0
102
RTVSPost2010PropOp38
 70
     1
102
RTVSPost2010Prop39
140
1.0
102
RTVSPost2010PropOp39
 70
     1
102
RTVSPost2010Prop40
 90
        0
102
RTVSPost2010PropOp40
 70
     1
102
RTVSPost2010Prop41ColorIndex
 90
       18
102
RTVSPost2010Prop41ColorRGB
 90
        0
102
RTVSPost2010PropOp41
 70
     1
102
RTVSPost2010Prop42
 90
       50
102
RTVSPost2010PropOp42
 70
     1
102
RTVSPost2010Prop43
 90
        3
102
RTVSPost2010PropOp43
 70
     1
102
RTVSPost2010Prop44ColorIndex
 90
        5
102
RTVSPost2010Prop44ColorRGB
 90
      255
102
RTVSPost2010PropOp44
 70
     1
102
RTVSPost2010Prop45
280
     0
102
RTVSPost2010PropOp45
 70
     1
102
RTVSPost2010Prop46
 90
       50
102
RTVSPost2010PropOp46
 70
     1
102
RTVSPost2010Prop47
 90
       50
102
RTVSPost2010PropOp47
 70
     1
102
RTVSPost2010Prop48
 90
       50
102
RTVSPost2010PropOp48
 70
     1
102
RTVSPost2010Prop49
280
     0
102
RTVSPost2010PropOp49
 70
     1
102
RTVSPost2010Prop50
 90
       50
102
RTVSPost2010PropOp50
 70
     1
102
RTVSPost2010Prop51ColorIndex
 90
      256
102
RTVSPost2010Prop51ColorRGB
 90
-16777216
102
RTVSPost2010PropOp51
 70
     0
102
RTVSPost2010Prop52
140
1.0
102
RTVSPost2010PropOp52
 70
     0
102
RTVSPost2010Prop53
 90
        2
102
RTVSPost2010PropOp53
 70
     1
102
RTVSPost2010Prop54
  1
strokes_ogs.tif
102
RTVSPost2010PropOp54
 70
     1
102
RTVSPost2010Prop55
280
     0
102
RTVSPost2010PropOp55
 70
     1
102
RTVSPost2010Prop56
140
1.0
102
RTVSPost2010PropOp56
 70
     1
102
RTVSPost2010Prop57
140
1.0
102
RTVSPost2010PropOp57
 70
     1
102
RTVSPropertyOp0
 70
     1
102
RTVSPropertyOp1
 70
     1
102
RTVSPropertyOp2
 70
     1
102
RTVSPropertyOp3
 70
     1
102
RTVSPropertyOp4
 70
     1
102
RTVSPropertyOp5
 70
     1
102
RTVSPropertyOp6
 70
     1
102
RTVSPropertyOp7
 70
     1
102
RTVSPropertyOp8
 70
     1
102
RTVSPropertyOp9
 70
     1
102
RTVSPropertyOp10
 70
     1
102
RTVSPropertyOp11
 70
     1
102
RTVSPropertyOp12
 70
     1
102
RTVSPropertyOp13
 70
     1
102
RTVSPropertyOp14
 70
     1
102
RTVSPropertyOp15
 70
     1
102
RTVSPropertyOp16
 70
     1
102
RTVSPropertyOp17
 70
     1
102
RTVSPropertyOp18
 70
     1
102
RTVSPropertyOp19
 70
     1
102
RTVSPropertyOp20
 70
     1
102
RTVSPropertyOp21
 70
     1
102
RTVSPropertyOp22
 70
     1
102
RTVSPropertyOp23
 70
     1
102
RTVSPropertyOp24
 70
     1
102
RTVSPropertyOp25
 70
     1
102
RTVSPropertyOp26
 70
     1
102
RTVSPropertyOp27
 70
     1
102
RTVSPropertyOp28
 70
     1
102
RTVSPropertyOp29
 70
     1
102
RTVSPropertyOp30
 70
     1
102
RTVSPropertyOp31
 70
     1
102
RTVSPropertyOp32
 70
     1
102
RTVSPropertyOp33
 70
     1
102
RTVSPropertyOp34
 70
     1
102
RTVSPropertyOp35
 70
     1
102
RTVSPropertyOp36
 70
     1
102
RTVSPropertyOp37
 70
     1
102
RTVSPropertyOp38
 70
     1
102
RTVSPropertyOp39
 70
     1
102
RTVSPropertyOp40
 70
     1
102
RTVSPropertyOp41
 70
     1
102
RTVSPropertyOp42
 70
     1
102
RTVSPropertyOp43
 70
     1
102
RTVSPropertyOp44
 70
     1
102
RTVSPropertyOp45
 70
     1
102
RTVSPropertyOp46
 70
     1
102
RTVSPropertyOp47
 70
     1
102
RTVSPropertyOp48
 70
     1
102
RTVSPropertyOp49
 70
     1
102
RTVSPropertyOp50
 70
     1
102
RTVSPropertyOp51
 70
     0
102
RTVSPropertyOp52
 70
     0
102
RTVSPropertyOp53
 70
     1
102
RTVSPropertyOp54
 70
     1
102
RTVSPropertyOp55
 70
     1
102
RTVSPropertyOp56
 70
     1
102
RTVSPropertyOp57
 70
     1
102
RTVSPropertyOp58
 70
     1
102
RTVSPropertyOp59
 70
     1
102
RTVSPropertyOp60
 70
     1
102
RTVSPropertyOp61
 70
     1
102
RTVSPropertyOp62
 70
     1
  0
XRECORD
  5
552
102
{ACAD_REACTORS
330
551
102
}
330
551
100
AcDbXrecord
280
     1
102
RTVSPost2010Prop28
280
     0
102
RTVSPost2010PropOp28
 70
     1
102
RTVSPost2010Prop29
280
     1
102
RTVSPost2010PropOp29
 70
     1
102
RTVSPost2010Prop30
280
     1
102
RTVSPost2010PropOp30
 70
     1
102
RTVSPost2010Prop31
280
     0
102
RTVSPost2010PropOp31
 70
     1
102
RTVSPost2010Prop32
280
     0
102
RTVSPost2010PropOp32
 70
     1
102
RTVSPost2010Prop33
280
     0
102
RTVSPost2010PropOp33
 70
     1
102
RTVSPost2010Prop34
280
     0
102
RTVSPost2010PropOp34
 70
     1
102
RTVSPost2010Prop35
280
     0
102
RTVSPost2010PropOp35
 70
     1
102
RTVSPost2010Prop36
280
     0
102
RTVSPost2010PropOp36
 70
     1
102
RTVSPost2010Prop37
 90
       50
102
RTVSPost2010PropOp37
 70
     1
102
RTVSPost2010Prop38
140
0.0
102
RTVSPost2010PropOp38
 70
     1
102
RTVSPost2010Prop39
140
1.0
102
RTVSPost2010PropOp39
 70
     1
102
RTVSPost2010Prop40
 90
        0
102
RTVSPost2010PropOp40
 70
     1
102
RTVSPost2010Prop41ColorIndex
 90
       18
102
RTVSPost2010Prop41ColorRGB
 90
        0
102
RTVSPost2010PropOp41
 70
     1
102
RTVSPost2010Prop42
 90
       50
102
RTVSPost2010PropOp42
 70
     1
102
RTVSPost2010Prop43
 90
        3
102
RTVSPost2010PropOp43
 70
     1
102
RTVSPost2010Prop44ColorIndex
 90
        5
102
RTVSPost2010Prop44ColorRGB
 90
      255
102
RTVSPost2010PropOp44
 70
     1
102
RTVSPost2010Prop45
280
     0
102
RTVSPost2010PropOp45
 70
     1
102
RTVSPost2010Prop46
 90
       50
102
RTVSPost2010PropOp46
 70
     1
102
RTVSPost2010Prop47
 90
       50
102
RTVSPost2010PropOp47
 70
     1
102
RTVSPost2010Prop48
 90
       50
102
RTVSPost2010PropOp48
 70
     1
102
RTVSPost2010Prop49
280
     0
102
RTVSPost2010PropOp49
 70
     1
102
RTVSPost2010Prop50
 90
       50
102
RTVSPost2010PropOp50
 70
     1
102
RTVSPost2010Prop51ColorIndex
 90
      256
102
RTVSPost2010Prop51ColorRGB
 90
-16777216
102
RTVSPost2010PropOp51
 70
     0
102
RTVSPost2010Prop52
140
1.0
102
RTVSPost2010PropOp52
 70
     0
102
RTVSPost2010Prop53
 90
        2
102
RTVSPost2010PropOp53
 70
     1
102
RTVSPost2010Prop54
  1
strokes_ogs.tif
102
RTVSPost2010PropOp54
 70
     1
102
RTVSPost2010Prop55
280
     0
102
RTVSPost2010PropOp55
 70
     1
102
RTVSPost2010Prop56
140
1.0
102
RTVSPost2010PropOp56
 70
     1
102
RTVSPost2010Prop57
140
1.0
102
RTVSPost2010PropOp57
 70
     1
102
RTVSPropertyOp0
 70
     1
102
RTVSPropertyOp1
 70
     1
102
RTVSPropertyOp2
 70
     1
102
RTVSPropertyOp3
 70
     1
102
RTVSPropertyOp4
 70
     1
102
RTVSPropertyOp5
 70
     1
102
RTVSPropertyOp6
 70
     1
102
RTVSPropertyOp7
 70
     1
102
RTVSPropertyOp8
 70
     1
102
RTVSPropertyOp9
 70
     1
102
RTVSPropertyOp10
 70
     1
102
RTVSPropertyOp11
 70
     1
102
RTVSPropertyOp12
 70
     1
102
RTVSPropertyOp13
 70
     1
102
RTVSPropertyOp14
 70
     1
102
RTVSPropertyOp15
 70
     1
102
RTVSPropertyOp16
 70
     1
102
RTVSPropertyOp17
 70
     1
102
RTVSPropertyOp18
 70
     1
102
RTVSPropertyOp19
 70
     1
102
RTVSPropertyOp20
 70
     1
102
RTVSPropertyOp21
 70
     1
102
RTVSPropertyOp22
 70
     1
102
RTVSPropertyOp23
 70
     1
102
RTVSPropertyOp24
 70
     1
102
RTVSPropertyOp25
 70
     1
102
RTVSPropertyOp26
 70
     1
102
RTVSPropertyOp27
 70
     1
102
RTVSPropertyOp28
 70
     1
102
RTVSPropertyOp29
 70
     1
102
RTVSPropertyOp30
 70
     1
102
RTVSPropertyOp31
 70
     1
102
RTVSPropertyOp32
 70
     1
102
RTVSPropertyOp33
 70
     1
102
RTVSPropertyOp34
 70
     1
102
RTVSPropertyOp35
 70
     1
102
RTVSPropertyOp36
 70
     1
102
RTVSPropertyOp37
 70
     1
102
RTVSPropertyOp38
 70
     1
102
RTVSPropertyOp39
 70
     1
102
RTVSPropertyOp40
 70
     1
102
RTVSPropertyOp41
 70
     1
102
RTVSPropertyOp42
 70
     1
102
RTVSPropertyOp43
 70
     1
102
RTVSPropertyOp44
 70
     1
102
RTVSPropertyOp45
 70
     1
102
RTVSPropertyOp46
 70
     1
102
RTVSPropertyOp47
 70
     1
102
RTVSPropertyOp48
 70
     1
102
RTVSPropertyOp49
 70
     1
102
RTVSPropertyOp50
 70
     1
102
RTVSPropertyOp51
 70
     0
102
RTVSPropertyOp52
 70
     0
102
RTVSPropertyOp53
 70
     1
102
RTVSPropertyOp54
 70
     1
102
RTVSPropertyOp55
 70
     1
102
RTVSPropertyOp56
 70
     1
102
RTVSPropertyOp57
 70
     1
102
RTVSPropertyOp58
 70
     1
102
RTVSPropertyOp59
 70
     1
102
RTVSPropertyOp60
 70
     1
102
RTVSPropertyOp61
 70
     1
102
RTVSPropertyOp62
 70
     1
  0
XRECORD
  5
544
102
{ACAD_REACTORS
330
543
102
}
330
543
100
AcDbXrecord
280
     1
102
RTVSPost2010Prop28
280
     0
102
RTVSPost2010PropOp28
 70
     1
102
RTVSPost2010Prop29
280
     1
102
RTVSPost2010PropOp29
 70
     1
102
RTVSPost2010Prop30
280
     1
102
RTVSPost2010PropOp30
 70
     1
102
RTVSPost2010Prop31
280
     0
102
RTVSPost2010PropOp31
 70
     1
102
RTVSPost2010Prop32
280
     0
102
RTVSPost2010PropOp32
 70
     1
102
RTVSPost2010Prop33
280
     0
102
RTVSPost2010PropOp33
 70
     1
102
RTVSPost2010Prop34
280
     0
102
RTVSPost2010PropOp34
 70
     1
102
RTVSPost2010Prop35
280
     0
102
RTVSPost2010PropOp35
 70
     1
102
RTVSPost2010Prop36
280
     0
102
RTVSPost2010PropOp36
 70
     1
102
RTVSPost2010Prop37
 90
       50
102
RTVSPost2010PropOp37
 70
     1
102
RTVSPost2010Prop38
140
0.0
102
RTVSPost2010PropOp38
 70
     1
102
RTVSPost2010Prop39
140
1.0
102
RTVSPost2010PropOp39
 70
     1
102
RTVSPost2010Prop40
 90
        0
102
RTVSPost2010PropOp40
 70
     1
102
RTVSPost2010Prop41ColorIndex
 90
       18
102
RTVSPost2010Prop41ColorRGB
 90
        0
102
RTVSPost2010PropOp41
 70
     1
102
RTVSPost2010Prop42
 90
       50
102
RTVSPost2010PropOp42
 70
     1
102
RTVSPost2010Prop43
 90
        3
102
RTVSPost2010PropOp43
 70
     1
102
RTVSPost2010Prop44ColorIndex
 90
        5
102
RTVSPost2010Prop44ColorRGB
 90
      255
102
RTVSPost2010PropOp44
 70
     1
102
RTVSPost2010Prop45
280
     0
102
RTVSPost2010PropOp45
 70
     1
102
RTVSPost2010Prop46
 90
       50
102
RTVSPost2010PropOp46
 70
     1
102
RTVSPost2010Prop47
 90
       50
102
RTVSPost2010PropOp47
 70
     1
102
RTVSPost2010Prop48
 90
       50
102
RTVSPost2010PropOp48
 70
     1
102
RTVSPost2010Prop49
280
     0
102
RTVSPost2010PropOp49
 70
     1
102
RTVSPost2010Prop50
 90
       50
102
RTVSPost2010PropOp50
 70
     1
102
RTVSPost2010Prop51ColorIndex
 90
      256
102
RTVSPost2010Prop51ColorRGB
 90
-16777216
102
RTVSPost2010PropOp51
 70
     0
102
RTVSPost2010Prop52
140
1.0
102
RTVSPost2010PropOp52
 70
     0
102
RTVSPost2010Prop53
 90
        2
102
RTVSPost2010PropOp53
 70
     1
102
RTVSPost2010Prop54
  1
strokes_ogs.tif
102
RTVSPost2010PropOp54
 70
     1
102
RTVSPost2010Prop55
280
     0
102
RTVSPost2010PropOp55
 70
     1
102
RTVSPost2010Prop56
140
1.0
102
RTVSPost2010PropOp56
 70
     1
102
RTVSPost2010Prop57
140
1.0
102
RTVSPost2010PropOp57
 70
     1
102
RTVSPropertyOp0
 70
     1
102
RTVSPropertyOp1
 70
     1
102
RTVSPropertyOp2
 70
     1
102
RTVSPropertyOp3
 70
     1
102
RTVSPropertyOp4
 70
     1
102
RTVSPropertyOp5
 70
     1
102
RTVSPropertyOp6
 70
     1
102
RTVSPropertyOp7
 70
     1
102
RTVSPropertyOp8
 70
     1
102
RTVSPropertyOp9
 70
     1
102
RTVSPropertyOp10
 70
     1
102
RTVSPropertyOp11
 70
     1
102
RTVSPropertyOp12
 70
     1
102
RTVSPropertyOp13
 70
     1
102
RTVSPropertyOp14
 70
     1
102
RTVSPropertyOp15
 70
     1
102
RTVSPropertyOp16
 70
     1
102
RTVSPropertyOp17
 70
     1
102
RTVSPropertyOp18
 70
     1
102
RTVSPropertyOp19
 70
     1
102
RTVSPropertyOp20
 70
     1
102
RTVSPropertyOp21
 70
     1
102
RTVSPropertyOp22
 70
     1
102
RTVSPropertyOp23
 70
     1
102
RTVSPropertyOp24
 70
     1
102
RTVSPropertyOp25
 70
     1
102
RTVSPropertyOp26
 70
     1
102
RTVSPropertyOp27
 70
     1
102
RTVSPropertyOp28
 70
     1
102
RTVSPropertyOp29
 70
     1
102
RTVSPropertyOp30
 70
     1
102
RTVSPropertyOp31
 70
     1
102
RTVSPropertyOp32
 70
     1
102
RTVSPropertyOp33
 70
     1
102
RTVSPropertyOp34
 70
     1
102
RTVSPropertyOp35
 70
     1
102
RTVSPropertyOp36
 70
     1
102
RTVSPropertyOp37
 70
     1
102
RTVSPropertyOp38
 70
     1
102
RTVSPropertyOp39
 70
     1
102
RTVSPropertyOp40
 70
     1
102
RTVSPropertyOp41
 70
     1
102
RTVSPropertyOp42
 70
     1
102
RTVSPropertyOp43
 70
     1
102
RTVSPropertyOp44
 70
     1
102
RTVSPropertyOp45
 70
     1
102
RTVSPropertyOp46
 70
     1
102
RTVSPropertyOp47
 70
     1
102
RTVSPropertyOp48
 70
     1
102
RTVSPropertyOp49
 70
     1
102
RTVSPropertyOp50
 70
     1
102
RTVSPropertyOp51
 70
     0
102
RTVSPropertyOp52
 70
     0
102
RTVSPropertyOp53
 70
     1
102
RTVSPropertyOp54
 70
     1
102
RTVSPropertyOp55
 70
     1
102
RTVSPropertyOp56
 70
     1
102
RTVSPropertyOp57
 70
     1
102
RTVSPropertyOp58
 70
     1
102
RTVSPropertyOp59
 70
     1
102
RTVSPropertyOp60
 70
     1
102
RTVSPropertyOp61
 70
     1
102
RTVSPropertyOp62
 70
     1
  0
XRECORD
  5
548
102
{ACAD_REACTORS
330
547
102
}
330
547
100
AcDbXrecord
280
     1
102
RTVSPost2010Prop28
280
     0
102
RTVSPost2010PropOp28
 70
     1
102
RTVSPost2010Prop29
280
     1
102
RTVSPost2010PropOp29
 70
     1
102
RTVSPost2010Prop30
280
     1
102
RTVSPost2010PropOp30
 70
     1
102
RTVSPost2010Prop31
280
     0
102
RTVSPost2010PropOp31
 70
     1
102
RTVSPost2010Prop32
280
     0
102
RTVSPost2010PropOp32
 70
     1
102
RTVSPost2010Prop33
280
     0
102
RTVSPost2010PropOp33
 70
     1
102
RTVSPost2010Prop34
280
     0
102
RTVSPost2010PropOp34
 70
     1
102
RTVSPost2010Prop35
280
     0
102
RTVSPost2010PropOp35
 70
     1
102
RTVSPost2010Prop36
280
     0
102
RTVSPost2010PropOp36
 70
     1
102
RTVSPost2010Prop37
 90
       50
102
RTVSPost2010PropOp37
 70
     1
102
RTVSPost2010Prop38
140
0.0
102
RTVSPost2010PropOp38
 70
     1
102
RTVSPost2010Prop39
140
1.0
102
RTVSPost2010PropOp39
 70
     1
102
RTVSPost2010Prop40
 90
        0
102
RTVSPost2010PropOp40
 70
     1
102
RTVSPost2010Prop41ColorIndex
 90
       18
102
RTVSPost2010Prop41ColorRGB
 90
        0
102
RTVSPost2010PropOp41
 70
     1
102
RTVSPost2010Prop42
 90
       50
102
RTVSPost2010PropOp42
 70
     1
102
RTVSPost2010Prop43
 90
        3
102
RTVSPost2010PropOp43
 70
     1
102
RTVSPost2010Prop44ColorIndex
 90
        5
102
RTVSPost2010Prop44ColorRGB
 90
      255
102
RTVSPost2010PropOp44
 70
     1
102
RTVSPost2010Prop45
280
     0
102
RTVSPost2010PropOp45
 70
     1
102
RTVSPost2010Prop46
 90
       50
102
RTVSPost2010PropOp46
 70
     1
102
RTVSPost2010Prop47
 90
       50
102
RTVSPost2010PropOp47
 70
     1
102
RTVSPost2010Prop48
 90
       50
102
RTVSPost2010PropOp48
 70
     1
102
RTVSPost2010Prop49
280
     0
102
RTVSPost2010PropOp49
 70
     1
102
RTVSPost2010Prop50
 90
       50
102
RTVSPost2010PropOp50
 70
     1
102
RTVSPost2010Prop51ColorIndex
 90
      256
102
RTVSPost2010Prop51ColorRGB
 90
-16777216
102
RTVSPost2010PropOp51
 70
     0
102
RTVSPost2010Prop52
140
1.0
102
RTVSPost2010PropOp52
 70
     0
102
RTVSPost2010Prop53
 90
        2
102
RTVSPost2010PropOp53
 70
     1
102
RTVSPost2010Prop54
  1
strokes_ogs.tif
102
RTVSPost2010PropOp54
 70
     1
102
RTVSPost2010Prop55
280
     0
102
RTVSPost2010PropOp55
 70
     1
102
RTVSPost2010Prop56
140
1.0
102
RTVSPost2010PropOp56
 70
     1
102
RTVSPost2010Prop57
140
1.0
102
RTVSPost2010PropOp57
 70
     1
102
RTVSPropertyOp0
 70
     1
102
RTVSPropertyOp1
 70
     1
102
RTVSPropertyOp2
 70
     1
102
RTVSPropertyOp3
 70
     1
102
RTVSPropertyOp4
 70
     1
102
RTVSPropertyOp5
 70
     1
102
RTVSPropertyOp6
 70
     1
102
RTVSPropertyOp7
 70
     1
102
RTVSPropertyOp8
 70
     1
102
RTVSPropertyOp9
 70
     1
102
RTVSPropertyOp10
 70
     1
102
RTVSPropertyOp11
 70
     1
102
RTVSPropertyOp12
 70
     1
102
RTVSPropertyOp13
 70
     1
102
RTVSPropertyOp14
 70
     1
102
RTVSPropertyOp15
 70
     1
102
RTVSPropertyOp16
 70
     1
102
RTVSPropertyOp17
 70
     1
102
RTVSPropertyOp18
 70
     1
102
RTVSPropertyOp19
 70
     1
102
RTVSPropertyOp20
 70
     1
102
RTVSPropertyOp21
 70
     1
102
RTVSPropertyOp22
 70
     1
102
RTVSPropertyOp23
 70
     1
102
RTVSPropertyOp24
 70
     1
102
RTVSPropertyOp25
 70
     1
102
RTVSPropertyOp26
 70
     1
102
RTVSPropertyOp27
 70
     1
102
RTVSPropertyOp28
 70
     1
102
RTVSPropertyOp29
 70
     1
102
RTVSPropertyOp30
 70
     1
102
RTVSPropertyOp31
 70
     1
102
RTVSPropertyOp32
 70
     1
102
RTVSPropertyOp33
 70
     1
102
RTVSPropertyOp34
 70
     1
102
RTVSPropertyOp35
 70
     1
102
RTVSPropertyOp36
 70
     1
102
RTVSPropertyOp37
 70
     1
102
RTVSPropertyOp38
 70
     1
102
RTVSPropertyOp39
 70
     1
102
RTVSPropertyOp40
 70
     1
102
RTVSPropertyOp41
 70
     1
102
RTVSPropertyOp42
 70
     1
102
RTVSPropertyOp43
 70
     1
102
RTVSPropertyOp44
 70
     1
102
RTVSPropertyOp45
 70
     1
102
RTVSPropertyOp46
 70
     1
102
RTVSPropertyOp47
 70
     1
102
RTVSPropertyOp48
 70
     1
102
RTVSPropertyOp49
 70
     1
102
RTVSPropertyOp50
 70
     1
102
RTVSPropertyOp51
 70
     0
102
RTVSPropertyOp52
 70
     0
102
RTVSPropertyOp53
 70
     1
102
RTVSPropertyOp54
 70
     1
102
RTVSPropertyOp55
 70
     1
102
RTVSPropertyOp56
 70
     1
102
RTVSPropertyOp57
 70
     1
102
RTVSPropertyOp58
 70
     1
102
RTVSPropertyOp59
 70
     1
102
RTVSPropertyOp60
 70
     1
102
RTVSPropertyOp61
 70
     1
102
RTVSPropertyOp62
 70
     1
  0
XRECORD
  5
562
102
{ACAD_REACTORS
330
561
102
}
330
561
100
AcDbXrecord
280
     1
102
RTVSPost2010Prop28
280
     0
102
RTVSPost2010PropOp28
 70
     1
102
RTVSPost2010Prop29
280
     1
102
RTVSPost2010PropOp29
 70
     1
102
RTVSPost2010Prop30
280
     1
102
RTVSPost2010PropOp30
 70
     1
102
RTVSPost2010Prop31
280
     0
102
RTVSPost2010PropOp31
 70
     1
102
RTVSPost2010Prop32
280
     0
102
RTVSPost2010PropOp32
 70
     1
102
RTVSPost2010Prop33
280
     0
102
RTVSPost2010PropOp33
 70
     1
102
RTVSPost2010Prop34
280
     0
102
RTVSPost2010PropOp34
 70
     1
102
RTVSPost2010Prop35
280
     0
102
RTVSPost2010PropOp35
 70
     1
102
RTVSPost2010Prop36
280
     0
102
RTVSPost2010PropOp36
 70
     1
102
RTVSPost2010Prop37
 90
       50
102
RTVSPost2010PropOp37
 70
     0
102
RTVSPost2010Prop38
140
0.0
102
RTVSPost2010PropOp38
 70
     0
102
RTVSPost2010Prop39
140
1.0
102
RTVSPost2010PropOp39
 70
     0
102
RTVSPost2010Prop40
 90
        0
102
RTVSPost2010PropOp40
 70
     0
102
RTVSPost2010Prop41ColorIndex
 90
       18
102
RTVSPost2010Prop41ColorRGB
 90
        0
102
RTVSPost2010PropOp41
 70
     0
102
RTVSPost2010Prop42
 90
       50
102
RTVSPost2010PropOp42
 70
     0
102
RTVSPost2010Prop43
 90
        3
102
RTVSPost2010PropOp43
 70
     0
102
RTVSPost2010Prop44ColorIndex
 90
        5
102
RTVSPost2010Prop44ColorRGB
 90
      255
102
RTVSPost2010PropOp44
 70
     0
102
RTVSPost2010Prop45
280
     0
102
RTVSPost2010PropOp45
 70
     1
102
RTVSPost2010Prop46
 90
       50
102
RTVSPost2010PropOp46
 70
     0
102
RTVSPost2010Prop47
 90
       50
102
RTVSPost2010PropOp47
 70
     0
102
RTVSPost2010Prop48
 90
       50
102
RTVSPost2010PropOp48
 70
     0
102
RTVSPost2010Prop49
280
     0
102
RTVSPost2010PropOp49
 70
     1
102
RTVSPost2010Prop50
 90
       50
102
RTVSPost2010PropOp50
 70
     0
102
RTVSPost2010Prop51ColorIndex
 90
      256
102
RTVSPost2010Prop51ColorRGB
 90
-16777216
102
RTVSPost2010PropOp51
 70
     0
102
RTVSPost2010Prop52
140
1.0
102
RTVSPost2010PropOp52
 70
     0
102
RTVSPost2010Prop53
 90
        2
102
RTVSPost2010PropOp53
 70
     0
102
RTVSPost2010Prop54
  1
strokes_ogs.tif
102
RTVSPost2010PropOp54
 70
     0
102
RTVSPost2010Prop55
280
     0
102
RTVSPost2010PropOp55
 70
     1
102
RTVSPost2010Prop56
140
1.0
102
RTVSPost2010PropOp56
 70
     0
102
RTVSPost2010Prop57
140
1.0
102
RTVSPost2010PropOp57
 70
     0
102
RTVSPropertyOp0
 70
     0
102
RTVSPropertyOp1
 70
     0
102
RTVSPropertyOp2
 70
     0
102
RTVSPropertyOp3
 70
     0
102
RTVSPropertyOp4
 70
     0
102
RTVSPropertyOp5
 70
     0
102
RTVSPropertyOp6
 70
     0
102
RTVSPropertyOp7
 70
     0
102
RTVSPropertyOp8
 70
     0
102
RTVSPropertyOp9
 70
     0
102
RTVSPropertyOp10
 70
     0
102
RTVSPropertyOp11
 70
     0
102
RTVSPropertyOp12
 70
     0
102
RTVSPropertyOp13
 70
     0
102
RTVSPropertyOp14
 70
     2
102
RTVSPropertyOp15
 70
     0
102
RTVSPropertyOp16
 70
     0
102
RTVSPropertyOp17
 70
     0
102
RTVSPropertyOp18
 70
     0
102
RTVSPropertyOp19
 70
     0
102
RTVSPropertyOp20
 70
     0
102
RTVSPropertyOp21
 70
     0
102
RTVSPropertyOp22
 70
     0
102
RTVSPropertyOp23
 70
     0
102
RTVSPropertyOp24
 70
     0
102
RTVSPropertyOp25
 70
     0
102
RTVSPropertyOp26
 70
     0
102
RTVSPropertyOp27
 70
     0
102
RTVSPropertyOp28
 70
     1
102
RTVSPropertyOp29
 70
     1
102
RTVSPropertyOp30
 70
     1
102
RTVSPropertyOp31
 70
     1
102
RTVSPropertyOp32
 70
     1
102
RTVSPropertyOp33
 70
     1
102
RTVSPropertyOp34
 70
     1
102
RTVSPropertyOp35
 70
     1
102
RTVSPropertyOp36
 70
     1
102
RTVSPropertyOp37
 70
     0
102
RTVSPropertyOp38
 70
     0
102
RTVSPropertyOp39
 70
     0
102
RTVSPropertyOp40
 70
     0
102
RTVSPropertyOp41
 70
     0
102
RTVSPropertyOp42
 70
     0
102
RTVSPropertyOp43
 70
     0
102
RTVSPropertyOp44
 70
     0
102
RTVSPropertyOp45
 70
     1
102
RTVSPropertyOp46
 70
     0
102
RTVSPropertyOp47
 70
     0
102
RTVSPropertyOp48
 70
     0
102
RTVSPropertyOp49
 70
     1
102
RTVSPropertyOp50
 70
     0
102
RTVSPropertyOp51
 70
     0
102
RTVSPropertyOp52
 70
     0
102
RTVSPropertyOp53
 70
     0
102
RTVSPropertyOp54
 70
     0
102
RTVSPropertyOp55
 70
     1
102
RTVSPropertyOp56
 70
     0
102
RTVSPropertyOp57
 70
     0
102
RTVSPropertyOp58
 70
     0
102
RTVSPropertyOp59
 70
     0
102
RTVSPropertyOp60
 70
     0
102
RTVSPropertyOp61
 70
     0
102
RTVSPropertyOp62
 70
     0
  0
XRECORD
  5
550
102
{ACAD_REACTORS
330
54F
102
}
330
54F
100
AcDbXrecord
280
     1
102
RTVSPost2010Prop28
280
     0
102
RTVSPost2010PropOp28
 70
     1
102
RTVSPost2010Prop29
280
     1
102
RTVSPost2010PropOp29
 70
     1
102
RTVSPost2010Prop30
280
     1
102
RTVSPost2010PropOp30
 70
     1
102
RTVSPost2010Prop31
280
     0
102
RTVSPost2010PropOp31
 70
     1
102
RTVSPost2010Prop32
280
     0
102
RTVSPost2010PropOp32
 70
     1
102
RTVSPost2010Prop33
280
     0
102
RTVSPost2010PropOp33
 70
     1
102
RTVSPost2010Prop34
280
     0
102
RTVSPost2010PropOp34
 70
     1
102
RTVSPost2010Prop35
280
     0
102
RTVSPost2010PropOp35
 70
     1
102
RTVSPost2010Prop36
280
     0
102
RTVSPost2010PropOp36
 70
     1
102
RTVSPost2010Prop37
 90
       50
102
RTVSPost2010PropOp37
 70
     1
102
RTVSPost2010Prop38
140
0.0
102
RTVSPost2010PropOp38
 70
     1
102
RTVSPost2010Prop39
140
1.0
102
RTVSPost2010PropOp39
 70
     1
102
RTVSPost2010Prop40
 90
        0
102
RTVSPost2010PropOp40
 70
     1
102
RTVSPost2010Prop41ColorIndex
 90
       18
102
RTVSPost2010Prop41ColorRGB
 90
        0
102
RTVSPost2010PropOp41
 70
     1
102
RTVSPost2010Prop42
 90
       50
102
RTVSPost2010PropOp42
 70
     1
102
RTVSPost2010Prop43
 90
        3
102
RTVSPost2010PropOp43
 70
     1
102
RTVSPost2010Prop44ColorIndex
 90
        5
102
RTVSPost2010Prop44ColorRGB
 90
      255
102
RTVSPost2010PropOp44
 70
     1
102
RTVSPost2010Prop45
280
     0
102
RTVSPost2010PropOp45
 70
     1
102
RTVSPost2010Prop46
 90
       50
102
RTVSPost2010PropOp46
 70
     1
102
RTVSPost2010Prop47
 90
       50
102
RTVSPost2010PropOp47
 70
     1
102
RTVSPost2010Prop48
 90
       50
102
RTVSPost2010PropOp48
 70
     1
102
RTVSPost2010Prop49
280
     0
102
RTVSPost2010PropOp49
 70
     1
102
RTVSPost2010Prop50
 90
       50
102
RTVSPost2010PropOp50
 70
     1
102
RTVSPost2010Prop51ColorIndex
 90
      256
102
RTVSPost2010Prop51ColorRGB
 90
-16777216
102
RTVSPost2010PropOp51
 70
     0
102
RTVSPost2010Prop52
140
1.0
102
RTVSPost2010PropOp52
 70
     0
102
RTVSPost2010Prop53
 90
        2
102
RTVSPost2010PropOp53
 70
     1
102
RTVSPost2010Prop54
  1
strokes_ogs.tif
102
RTVSPost2010PropOp54
 70
     1
102
RTVSPost2010Prop55
280
     0
102
RTVSPost2010PropOp55
 70
     1
102
RTVSPost2010Prop56
140
1.0
102
RTVSPost2010PropOp56
 70
     1
102
RTVSPost2010Prop57
140
1.0
102
RTVSPost2010PropOp57
 70
     1
102
RTVSPropertyOp0
 70
     1
102
RTVSPropertyOp1
 70
     1
102
RTVSPropertyOp2
 70
     1
102
RTVSPropertyOp3
 70
     1
102
RTVSPropertyOp4
 70
     1
102
RTVSPropertyOp5
 70
     1
102
RTVSPropertyOp6
 70
     1
102
RTVSPropertyOp7
 70
     1
102
RTVSPropertyOp8
 70
     1
102
RTVSPropertyOp9
 70
     1
102
RTVSPropertyOp10
 70
     1
102
RTVSPropertyOp11
 70
     1
102
RTVSPropertyOp12
 70
     1
102
RTVSPropertyOp13
 70
     1
102
RTVSPropertyOp14
 70
     1
102
RTVSPropertyOp15
 70
     1
102
RTVSPropertyOp16
 70
     1
102
RTVSPropertyOp17
 70
     1
102
RTVSPropertyOp18
 70
     1
102
RTVSPropertyOp19
 70
     1
102
RTVSPropertyOp20
 70
     1
102
RTVSPropertyOp21
 70
     1
102
RTVSPropertyOp22
 70
     1
102
RTVSPropertyOp23
 70
     1
102
RTVSPropertyOp24
 70
     1
102
RTVSPropertyOp25
 70
     1
102
RTVSPropertyOp26
 70
     1
102
RTVSPropertyOp27
 70
     1
102
RTVSPropertyOp28
 70
     1
102
RTVSPropertyOp29
 70
     1
102
RTVSPropertyOp30
 70
     1
102
RTVSPropertyOp31
 70
     1
102
RTVSPropertyOp32
 70
     1
102
RTVSPropertyOp33
 70
     1
102
RTVSPropertyOp34
 70
     1
102
RTVSPropertyOp35
 70
     1
102
RTVSPropertyOp36
 70
     1
102
RTVSPropertyOp37
 70
     1
102
RTVSPropertyOp38
 70
     1
102
RTVSPropertyOp39
 70
     1
102
RTVSPropertyOp40
 70
     1
102
RTVSPropertyOp41
 70
     1
102
RTVSPropertyOp42
 70
     1
102
RTVSPropertyOp43
 70
     1
102
RTVSPropertyOp44
 70
     1
102
RTVSPropertyOp45
 70
     1
102
RTVSPropertyOp46
 70
     1
102
RTVSPropertyOp47
 70
     1
102
RTVSPropertyOp48
 70
     1
102
RTVSPropertyOp49
 70
     1
102
RTVSPropertyOp50
 70
     1
102
RTVSPropertyOp51
 70
     0
102
RTVSPropertyOp52
 70
     0
102
RTVSPropertyOp53
 70
     1
102
RTVSPropertyOp54
 70
     1
102
RTVSPropertyOp55
 70
     1
102
RTVSPropertyOp56
 70
     1
102
RTVSPropertyOp57
 70
     1
102
RTVSPropertyOp58
 70
     1
102
RTVSPropertyOp59
 70
     1
102
RTVSPropertyOp60
 70
     1
102
RTVSPropertyOp61
 70
     1
102
RTVSPropertyOp62
 70
     1
  0
XRECORD
  5
534
102
{ACAD_REACTORS
330
533
102
}
330
533
100
AcDbXrecord
280
     1
102
RTVSPost2010Prop28
280
     0
102
RTVSPost2010PropOp28
 70
     1
102
RTVSPost2010Prop29
280
     1
102
RTVSPost2010PropOp29
 70
     1
102
RTVSPost2010Prop30
280
     1
102
RTVSPost2010PropOp30
 70
     1
102
RTVSPost2010Prop31
280
     0
102
RTVSPost2010PropOp31
 70
     1
102
RTVSPost2010Prop32
280
     0
102
RTVSPost2010PropOp32
 70
     1
102
RTVSPost2010Prop33
280
     0
102
RTVSPost2010PropOp33
 70
     1
102
RTVSPost2010Prop34
280
     0
102
RTVSPost2010PropOp34
 70
     1
102
RTVSPost2010Prop35
280
     0
102
RTVSPost2010PropOp35
 70
     1
102
RTVSPost2010Prop36
280
     0
102
RTVSPost2010PropOp36
 70
     1
102
RTVSPost2010Prop37
 90
       50
102
RTVSPost2010PropOp37
 70
     1
102
RTVSPost2010Prop38
140
0.0
102
RTVSPost2010PropOp38
 70
     1
102
RTVSPost2010Prop39
140
1.0
102
RTVSPost2010PropOp39
 70
     1
102
RTVSPost2010Prop40
 90
        0
102
RTVSPost2010PropOp40
 70
     1
102
RTVSPost2010Prop41ColorIndex
 90
       18
102
RTVSPost2010Prop41ColorRGB
 90
        0
102
RTVSPost2010PropOp41
 70
     1
102
RTVSPost2010Prop42
 90
       50
102
RTVSPost2010PropOp42
 70
     1
102
RTVSPost2010Prop43
 90
        3
102
RTVSPost2010PropOp43
 70
     1
102
RTVSPost2010Prop44ColorIndex
 90
        5
102
RTVSPost2010Prop44ColorRGB
 90
      255
102
RTVSPost2010PropOp44
 70
     1
102
RTVSPost2010Prop45
280
     0
102
RTVSPost2010PropOp45
 70
     1
102
RTVSPost2010Prop46
 90
       50
102
RTVSPost2010PropOp46
 70
     1
102
RTVSPost2010Prop47
 90
       50
102
RTVSPost2010PropOp47
 70
     1
102
RTVSPost2010Prop48
 90
       50
102
RTVSPost2010PropOp48
 70
     1
102
RTVSPost2010Prop49
280
     0
102
RTVSPost2010PropOp49
 70
     1
102
RTVSPost2010Prop50
 90
       50
102
RTVSPost2010PropOp50
 70
     1
102
RTVSPost2010Prop51ColorIndex
 90
      256
102
RTVSPost2010Prop51ColorRGB
 90
-16777216
102
RTVSPost2010PropOp51
 70
     0
102
RTVSPost2010Prop52
140
1.0
102
RTVSPost2010PropOp52
 70
     0
102
RTVSPost2010Prop53
 90
        2
102
RTVSPost2010PropOp53
 70
     1
102
RTVSPost2010Prop54
  1
strokes_ogs.tif
102
RTVSPost2010PropOp54
 70
     1
102
RTVSPost2010Prop55
280
     0
102
RTVSPost2010PropOp55
 70
     1
102
RTVSPost2010Prop56
140
1.0
102
RTVSPost2010PropOp56
 70
     1
102
RTVSPost2010Prop57
140
1.0
102
RTVSPost2010PropOp57
 70
     1
102
RTVSPropertyOp0
 70
     1
102
RTVSPropertyOp1
 70
     1
102
RTVSPropertyOp2
 70
     1
102
RTVSPropertyOp3
 70
     1
102
RTVSPropertyOp4
 70
     1
102
RTVSPropertyOp5
 70
     1
102
RTVSPropertyOp6
 70
     1
102
RTVSPropertyOp7
 70
     1
102
RTVSPropertyOp8
 70
     1
102
RTVSPropertyOp9
 70
     1
102
RTVSPropertyOp10
 70
     1
102
RTVSPropertyOp11
 70
     1
102
RTVSPropertyOp12
 70
     1
102
RTVSPropertyOp13
 70
     1
102
RTVSPropertyOp14
 70
     1
102
RTVSPropertyOp15
 70
     1
102
RTVSPropertyOp16
 70
     1
102
RTVSPropertyOp17
 70
     1
102
RTVSPropertyOp18
 70
     1
102
RTVSPropertyOp19
 70
     1
102
RTVSPropertyOp20
 70
     1
102
RTVSPropertyOp21
 70
     1
102
RTVSPropertyOp22
 70
     1
102
RTVSPropertyOp23
 70
     1
102
RTVSPropertyOp24
 70
     1
102
RTVSPropertyOp25
 70
     1
102
RTVSPropertyOp26
 70
     1
102
RTVSPropertyOp27
 70
     1
102
RTVSPropertyOp28
 70
     1
102
RTVSPropertyOp29
 70
     1
102
RTVSPropertyOp30
 70
     1
102
RTVSPropertyOp31
 70
     1
102
RTVSPropertyOp32
 70
     1
102
RTVSPropertyOp33
 70
     1
102
RTVSPropertyOp34
 70
     1
102
RTVSPropertyOp35
 70
     1
102
RTVSPropertyOp36
 70
     1
102
RTVSPropertyOp37
 70
     1
102
RTVSPropertyOp38
 70
     1
102
RTVSPropertyOp39
 70
     1
102
RTVSPropertyOp40
 70
     1
102
RTVSPropertyOp41
 70
     1
102
RTVSPropertyOp42
 70
     1
102
RTVSPropertyOp43
 70
     1
102
RTVSPropertyOp44
 70
     1
102
RTVSPropertyOp45
 70
     1
102
RTVSPropertyOp46
 70
     1
102
RTVSPropertyOp47
 70
     1
102
RTVSPropertyOp48
 70
     1
102
RTVSPropertyOp49
 70
     1
102
RTVSPropertyOp50
 70
     1
102
RTVSPropertyOp51
 70
     0
102
RTVSPropertyOp52
 70
     0
102
RTVSPropertyOp53
 70
     1
102
RTVSPropertyOp54
 70
     1
102
RTVSPropertyOp55
 70
     1
102
RTVSPropertyOp56
 70
     1
102
RTVSPropertyOp57
 70
     1
102
RTVSPropertyOp58
 70
     1
102
RTVSPropertyOp59
 70
     1
102
RTVSPropertyOp60
 70
     1
102
RTVSPropertyOp61
 70
     1
102
RTVSPropertyOp62
 70
     1
  0
XRECORD
  5
536
102
{ACAD_REACTORS
330
535
102
}
330
535
100
AcDbXrecord
280
     1
102
RTVSPost2010Prop28
280
     0
102
RTVSPost2010PropOp28
 70
     1
102
RTVSPost2010Prop29
280
     1
102
RTVSPost2010PropOp29
 70
     1
102
RTVSPost2010Prop30
280
     1
102
RTVSPost2010PropOp30
 70
     1
102
RTVSPost2010Prop31
280
     0
102
RTVSPost2010PropOp31
 70
     1
102
RTVSPost2010Prop32
280
     0
102
RTVSPost2010PropOp32
 70
     1
102
RTVSPost2010Prop33
280
     0
102
RTVSPost2010PropOp33
 70
     1
102
RTVSPost2010Prop34
280
     0
102
RTVSPost2010PropOp34
 70
     1
102
RTVSPost2010Prop35
280
     0
102
RTVSPost2010PropOp35
 70
     1
102
RTVSPost2010Prop36
280
     0
102
RTVSPost2010PropOp36
 70
     1
102
RTVSPost2010Prop37
 90
       50
102
RTVSPost2010PropOp37
 70
     1
102
RTVSPost2010Prop38
140
0.0
102
RTVSPost2010PropOp38
 70
     1
102
RTVSPost2010Prop39
140
1.0
102
RTVSPost2010PropOp39
 70
     1
102
RTVSPost2010Prop40
 90
        0
102
RTVSPost2010PropOp40
 70
     1
102
RTVSPost2010Prop41ColorIndex
 90
       18
102
RTVSPost2010Prop41ColorRGB
 90
        0
102
RTVSPost2010PropOp41
 70
     1
102
RTVSPost2010Prop42
 90
       50
102
RTVSPost2010PropOp42
 70
     1
102
RTVSPost2010Prop43
 90
        3
102
RTVSPost2010PropOp43
 70
     1
102
RTVSPost2010Prop44ColorIndex
 90
        5
102
RTVSPost2010Prop44ColorRGB
 90
      255
102
RTVSPost2010PropOp44
 70
     1
102
RTVSPost2010Prop45
280
     0
102
RTVSPost2010PropOp45
 70
     1
102
RTVSPost2010Prop46
 90
       50
102
RTVSPost2010PropOp46
 70
     1
102
RTVSPost2010Prop47
 90
       50
102
RTVSPost2010PropOp47
 70
     1
102
RTVSPost2010Prop48
 90
       50
102
RTVSPost2010PropOp48
 70
     1
102
RTVSPost2010Prop49
280
     0
102
RTVSPost2010PropOp49
 70
     1
102
RTVSPost2010Prop50
 90
       50
102
RTVSPost2010PropOp50
 70
     1
102
RTVSPost2010Prop51ColorIndex
 90
      256
102
RTVSPost2010Prop51ColorRGB
 90
-16777216
102
RTVSPost2010PropOp51
 70
     0
102
RTVSPost2010Prop52
140
1.0
102
RTVSPost2010PropOp52
 70
     0
102
RTVSPost2010Prop53
 90
        2
102
RTVSPost2010PropOp53
 70
     1
102
RTVSPost2010Prop54
  1
strokes_ogs.tif
102
RTVSPost2010PropOp54
 70
     1
102
RTVSPost2010Prop55
280
     0
102
RTVSPost2010PropOp55
 70
     1
102
RTVSPost2010Prop56
140
1.0
102
RTVSPost2010PropOp56
 70
     1
102
RTVSPost2010Prop57
140
1.0
102
RTVSPost2010PropOp57
 70
     1
102
RTVSPropertyOp0
 70
     1
102
RTVSPropertyOp1
 70
     1
102
RTVSPropertyOp2
 70
     1
102
RTVSPropertyOp3
 70
     1
102
RTVSPropertyOp4
 70
     1
102
RTVSPropertyOp5
 70
     1
102
RTVSPropertyOp6
 70
     1
102
RTVSPropertyOp7
 70
     1
102
RTVSPropertyOp8
 70
     1
102
RTVSPropertyOp9
 70
     1
102
RTVSPropertyOp10
 70
     1
102
RTVSPropertyOp11
 70
     1
102
RTVSPropertyOp12
 70
     1
102
RTVSPropertyOp13
 70
     1
102
RTVSPropertyOp14
 70
     1
102
RTVSPropertyOp15
 70
     1
102
RTVSPropertyOp16
 70
     1
102
RTVSPropertyOp17
 70
     1
102
RTVSPropertyOp18
 70
     1
102
RTVSPropertyOp19
 70
     1
102
RTVSPropertyOp20
 70
     1
102
RTVSPropertyOp21
 70
     1
102
RTVSPropertyOp22
 70
     1
102
RTVSPropertyOp23
 70
     1
102
RTVSPropertyOp24
 70
     1
102
RTVSPropertyOp25
 70
     1
102
RTVSPropertyOp26
 70
     1
102
RTVSPropertyOp27
 70
     1
102
RTVSPropertyOp28
 70
     1
102
RTVSPropertyOp29
 70
     1
102
RTVSPropertyOp30
 70
     1
102
RTVSPropertyOp31
 70
     1
102
RTVSPropertyOp32
 70
     1
102
RTVSPropertyOp33
 70
     1
102
RTVSPropertyOp34
 70
     1
102
RTVSPropertyOp35
 70
     1
102
RTVSPropertyOp36
 70
     1
102
RTVSPropertyOp37
 70
     1
102
RTVSPropertyOp38
 70
     1
102
RTVSPropertyOp39
 70
     1
102
RTVSPropertyOp40
 70
     1
102
RTVSPropertyOp41
 70
     1
102
RTVSPropertyOp42
 70
     1
102
RTVSPropertyOp43
 70
     1
102
RTVSPropertyOp44
 70
     1
102
RTVSPropertyOp45
 70
     1
102
RTVSPropertyOp46
 70
     1
102
RTVSPropertyOp47
 70
     1
102
RTVSPropertyOp48
 70
     1
102
RTVSPropertyOp49
 70
     1
102
RTVSPropertyOp50
 70
     1
102
RTVSPropertyOp51
 70
     0
102
RTVSPropertyOp52
 70
     0
102
RTVSPropertyOp53
 70
     1
102
RTVSPropertyOp54
 70
     1
102
RTVSPropertyOp55
 70
     1
102
RTVSPropertyOp56
 70
     1
102
RTVSPropertyOp57
 70
     1
102
RTVSPropertyOp58
 70
     1
102
RTVSPropertyOp59
 70
     1
102
RTVSPropertyOp60
 70
     1
102
RTVSPropertyOp61
 70
     1
102
RTVSPropertyOp62
 70
     1
  0
XRECORD
  5
538
102
{ACAD_REACTORS
330
537
102
}
330
537
100
AcDbXrecord
280
     1
102
RTVSPost2010Prop28
280
     0
102
RTVSPost2010PropOp28
 70
     1
102
RTVSPost2010Prop29
280
     1
102
RTVSPost2010PropOp29
 70
     1
102
RTVSPost2010Prop30
280
     1
102
RTVSPost2010PropOp30
 70
     1
102
RTVSPost2010Prop31
280
     0
102
RTVSPost2010PropOp31
 70
     1
102
RTVSPost2010Prop32
280
     0
102
RTVSPost2010PropOp32
 70
     1
102
RTVSPost2010Prop33
280
     0
102
RTVSPost2010PropOp33
 70
     1
102
RTVSPost2010Prop34
280
     0
102
RTVSPost2010PropOp34
 70
     1
102
RTVSPost2010Prop35
280
     0
102
RTVSPost2010PropOp35
 70
     1
102
RTVSPost2010Prop36
280
     0
102
RTVSPost2010PropOp36
 70
     1
102
RTVSPost2010Prop37
 90
       50
102
RTVSPost2010PropOp37
 70
     1
102
RTVSPost2010Prop38
140
0.0
102
RTVSPost2010PropOp38
 70
     1
102
RTVSPost2010Prop39
140
1.0
102
RTVSPost2010PropOp39
 70
     1
102
RTVSPost2010Prop40
 90
        0
102
RTVSPost2010PropOp40
 70
     1
102
RTVSPost2010Prop41ColorIndex
 90
       18
102
RTVSPost2010Prop41ColorRGB
 90
        0
102
RTVSPost2010PropOp41
 70
     1
102
RTVSPost2010Prop42
 90
       50
102
RTVSPost2010PropOp42
 70
     1
102
RTVSPost2010Prop43
 90
        3
102
RTVSPost2010PropOp43
 70
     1
102
RTVSPost2010Prop44ColorIndex
 90
        5
102
RTVSPost2010Prop44ColorRGB
 90
      255
102
RTVSPost2010PropOp44
 70
     1
102
RTVSPost2010Prop45
280
     0
102
RTVSPost2010PropOp45
 70
     1
102
RTVSPost2010Prop46
 90
       50
102
RTVSPost2010PropOp46
 70
     1
102
RTVSPost2010Prop47
 90
       50
102
RTVSPost2010PropOp47
 70
     1
102
RTVSPost2010Prop48
 90
       50
102
RTVSPost2010PropOp48
 70
     1
102
RTVSPost2010Prop49
280
     0
102
RTVSPost2010PropOp49
 70
     1
102
RTVSPost2010Prop50
 90
       50
102
RTVSPost2010PropOp50
 70
     1
102
RTVSPost2010Prop51ColorIndex
 90
      256
102
RTVSPost2010Prop51ColorRGB
 90
-16777216
102
RTVSPost2010PropOp51
 70
     0
102
RTVSPost2010Prop52
140
1.0
102
RTVSPost2010PropOp52
 70
     0
102
RTVSPost2010Prop53
 90
        2
102
RTVSPost2010PropOp53
 70
     1
102
RTVSPost2010Prop54
  1
strokes_ogs.tif
102
RTVSPost2010PropOp54
 70
     1
102
RTVSPost2010Prop55
280
     0
102
RTVSPost2010PropOp55
 70
     1
102
RTVSPost2010Prop56
140
1.0
102
RTVSPost2010PropOp56
 70
     1
102
RTVSPost2010Prop57
140
1.0
102
RTVSPost2010PropOp57
 70
     1
102
RTVSPropertyOp0
 70
     1
102
RTVSPropertyOp1
 70
     1
102
RTVSPropertyOp2
 70
     1
102
RTVSPropertyOp3
 70
     1
102
RTVSPropertyOp4
 70
     1
102
RTVSPropertyOp5
 70
     1
102
RTVSPropertyOp6
 70
     1
102
RTVSPropertyOp7
 70
     1
102
RTVSPropertyOp8
 70
     1
102
RTVSPropertyOp9
 70
     1
102
RTVSPropertyOp10
 70
     1
102
RTVSPropertyOp11
 70
     1
102
RTVSPropertyOp12
 70
     1
102
RTVSPropertyOp13
 70
     1
102
RTVSPropertyOp14
 70
     1
102
RTVSPropertyOp15
 70
     1
102
RTVSPropertyOp16
 70
     1
102
RTVSPropertyOp17
 70
     1
102
RTVSPropertyOp18
 70
     1
102
RTVSPropertyOp19
 70
     1
102
RTVSPropertyOp20
 70
     1
102
RTVSPropertyOp21
 70
     1
102
RTVSPropertyOp22
 70
     1
102
RTVSPropertyOp23
 70
     1
102
RTVSPropertyOp24
 70
     1
102
RTVSPropertyOp25
 70
     1
102
RTVSPropertyOp26
 70
     1
102
RTVSPropertyOp27
 70
     1
102
RTVSPropertyOp28
 70
     1
102
RTVSPropertyOp29
 70
     1
102
RTVSPropertyOp30
 70
     1
102
RTVSPropertyOp31
 70
     1
102
RTVSPropertyOp32
 70
     1
102
RTVSPropertyOp33
 70
     1
102
RTVSPropertyOp34
 70
     1
102
RTVSPropertyOp35
 70
     1
102
RTVSPropertyOp36
 70
     1
102
RTVSPropertyOp37
 70
     1
102
RTVSPropertyOp38
 70
     1
102
RTVSPropertyOp39
 70
     1
102
RTVSPropertyOp40
 70
     1
102
RTVSPropertyOp41
 70
     1
102
RTVSPropertyOp42
 70
     1
102
RTVSPropertyOp43
 70
     1
102
RTVSPropertyOp44
 70
     1
102
RTVSPropertyOp45
 70
     1
102
RTVSPropertyOp46
 70
     1
102
RTVSPropertyOp47
 70
     1
102
RTVSPropertyOp48
 70
     1
102
RTVSPropertyOp49
 70
     1
102
RTVSPropertyOp50
 70
     1
102
RTVSPropertyOp51
 70
     0
102
RTVSPropertyOp52
 70
     0
102
RTVSPropertyOp53
 70
     1
102
RTVSPropertyOp54
 70
     1
102
RTVSPropertyOp55
 70
     1
102
RTVSPropertyOp56
 70
     1
102
RTVSPropertyOp57
 70
     1
102
RTVSPropertyOp58
 70
     1
102
RTVSPropertyOp59
 70
     1
102
RTVSPropertyOp60
 70
     1
102
RTVSPropertyOp61
 70
     1
102
RTVSPropertyOp62
 70
     1
  0
XRECORD
  5
53A
102
{ACAD_REACTORS
330
539
102
}
330
539
100
AcDbXrecord
280
     1
102
RTVSPost2010Prop28
280
     0
102
RTVSPost2010PropOp28
 70
     1
102
RTVSPost2010Prop29
280
     1
102
RTVSPost2010PropOp29
 70
     1
102
RTVSPost2010Prop30
280
     1
102
RTVSPost2010PropOp30
 70
     1
102
RTVSPost2010Prop31
280
     0
102
RTVSPost2010PropOp31
 70
     1
102
RTVSPost2010Prop32
280
     0
102
RTVSPost2010PropOp32
 70
     1
102
RTVSPost2010Prop33
280
     0
102
RTVSPost2010PropOp33
 70
     1
102
RTVSPost2010Prop34
280
     0
102
RTVSPost2010PropOp34
 70
     1
102
RTVSPost2010Prop35
280
     0
102
RTVSPost2010PropOp35
 70
     1
102
RTVSPost2010Prop36
280
     0
102
RTVSPost2010PropOp36
 70
     1
102
RTVSPost2010Prop37
 90
       50
102
RTVSPost2010PropOp37
 70
     1
102
RTVSPost2010Prop38
140
0.0
102
RTVSPost2010PropOp38
 70
     1
102
RTVSPost2010Prop39
140
1.0
102
RTVSPost2010PropOp39
 70
     1
102
RTVSPost2010Prop40
 90
        0
102
RTVSPost2010PropOp40
 70
     1
102
RTVSPost2010Prop41ColorIndex
 90
       18
102
RTVSPost2010Prop41ColorRGB
 90
        0
102
RTVSPost2010PropOp41
 70
     1
102
RTVSPost2010Prop42
 90
       50
102
RTVSPost2010PropOp42
 70
     1
102
RTVSPost2010Prop43
 90
        3
102
RTVSPost2010PropOp43
 70
     1
102
RTVSPost2010Prop44ColorIndex
 90
        5
102
RTVSPost2010Prop44ColorRGB
 90
      255
102
RTVSPost2010PropOp44
 70
     1
102
RTVSPost2010Prop45
280
     0
102
RTVSPost2010PropOp45
 70
     1
102
RTVSPost2010Prop46
 90
       50
102
RTVSPost2010PropOp46
 70
     1
102
RTVSPost2010Prop47
 90
       50
102
RTVSPost2010PropOp47
 70
     1
102
RTVSPost2010Prop48
 90
       50
102
RTVSPost2010PropOp48
 70
     1
102
RTVSPost2010Prop49
280
     0
102
RTVSPost2010PropOp49
 70
     1
102
RTVSPost2010Prop50
 90
       50
102
RTVSPost2010PropOp50
 70
     1
102
RTVSPost2010Prop51ColorIndex
 90
      256
102
RTVSPost2010Prop51ColorRGB
 90
-16777216
102
RTVSPost2010PropOp51
 70
     0
102
RTVSPost2010Prop52
140
1.0
102
RTVSPost2010PropOp52
 70
     0
102
RTVSPost2010Prop53
 90
        2
102
RTVSPost2010PropOp53
 70
     1
102
RTVSPost2010Prop54
  1
strokes_ogs.tif
102
RTVSPost2010PropOp54
 70
     1
102
RTVSPost2010Prop55
280
     0
102
RTVSPost2010PropOp55
 70
     1
102
RTVSPost2010Prop56
140
1.0
102
RTVSPost2010PropOp56
 70
     1
102
RTVSPost2010Prop57
140
1.0
102
RTVSPost2010PropOp57
 70
     1
102
RTVSPropertyOp0
 70
     1
102
RTVSPropertyOp1
 70
     1
102
RTVSPropertyOp2
 70
     1
102
RTVSPropertyOp3
 70
     1
102
RTVSPropertyOp4
 70
     1
102
RTVSPropertyOp5
 70
     1
102
RTVSPropertyOp6
 70
     1
102
RTVSPropertyOp7
 70
     1
102
RTVSPropertyOp8
 70
     1
102
RTVSPropertyOp9
 70
     1
102
RTVSPropertyOp10
 70
     1
102
RTVSPropertyOp11
 70
     1
102
RTVSPropertyOp12
 70
     1
102
RTVSPropertyOp13
 70
     1
102
RTVSPropertyOp14
 70
     1
102
RTVSPropertyOp15
 70
     1
102
RTVSPropertyOp16
 70
     1
102
RTVSPropertyOp17
 70
     1
102
RTVSPropertyOp18
 70
     1
102
RTVSPropertyOp19
 70
     1
102
RTVSPropertyOp20
 70
     1
102
RTVSPropertyOp21
 70
     1
102
RTVSPropertyOp22
 70
     1
102
RTVSPropertyOp23
 70
     1
102
RTVSPropertyOp24
 70
     1
102
RTVSPropertyOp25
 70
     1
102
RTVSPropertyOp26
 70
     1
102
RTVSPropertyOp27
 70
     1
102
RTVSPropertyOp28
 70
     1
102
RTVSPropertyOp29
 70
     1
102
RTVSPropertyOp30
 70
     1
102
RTVSPropertyOp31
 70
     1
102
RTVSPropertyOp32
 70
     1
102
RTVSPropertyOp33
 70
     1
102
RTVSPropertyOp34
 70
     1
102
RTVSPropertyOp35
 70
     1
102
RTVSPropertyOp36
 70
     1
102
RTVSPropertyOp37
 70
     1
102
RTVSPropertyOp38
 70
     1
102
RTVSPropertyOp39
 70
     1
102
RTVSPropertyOp40
 70
     1
102
RTVSPropertyOp41
 70
     1
102
RTVSPropertyOp42
 70
     1
102
RTVSPropertyOp43
 70
     1
102
RTVSPropertyOp44
 70
     1
102
RTVSPropertyOp45
 70
     1
102
RTVSPropertyOp46
 70
     1
102
RTVSPropertyOp47
 70
     1
102
RTVSPropertyOp48
 70
     1
102
RTVSPropertyOp49
 70
     1
102
RTVSPropertyOp50
 70
     1
102
RTVSPropertyOp51
 70
     0
102
RTVSPropertyOp52
 70
     0
102
RTVSPropertyOp53
 70
     1
102
RTVSPropertyOp54
 70
     1
102
RTVSPropertyOp55
 70
     1
102
RTVSPropertyOp56
 70
     1
102
RTVSPropertyOp57
 70
     1
102
RTVSPropertyOp58
 70
     1
102
RTVSPropertyOp59
 70
     1
102
RTVSPropertyOp60
 70
     1
102
RTVSPropertyOp61
 70
     1
102
RTVSPropertyOp62
 70
     1
  0
XRECORD
  5
542
102
{ACAD_REACTORS
330
541
102
}
330
541
100
AcDbXrecord
280
     1
102
RTVSPost2010Prop28
280
     0
102
RTVSPost2010PropOp28
 70
     1
102
RTVSPost2010Prop29
280
     1
102
RTVSPost2010PropOp29
 70
     1
102
RTVSPost2010Prop30
280
     1
102
RTVSPost2010PropOp30
 70
     1
102
RTVSPost2010Prop31
280
     0
102
RTVSPost2010PropOp31
 70
     1
102
RTVSPost2010Prop32
280
     0
102
RTVSPost2010PropOp32
 70
     1
102
RTVSPost2010Prop33
280
     0
102
RTVSPost2010PropOp33
 70
     1
102
RTVSPost2010Prop34
280
     0
102
RTVSPost2010PropOp34
 70
     1
102
RTVSPost2010Prop35
280
     0
102
RTVSPost2010PropOp35
 70
     1
102
RTVSPost2010Prop36
280
     0
102
RTVSPost2010PropOp36
 70
     1
102
RTVSPost2010Prop37
 90
       50
102
RTVSPost2010PropOp37
 70
     1
102
RTVSPost2010Prop38
140
0.0
102
RTVSPost2010PropOp38
 70
     1
102
RTVSPost2010Prop39
140
1.0
102
RTVSPost2010PropOp39
 70
     1
102
RTVSPost2010Prop40
 90
        0
102
RTVSPost2010PropOp40
 70
     1
102
RTVSPost2010Prop41ColorIndex
 90
       18
102
RTVSPost2010Prop41ColorRGB
 90
        0
102
RTVSPost2010PropOp41
 70
     1
102
RTVSPost2010Prop42
 90
       50
102
RTVSPost2010PropOp42
 70
     1
102
RTVSPost2010Prop43
 90
        3
102
RTVSPost2010PropOp43
 70
     1
102
RTVSPost2010Prop44ColorIndex
 90
        5
102
RTVSPost2010Prop44ColorRGB
 90
      255
102
RTVSPost2010PropOp44
 70
     1
102
RTVSPost2010Prop45
280
     0
102
RTVSPost2010PropOp45
 70
     1
102
RTVSPost2010Prop46
 90
       50
102
RTVSPost2010PropOp46
 70
     1
102
RTVSPost2010Prop47
 90
       50
102
RTVSPost2010PropOp47
 70
     1
102
RTVSPost2010Prop48
 90
       50
102
RTVSPost2010PropOp48
 70
     1
102
RTVSPost2010Prop49
280
     0
102
RTVSPost2010PropOp49
 70
     1
102
RTVSPost2010Prop50
 90
       50
102
RTVSPost2010PropOp50
 70
     1
102
RTVSPost2010Prop51ColorIndex
 90
      256
102
RTVSPost2010Prop51ColorRGB
 90
-16777216
102
RTVSPost2010PropOp51
 70
     0
102
RTVSPost2010Prop52
140
1.0
102
RTVSPost2010PropOp52
 70
     0
102
RTVSPost2010Prop53
 90
        2
102
RTVSPost2010PropOp53
 70
     1
102
RTVSPost2010Prop54
  1
strokes_ogs.tif
102
RTVSPost2010PropOp54
 70
     1
102
RTVSPost2010Prop55
280
     0
102
RTVSPost2010PropOp55
 70
     1
102
RTVSPost2010Prop56
140
1.0
102
RTVSPost2010PropOp56
 70
     1
102
RTVSPost2010Prop57
140
1.0
102
RTVSPost2010PropOp57
 70
     1
102
RTVSPropertyOp0
 70
     1
102
RTVSPropertyOp1
 70
     1
102
RTVSPropertyOp2
 70
     1
102
RTVSPropertyOp3
 70
     1
102
RTVSPropertyOp4
 70
     1
102
RTVSPropertyOp5
 70
     1
102
RTVSPropertyOp6
 70
     1
102
RTVSPropertyOp7
 70
     1
102
RTVSPropertyOp8
 70
     1
102
RTVSPropertyOp9
 70
     1
102
RTVSPropertyOp10
 70
     1
102
RTVSPropertyOp11
 70
     1
102
RTVSPropertyOp12
 70
     1
102
RTVSPropertyOp13
 70
     1
102
RTVSPropertyOp14
 70
     1
102
RTVSPropertyOp15
 70
     1
102
RTVSPropertyOp16
 70
     1
102
RTVSPropertyOp17
 70
     1
102
RTVSPropertyOp18
 70
     1
102
RTVSPropertyOp19
 70
     1
102
RTVSPropertyOp20
 70
     1
102
RTVSPropertyOp21
 70
     1
102
RTVSPropertyOp22
 70
     1
102
RTVSPropertyOp23
 70
     1
102
RTVSPropertyOp24
 70
     1
102
RTVSPropertyOp25
 70
     1
102
RTVSPropertyOp26
 70
     1
102
RTVSPropertyOp27
 70
     1
102
RTVSPropertyOp28
 70
     1
102
RTVSPropertyOp29
 70
     1
102
RTVSPropertyOp30
 70
     1
102
RTVSPropertyOp31
 70
     1
102
RTVSPropertyOp32
 70
     1
102
RTVSPropertyOp33
 70
     1
102
RTVSPropertyOp34
 70
     1
102
RTVSPropertyOp35
 70
     1
102
RTVSPropertyOp36
 70
     1
102
RTVSPropertyOp37
 70
     1
102
RTVSPropertyOp38
 70
     1
102
RTVSPropertyOp39
 70
     1
102
RTVSPropertyOp40
 70
     1
102
RTVSPropertyOp41
 70
     1
102
RTVSPropertyOp42
 70
     1
102
RTVSPropertyOp43
 70
     1
102
RTVSPropertyOp44
 70
     1
102
RTVSPropertyOp45
 70
     1
102
RTVSPropertyOp46
 70
     1
102
RTVSPropertyOp47
 70
     1
102
RTVSPropertyOp48
 70
     1
102
RTVSPropertyOp49
 70
     1
102
RTVSPropertyOp50
 70
     1
102
RTVSPropertyOp51
 70
     0
102
RTVSPropertyOp52
 70
     0
102
RTVSPropertyOp53
 70
     1
102
RTVSPropertyOp54
 70
     1
102
RTVSPropertyOp55
 70
     1
102
RTVSPropertyOp56
 70
     1
102
RTVSPropertyOp57
 70
     1
102
RTVSPropertyOp58
 70
     1
102
RTVSPropertyOp59
 70
     1
102
RTVSPropertyOp60
 70
     1
102
RTVSPropertyOp61
 70
     1
102
RTVSPropertyOp62
 70
     1
  0
XRECORD
  5
55E
102
{ACAD_REACTORS
330
55D
102
}
330
55D
100
AcDbXrecord
280
     1
102
RTVSPost2010Prop28
280
     0
102
RTVSPost2010PropOp28
 70
     1
102
RTVSPost2010Prop29
280
     1
102
RTVSPost2010PropOp29
 70
     1
102
RTVSPost2010Prop30
280
     1
102
RTVSPost2010PropOp30
 70
     1
102
RTVSPost2010Prop31
280
     0
102
RTVSPost2010PropOp31
 70
     1
102
RTVSPost2010Prop32
280
     0
102
RTVSPost2010PropOp32
 70
     1
102
RTVSPost2010Prop33
280
     0
102
RTVSPost2010PropOp33
 70
     1
102
RTVSPost2010Prop34
280
     0
102
RTVSPost2010PropOp34
 70
     1
102
RTVSPost2010Prop35
280
     0
102
RTVSPost2010PropOp35
 70
     1
102
RTVSPost2010Prop36
280
     0
102
RTVSPost2010PropOp36
 70
     1
102
RTVSPost2010Prop37
 90
       50
102
RTVSPost2010PropOp37
 70
     0
102
RTVSPost2010Prop38
140
0.0
102
RTVSPost2010PropOp38
 70
     0
102
RTVSPost2010Prop39
140
1.0
102
RTVSPost2010PropOp39
 70
     0
102
RTVSPost2010Prop40
 90
        0
102
RTVSPost2010PropOp40
 70
     0
102
RTVSPost2010Prop41ColorIndex
 90
       18
102
RTVSPost2010Prop41ColorRGB
 90
        0
102
RTVSPost2010PropOp41
 70
     0
102
RTVSPost2010Prop42
 90
       50
102
RTVSPost2010PropOp42
 70
     0
102
RTVSPost2010Prop43
 90
        3
102
RTVSPost2010PropOp43
 70
     0
102
RTVSPost2010Prop44ColorIndex
 90
        5
102
RTVSPost2010Prop44ColorRGB
 90
      255
102
RTVSPost2010PropOp44
 70
     0
102
RTVSPost2010Prop45
280
     0
102
RTVSPost2010PropOp45
 70
     1
102
RTVSPost2010Prop46
 90
       50
102
RTVSPost2010PropOp46
 70
     0
102
RTVSPost2010Prop47
 90
       50
102
RTVSPost2010PropOp47
 70
     0
102
RTVSPost2010Prop48
 90
       50
102
RTVSPost2010PropOp48
 70
     0
102
RTVSPost2010Prop49
280
     0
102
RTVSPost2010PropOp49
 70
     1
102
RTVSPost2010Prop50
 90
       50
102
RTVSPost2010PropOp50
 70
     0
102
RTVSPost2010Prop51ColorIndex
 90
      256
102
RTVSPost2010Prop51ColorRGB
 90
-16777216
102
RTVSPost2010PropOp51
 70
     0
102
RTVSPost2010Prop52
140
1.0
102
RTVSPost2010PropOp52
 70
     0
102
RTVSPost2010Prop53
 90
        2
102
RTVSPost2010PropOp53
 70
     0
102
RTVSPost2010Prop54
  1
strokes_ogs.tif
102
RTVSPost2010PropOp54
 70
     0
102
RTVSPost2010Prop55
280
     0
102
RTVSPost2010PropOp55
 70
     1
102
RTVSPost2010Prop56
140
1.0
102
RTVSPost2010PropOp56
 70
     0
102
RTVSPost2010Prop57
140
1.0
102
RTVSPost2010PropOp57
 70
     0
102
RTVSPropertyOp0
 70
     0
102
RTVSPropertyOp1
 70
     0
102
RTVSPropertyOp2
 70
     0
102
RTVSPropertyOp3
 70
     0
102
RTVSPropertyOp4
 70
     0
102
RTVSPropertyOp5
 70
     0
102
RTVSPropertyOp6
 70
     0
102
RTVSPropertyOp7
 70
     0
102
RTVSPropertyOp8
 70
     0
102
RTVSPropertyOp9
 70
     0
102
RTVSPropertyOp10
 70
     0
102
RTVSPropertyOp11
 70
     0
102
RTVSPropertyOp12
 70
     0
102
RTVSPropertyOp13
 70
     0
102
RTVSPropertyOp14
 70
     2
102
RTVSPropertyOp15
 70
     0
102
RTVSPropertyOp16
 70
     0
102
RTVSPropertyOp17
 70
     0
102
RTVSPropertyOp18
 70
     0
102
RTVSPropertyOp19
 70
     0
102
RTVSPropertyOp20
 70
     0
102
RTVSPropertyOp21
 70
     0
102
RTVSPropertyOp22
 70
     0
102
RTVSPropertyOp23
 70
     0
102
RTVSPropertyOp24
 70
     0
102
RTVSPropertyOp25
 70
     0
102
RTVSPropertyOp26
 70
     0
102
RTVSPropertyOp27
 70
     0
102
RTVSPropertyOp28
 70
     1
102
RTVSPropertyOp29
 70
     1
102
RTVSPropertyOp30
 70
     1
102
RTVSPropertyOp31
 70
     1
102
RTVSPropertyOp32
 70
     1
102
RTVSPropertyOp33
 70
     1
102
RTVSPropertyOp34
 70
     1
102
RTVSPropertyOp35
 70
     1
102
RTVSPropertyOp36
 70
     1
102
RTVSPropertyOp37
 70
     0
102
RTVSPropertyOp38
 70
     0
102
RTVSPropertyOp39
 70
     0
102
RTVSPropertyOp40
 70
     0
102
RTVSPropertyOp41
 70
     0
102
RTVSPropertyOp42
 70
     0
102
RTVSPropertyOp43
 70
     0
102
RTVSPropertyOp44
 70
     0
102
RTVSPropertyOp45
 70
     1
102
RTVSPropertyOp46
 70
     0
102
RTVSPropertyOp47
 70
     0
102
RTVSPropertyOp48
 70
     0
102
RTVSPropertyOp49
 70
     1
102
RTVSPropertyOp50
 70
     0
102
RTVSPropertyOp51
 70
     0
102
RTVSPropertyOp52
 70
     0
102
RTVSPropertyOp53
 70
     0
102
RTVSPropertyOp54
 70
     0
102
RTVSPropertyOp55
 70
     1
102
RTVSPropertyOp56
 70
     0
102
RTVSPropertyOp57
 70
     0
102
RTVSPropertyOp58
 70
     0
102
RTVSPropertyOp59
 70
     0
102
RTVSPropertyOp60
 70
     0
102
RTVSPropertyOp61
 70
     0
102
RTVSPropertyOp62
 70
     0
  0
XRECORD
  5
54E
102
{ACAD_REACTORS
330
54D
102
}
330
54D
100
AcDbXrecord
280
     1
102
RTVSPost2010Prop28
280
     0
102
RTVSPost2010PropOp28
 70
     1
102
RTVSPost2010Prop29
280
     1
102
RTVSPost2010PropOp29
 70
     1
102
RTVSPost2010Prop30
280
     1
102
RTVSPost2010PropOp30
 70
     1
102
RTVSPost2010Prop31
280
     0
102
RTVSPost2010PropOp31
 70
     1
102
RTVSPost2010Prop32
280
     0
102
RTVSPost2010PropOp32
 70
     1
102
RTVSPost2010Prop33
280
     0
102
RTVSPost2010PropOp33
 70
     1
102
RTVSPost2010Prop34
280
     0
102
RTVSPost2010PropOp34
 70
     1
102
RTVSPost2010Prop35
280
     0
102
RTVSPost2010PropOp35
 70
     1
102
RTVSPost2010Prop36
280
     0
102
RTVSPost2010PropOp36
 70
     1
102
RTVSPost2010Prop37
 90
       50
102
RTVSPost2010PropOp37
 70
     1
102
RTVSPost2010Prop38
140
0.0
102
RTVSPost2010PropOp38
 70
     1
102
RTVSPost2010Prop39
140
1.0
102
RTVSPost2010PropOp39
 70
     1
102
RTVSPost2010Prop40
 90
        0
102
RTVSPost2010PropOp40
 70
     1
102
RTVSPost2010Prop41ColorIndex
 90
       18
102
RTVSPost2010Prop41ColorRGB
 90
        0
102
RTVSPost2010PropOp41
 70
     1
102
RTVSPost2010Prop42
 90
       50
102
RTVSPost2010PropOp42
 70
     1
102
RTVSPost2010Prop43
 90
        3
102
RTVSPost2010PropOp43
 70
     1
102
RTVSPost2010Prop44ColorIndex
 90
        5
102
RTVSPost2010Prop44ColorRGB
 90
      255
102
RTVSPost2010PropOp44
 70
     1
102
RTVSPost2010Prop45
280
     0
102
RTVSPost2010PropOp45
 70
     1
102
RTVSPost2010Prop46
 90
       50
102
RTVSPost2010PropOp46
 70
     1
102
RTVSPost2010Prop47
 90
       50
102
RTVSPost2010PropOp47
 70
     1
102
RTVSPost2010Prop48
 90
       50
102
RTVSPost2010PropOp48
 70
     1
102
RTVSPost2010Prop49
280
     0
102
RTVSPost2010PropOp49
 70
     1
102
RTVSPost2010Prop50
 90
       50
102
RTVSPost2010PropOp50
 70
     1
102
RTVSPost2010Prop51ColorIndex
 90
      256
102
RTVSPost2010Prop51ColorRGB
 90
-16777216
102
RTVSPost2010PropOp51
 70
     0
102
RTVSPost2010Prop52
140
1.0
102
RTVSPost2010PropOp52
 70
     0
102
RTVSPost2010Prop53
 90
        2
102
RTVSPost2010PropOp53
 70
     1
102
RTVSPost2010Prop54
  1
strokes_ogs.tif
102
RTVSPost2010PropOp54
 70
     1
102
RTVSPost2010Prop55
280
     0
102
RTVSPost2010PropOp55
 70
     1
102
RTVSPost2010Prop56
140
1.0
102
RTVSPost2010PropOp56
 70
     1
102
RTVSPost2010Prop57
140
1.0
102
RTVSPost2010PropOp57
 70
     1
102
RTVSPropertyOp0
 70
     1
102
RTVSPropertyOp1
 70
     1
102
RTVSPropertyOp2
 70
     1
102
RTVSPropertyOp3
 70
     1
102
RTVSPropertyOp4
 70
     1
102
RTVSPropertyOp5
 70
     1
102
RTVSPropertyOp6
 70
     1
102
RTVSPropertyOp7
 70
     1
102
RTVSPropertyOp8
 70
     1
102
RTVSPropertyOp9
 70
     1
102
RTVSPropertyOp10
 70
     1
102
RTVSPropertyOp11
 70
     1
102
RTVSPropertyOp12
 70
     1
102
RTVSPropertyOp13
 70
     1
102
RTVSPropertyOp14
 70
     1
102
RTVSPropertyOp15
 70
     1
102
RTVSPropertyOp16
 70
     1
102
RTVSPropertyOp17
 70
     1
102
RTVSPropertyOp18
 70
     1
102
RTVSPropertyOp19
 70
     1
102
RTVSPropertyOp20
 70
     1
102
RTVSPropertyOp21
 70
     1
102
RTVSPropertyOp22
 70
     1
102
RTVSPropertyOp23
 70
     1
102
RTVSPropertyOp24
 70
     1
102
RTVSPropertyOp25
 70
     1
102
RTVSPropertyOp26
 70
     1
102
RTVSPropertyOp27
 70
     1
102
RTVSPropertyOp28
 70
     1
102
RTVSPropertyOp29
 70
     1
102
RTVSPropertyOp30
 70
     1
102
RTVSPropertyOp31
 70
     1
102
RTVSPropertyOp32
 70
     1
102
RTVSPropertyOp33
 70
     1
102
RTVSPropertyOp34
 70
     1
102
RTVSPropertyOp35
 70
     1
102
RTVSPropertyOp36
 70
     1
102
RTVSPropertyOp37
 70
     1
102
RTVSPropertyOp38
 70
     1
102
RTVSPropertyOp39
 70
     1
102
RTVSPropertyOp40
 70
     1
102
RTVSPropertyOp41
 70
     1
102
RTVSPropertyOp42
 70
     1
102
RTVSPropertyOp43
 70
     1
102
RTVSPropertyOp44
 70
     1
102
RTVSPropertyOp45
 70
     1
102
RTVSPropertyOp46
 70
     1
102
RTVSPropertyOp47
 70
     1
102
RTVSPropertyOp48
 70
     1
102
RTVSPropertyOp49
 70
     1
102
RTVSPropertyOp50
 70
     1
102
RTVSPropertyOp51
 70
     0
102
RTVSPropertyOp52
 70
     0
102
RTVSPropertyOp53
 70
     1
102
RTVSPropertyOp54
 70
     1
102
RTVSPropertyOp55
 70
     1
102
RTVSPropertyOp56
 70
     1
102
RTVSPropertyOp57
 70
     1
102
RTVSPropertyOp58
 70
     1
102
RTVSPropertyOp59
 70
     1
102
RTVSPropertyOp60
 70
     1
102
RTVSPropertyOp61
 70
     1
102
RTVSPropertyOp62
 70
     1
  0
XRECORD
  5
560
102
{ACAD_REACTORS
330
55F
102
}
330
55F
100
AcDbXrecord
280
     1
102
RTVSPost2010Prop28
280
     0
102
RTVSPost2010PropOp28
 70
     1
102
RTVSPost2010Prop29
280
     1
102
RTVSPost2010PropOp29
 70
     1
102
RTVSPost2010Prop30
280
     1
102
RTVSPost2010PropOp30
 70
     1
102
RTVSPost2010Prop31
280
     0
102
RTVSPost2010PropOp31
 70
     1
102
RTVSPost2010Prop32
280
     0
102
RTVSPost2010PropOp32
 70
     1
102
RTVSPost2010Prop33
280
     0
102
RTVSPost2010PropOp33
 70
     1
102
RTVSPost2010Prop34
280
     0
102
RTVSPost2010PropOp34
 70
     1
102
RTVSPost2010Prop35
280
     0
102
RTVSPost2010PropOp35
 70
     1
102
RTVSPost2010Prop36
280
     0
102
RTVSPost2010PropOp36
 70
     1
102
RTVSPost2010Prop37
 90
       50
102
RTVSPost2010PropOp37
 70
     0
102
RTVSPost2010Prop38
140
0.0
102
RTVSPost2010PropOp38
 70
     0
102
RTVSPost2010Prop39
140
1.0
102
RTVSPost2010PropOp39
 70
     0
102
RTVSPost2010Prop40
 90
        0
102
RTVSPost2010PropOp40
 70
     0
102
RTVSPost2010Prop41ColorIndex
 90
       18
102
RTVSPost2010Prop41ColorRGB
 90
        0
102
RTVSPost2010PropOp41
 70
     0
102
RTVSPost2010Prop42
 90
       50
102
RTVSPost2010PropOp42
 70
     0
102
RTVSPost2010Prop43
 90
        3
102
RTVSPost2010PropOp43
 70
     0
102
RTVSPost2010Prop44ColorIndex
 90
        5
102
RTVSPost2010Prop44ColorRGB
 90
      255
102
RTVSPost2010PropOp44
 70
     0
102
RTVSPost2010Prop45
280
     0
102
RTVSPost2010PropOp45
 70
     1
102
RTVSPost2010Prop46
 90
       50
102
RTVSPost2010PropOp46
 70
     0
102
RTVSPost2010Prop47
 90
       50
102
RTVSPost2010PropOp47
 70
     0
102
RTVSPost2010Prop48
 90
       50
102
RTVSPost2010PropOp48
 70
     0
102
RTVSPost2010Prop49
280
     0
102
RTVSPost2010PropOp49
 70
     1
102
RTVSPost2010Prop50
 90
       50
102
RTVSPost2010PropOp50
 70
     0
102
RTVSPost2010Prop51ColorIndex
 90
      256
102
RTVSPost2010Prop51ColorRGB
 90
-16777216
102
RTVSPost2010PropOp51
 70
     0
102
RTVSPost2010Prop52
140
1.0
102
RTVSPost2010PropOp52
 70
     0
102
RTVSPost2010Prop53
 90
        2
102
RTVSPost2010PropOp53
 70
     0
102
RTVSPost2010Prop54
  1
strokes_ogs.tif
102
RTVSPost2010PropOp54
 70
     0
102
RTVSPost2010Prop55
280
     0
102
RTVSPost2010PropOp55
 70
     1
102
RTVSPost2010Prop56
140
1.0
102
RTVSPost2010PropOp56
 70
     0
102
RTVSPost2010Prop57
140
1.0
102
RTVSPost2010PropOp57
 70
     0
102
RTVSPropertyOp0
 70
     0
102
RTVSPropertyOp1
 70
     0
102
RTVSPropertyOp2
 70
     0
102
RTVSPropertyOp3
 70
     0
102
RTVSPropertyOp4
 70
     0
102
RTVSPropertyOp5
 70
     0
102
RTVSPropertyOp6
 70
     0
102
RTVSPropertyOp7
 70
     0
102
RTVSPropertyOp8
 70
     0
102
RTVSPropertyOp9
 70
     0
102
RTVSPropertyOp10
 70
     0
102
RTVSPropertyOp11
 70
     0
102
RTVSPropertyOp12
 70
     0
102
RTVSPropertyOp13
 70
     0
102
RTVSPropertyOp14
 70
     2
102
RTVSPropertyOp15
 70
     0
102
RTVSPropertyOp16
 70
     0
102
RTVSPropertyOp17
 70
     0
102
RTVSPropertyOp18
 70
     0
102
RTVSPropertyOp19
 70
     0
102
RTVSPropertyOp20
 70
     0
102
RTVSPropertyOp21
 70
     0
102
RTVSPropertyOp22
 70
     0
102
RTVSPropertyOp23
 70
     0
102
RTVSPropertyOp24
 70
     0
102
RTVSPropertyOp25
 70
     0
102
RTVSPropertyOp26
 70
     0
102
RTVSPropertyOp27
 70
     0
102
RTVSPropertyOp28
 70
     1
102
RTVSPropertyOp29
 70
     1
102
RTVSPropertyOp30
 70
     1
102
RTVSPropertyOp31
 70
     1
102
RTVSPropertyOp32
 70
     1
102
RTVSPropertyOp33
 70
     1
102
RTVSPropertyOp34
 70
     1
102
RTVSPropertyOp35
 70
     1
102
RTVSPropertyOp36
 70
     1
102
RTVSPropertyOp37
 70
     0
102
RTVSPropertyOp38
 70
     0
102
RTVSPropertyOp39
 70
     0
102
RTVSPropertyOp40
 70
     0
102
RTVSPropertyOp41
 70
     0
102
RTVSPropertyOp42
 70
     0
102
RTVSPropertyOp43
 70
     0
102
RTVSPropertyOp44
 70
     0
102
RTVSPropertyOp45
 70
     1
102
RTVSPropertyOp46
 70
     0
102
RTVSPropertyOp47
 70
     0
102
RTVSPropertyOp48
 70
     0
102
RTVSPropertyOp49
 70
     1
102
RTVSPropertyOp50
 70
     0
102
RTVSPropertyOp51
 70
     0
102
RTVSPropertyOp52
 70
     0
102
RTVSPropertyOp53
 70
     0
102
RTVSPropertyOp54
 70
     0
102
RTVSPropertyOp55
 70
     1
102
RTVSPropertyOp56
 70
     0
102
RTVSPropertyOp57
 70
     0
102
RTVSPropertyOp58
 70
     0
102
RTVSPropertyOp59
 70
     0
102
RTVSPropertyOp60
 70
     0
102
RTVSPropertyOp61
 70
     0
102
RTVSPropertyOp62
 70
     0
  0
XRECORD
  5
546
102
{ACAD_REACTORS
330
545
102
}
330
545
100
AcDbXrecord
280
     1
102
RTVSPost2010Prop28
280
     0
102
RTVSPost2010PropOp28
 70
     1
102
RTVSPost2010Prop29
280
     1
102
RTVSPost2010PropOp29
 70
     1
102
RTVSPost2010Prop30
280
     1
102
RTVSPost2010PropOp30
 70
     1
102
RTVSPost2010Prop31
280
     0
102
RTVSPost2010PropOp31
 70
     1
102
RTVSPost2010Prop32
280
     0
102
RTVSPost2010PropOp32
 70
     1
102
RTVSPost2010Prop33
280
     0
102
RTVSPost2010PropOp33
 70
     1
102
RTVSPost2010Prop34
280
     0
102
RTVSPost2010PropOp34
 70
     1
102
RTVSPost2010Prop35
280
     0
102
RTVSPost2010PropOp35
 70
     1
102
RTVSPost2010Prop36
280
     0
102
RTVSPost2010PropOp36
 70
     1
102
RTVSPost2010Prop37
 90
       50
102
RTVSPost2010PropOp37
 70
     1
102
RTVSPost2010Prop38
140
0.0
102
RTVSPost2010PropOp38
 70
     1
102
RTVSPost2010Prop39
140
1.0
102
RTVSPost2010PropOp39
 70
     1
102
RTVSPost2010Prop40
 90
        0
102
RTVSPost2010PropOp40
 70
     1
102
RTVSPost2010Prop41ColorIndex
 90
       18
102
RTVSPost2010Prop41ColorRGB
 90
        0
102
RTVSPost2010PropOp41
 70
     1
102
RTVSPost2010Prop42
 90
       50
102
RTVSPost2010PropOp42
 70
     1
102
RTVSPost2010Prop43
 90
        3
102
RTVSPost2010PropOp43
 70
     1
102
RTVSPost2010Prop44ColorIndex
 90
        5
102
RTVSPost2010Prop44ColorRGB
 90
      255
102
RTVSPost2010PropOp44
 70
     1
102
RTVSPost2010Prop45
280
     0
102
RTVSPost2010PropOp45
 70
     1
102
RTVSPost2010Prop46
 90
       50
102
RTVSPost2010PropOp46
 70
     1
102
RTVSPost2010Prop47
 90
       50
102
RTVSPost2010PropOp47
 70
     1
102
RTVSPost2010Prop48
 90
       50
102
RTVSPost2010PropOp48
 70
     1
102
RTVSPost2010Prop49
280
     0
102
RTVSPost2010PropOp49
 70
     1
102
RTVSPost2010Prop50
 90
       50
102
RTVSPost2010PropOp50
 70
     1
102
RTVSPost2010Prop51ColorIndex
 90
      256
102
RTVSPost2010Prop51ColorRGB
 90
-16777216
102
RTVSPost2010PropOp51
 70
     0
102
RTVSPost2010Prop52
140
1.0
102
RTVSPost2010PropOp52
 70
     0
102
RTVSPost2010Prop53
 90
        2
102
RTVSPost2010PropOp53
 70
     1
102
RTVSPost2010Prop54
  1
strokes_ogs.tif
102
RTVSPost2010PropOp54
 70
     1
102
RTVSPost2010Prop55
280
     0
102
RTVSPost2010PropOp55
 70
     1
102
RTVSPost2010Prop56
140
1.0
102
RTVSPost2010PropOp56
 70
     1
102
RTVSPost2010Prop57
140
1.0
102
RTVSPost2010PropOp57
 70
     1
102
RTVSPropertyOp0
 70
     1
102
RTVSPropertyOp1
 70
     1
102
RTVSPropertyOp2
 70
     1
102
RTVSPropertyOp3
 70
     1
102
RTVSPropertyOp4
 70
     1
102
RTVSPropertyOp5
 70
     1
102
RTVSPropertyOp6
 70
     1
102
RTVSPropertyOp7
 70
     1
102
RTVSPropertyOp8
 70
     1
102
RTVSPropertyOp9
 70
     1
102
RTVSPropertyOp10
 70
     1
102
RTVSPropertyOp11
 70
     1
102
RTVSPropertyOp12
 70
     1
102
RTVSPropertyOp13
 70
     1
102
RTVSPropertyOp14
 70
     1
102
RTVSPropertyOp15
 70
     1
102
RTVSPropertyOp16
 70
     1
102
RTVSPropertyOp17
 70
     1
102
RTVSPropertyOp18
 70
     1
102
RTVSPropertyOp19
 70
     1
102
RTVSPropertyOp20
 70
     1
102
RTVSPropertyOp21
 70
     1
102
RTVSPropertyOp22
 70
     1
102
RTVSPropertyOp23
 70
     1
102
RTVSPropertyOp24
 70
     1
102
RTVSPropertyOp25
 70
     1
102
RTVSPropertyOp26
 70
     1
102
RTVSPropertyOp27
 70
     1
102
RTVSPropertyOp28
 70
     1
102
RTVSPropertyOp29
 70
     1
102
RTVSPropertyOp30
 70
     1
102
RTVSPropertyOp31
 70
     1
102
RTVSPropertyOp32
 70
     1
102
RTVSPropertyOp33
 70
     1
102
RTVSPropertyOp34
 70
     1
102
RTVSPropertyOp35
 70
     1
102
RTVSPropertyOp36
 70
     1
102
RTVSPropertyOp37
 70
     1
102
RTVSPropertyOp38
 70
     1
102
RTVSPropertyOp39
 70
     1
102
RTVSPropertyOp40
 70
     1
102
RTVSPropertyOp41
 70
     1
102
RTVSPropertyOp42
 70
     1
102
RTVSPropertyOp43
 70
     1
102
RTVSPropertyOp44
 70
     1
102
RTVSPropertyOp45
 70
     1
102
RTVSPropertyOp46
 70
     1
102
RTVSPropertyOp47
 70
     1
102
RTVSPropertyOp48
 70
     1
102
RTVSPropertyOp49
 70
     1
102
RTVSPropertyOp50
 70
     1
102
RTVSPropertyOp51
 70
     0
102
RTVSPropertyOp52
 70
     0
102
RTVSPropertyOp53
 70
     1
102
RTVSPropertyOp54
 70
     1
102
RTVSPropertyOp55
 70
     1
102
RTVSPropertyOp56
 70
     1
102
RTVSPropertyOp57
 70
     1
102
RTVSPropertyOp58
 70
     1
102
RTVSPropertyOp59
 70
     1
102
RTVSPropertyOp60
 70
     1
102
RTVSPropertyOp61
 70
     1
102
RTVSPropertyOp62
 70
     1
  0
XRECORD
  5
55C
102
{ACAD_REACTORS
330
55B
102
}
330
55B
100
AcDbXrecord
280
     1
102
RTVSPost2010Prop28
280
     0
102
RTVSPost2010PropOp28
 70
     1
102
RTVSPost2010Prop29
280
     1
102
RTVSPost2010PropOp29
 70
     1
102
RTVSPost2010Prop30
280
     1
102
RTVSPost2010PropOp30
 70
     1
102
RTVSPost2010Prop31
280
     0
102
RTVSPost2010PropOp31
 70
     1
102
RTVSPost2010Prop32
280
     0
102
RTVSPost2010PropOp32
 70
     1
102
RTVSPost2010Prop33
280
     0
102
RTVSPost2010PropOp33
 70
     1
102
RTVSPost2010Prop34
280
     0
102
RTVSPost2010PropOp34
 70
     1
102
RTVSPost2010Prop35
280
     0
102
RTVSPost2010PropOp35
 70
     1
102
RTVSPost2010Prop36
280
     0
102
RTVSPost2010PropOp36
 70
     1
102
RTVSPost2010Prop37
 90
       50
102
RTVSPost2010PropOp37
 70
     1
102
RTVSPost2010Prop38
140
0.0
102
RTVSPost2010PropOp38
 70
     1
102
RTVSPost2010Prop39
140
1.0
102
RTVSPost2010PropOp39
 70
     1
102
RTVSPost2010Prop40
 90
        0
102
RTVSPost2010PropOp40
 70
     1
102
RTVSPost2010Prop41ColorIndex
 90
       18
102
RTVSPost2010Prop41ColorRGB
 90
        0
102
RTVSPost2010PropOp41
 70
     1
102
RTVSPost2010Prop42
 90
       50
102
RTVSPost2010PropOp42
 70
     1
102
RTVSPost2010Prop43
 90
        3
102
RTVSPost2010PropOp43
 70
     1
102
RTVSPost2010Prop44ColorIndex
 90
        5
102
RTVSPost2010Prop44ColorRGB
 90
      255
102
RTVSPost2010PropOp44
 70
     1
102
RTVSPost2010Prop45
280
     0
102
RTVSPost2010PropOp45
 70
     1
102
RTVSPost2010Prop46
 90
       50
102
RTVSPost2010PropOp46
 70
     1
102
RTVSPost2010Prop47
 90
       50
102
RTVSPost2010PropOp47
 70
     1
102
RTVSPost2010Prop48
 90
       50
102
RTVSPost2010PropOp48
 70
     1
102
RTVSPost2010Prop49
280
     0
102
RTVSPost2010PropOp49
 70
     1
102
RTVSPost2010Prop50
 90
       50
102
RTVSPost2010PropOp50
 70
     1
102
RTVSPost2010Prop51ColorIndex
 90
      256
102
RTVSPost2010Prop51ColorRGB
 90
-16777216
102
RTVSPost2010PropOp51
 70
     0
102
RTVSPost2010Prop52
140
1.0
102
RTVSPost2010PropOp52
 70
     0
102
RTVSPost2010Prop53
 90
        2
102
RTVSPost2010PropOp53
 70
     1
102
RTVSPost2010Prop54
  1
strokes_ogs.tif
102
RTVSPost2010PropOp54
 70
     1
102
RTVSPost2010Prop55
280
     0
102
RTVSPost2010PropOp55
 70
     1
102
RTVSPost2010Prop56
140
1.0
102
RTVSPost2010PropOp56
 70
     1
102
RTVSPost2010Prop57
140
1.0
102
RTVSPost2010PropOp57
 70
     1
102
RTVSPropertyOp0
 70
     1
102
RTVSPropertyOp1
 70
     1
102
RTVSPropertyOp2
 70
     1
102
RTVSPropertyOp3
 70
     1
102
RTVSPropertyOp4
 70
     1
102
RTVSPropertyOp5
 70
     1
102
RTVSPropertyOp6
 70
     1
102
RTVSPropertyOp7
 70
     1
102
RTVSPropertyOp8
 70
     1
102
RTVSPropertyOp9
 70
     1
102
RTVSPropertyOp10
 70
     1
102
RTVSPropertyOp11
 70
     1
102
RTVSPropertyOp12
 70
     1
102
RTVSPropertyOp13
 70
     1
102
RTVSPropertyOp14
 70
     1
102
RTVSPropertyOp15
 70
     1
102
RTVSPropertyOp16
 70
     1
102
RTVSPropertyOp17
 70
     1
102
RTVSPropertyOp18
 70
     1
102
RTVSPropertyOp19
 70
     1
102
RTVSPropertyOp20
 70
     1
102
RTVSPropertyOp21
 70
     1
102
RTVSPropertyOp22
 70
     1
102
RTVSPropertyOp23
 70
     1
102
RTVSPropertyOp24
 70
     1
102
RTVSPropertyOp25
 70
     1
102
RTVSPropertyOp26
 70
     1
102
RTVSPropertyOp27
 70
     1
102
RTVSPropertyOp28
 70
     1
102
RTVSPropertyOp29
 70
     1
102
RTVSPropertyOp30
 70
     1
102
RTVSPropertyOp31
 70
     1
102
RTVSPropertyOp32
 70
     1
102
RTVSPropertyOp33
 70
     1
102
RTVSPropertyOp34
 70
     1
102
RTVSPropertyOp35
 70
     1
102
RTVSPropertyOp36
 70
     1
102
RTVSPropertyOp37
 70
     1
102
RTVSPropertyOp38
 70
     1
102
RTVSPropertyOp39
 70
     1
102
RTVSPropertyOp40
 70
     1
102
RTVSPropertyOp41
 70
     1
102
RTVSPropertyOp42
 70
     1
102
RTVSPropertyOp43
 70
     1
102
RTVSPropertyOp44
 70
     1
102
RTVSPropertyOp45
 70
     1
102
RTVSPropertyOp46
 70
     1
102
RTVSPropertyOp47
 70
     1
102
RTVSPropertyOp48
 70
     1
102
RTVSPropertyOp49
 70
     1
102
RTVSPropertyOp50
 70
     1
102
RTVSPropertyOp51
 70
     0
102
RTVSPropertyOp52
 70
     0
102
RTVSPropertyOp53
 70
     1
102
RTVSPropertyOp54
 70
     1
102
RTVSPropertyOp55
 70
     1
102
RTVSPropertyOp56
 70
     1
102
RTVSPropertyOp57
 70
     1
102
RTVSPropertyOp58
 70
     1
102
RTVSPropertyOp59
 70
     1
102
RTVSPropertyOp60
 70
     1
102
RTVSPropertyOp61
 70
     1
102
RTVSPropertyOp62
 70
     1
  0
XRECORD
  5
55A
102
{ACAD_REACTORS
330
559
102
}
330
559
100
AcDbXrecord
280
     1
102
RTVSPost2010Prop28
280
     0
102
RTVSPost2010PropOp28
 70
     1
102
RTVSPost2010Prop29
280
     1
102
RTVSPost2010PropOp29
 70
     1
102
RTVSPost2010Prop30
280
     1
102
RTVSPost2010PropOp30
 70
     1
102
RTVSPost2010Prop31
280
     0
102
RTVSPost2010PropOp31
 70
     1
102
RTVSPost2010Prop32
280
     0
102
RTVSPost2010PropOp32
 70
     1
102
RTVSPost2010Prop33
280
     0
102
RTVSPost2010PropOp33
 70
     1
102
RTVSPost2010Prop34
280
     0
102
RTVSPost2010PropOp34
 70
     1
102
RTVSPost2010Prop35
280
     0
102
RTVSPost2010PropOp35
 70
     1
102
RTVSPost2010Prop36
280
     0
102
RTVSPost2010PropOp36
 70
     1
102
RTVSPost2010Prop37
 90
       50
102
RTVSPost2010PropOp37
 70
     1
102
RTVSPost2010Prop38
140
0.0
102
RTVSPost2010PropOp38
 70
     1
102
RTVSPost2010Prop39
140
1.0
102
RTVSPost2010PropOp39
 70
     1
102
RTVSPost2010Prop40
 90
        0
102
RTVSPost2010PropOp40
 70
     1
102
RTVSPost2010Prop41ColorIndex
 90
       18
102
RTVSPost2010Prop41ColorRGB
 90
        0
102
RTVSPost2010PropOp41
 70
     1
102
RTVSPost2010Prop42
 90
       50
102
RTVSPost2010PropOp42
 70
     1
102
RTVSPost2010Prop43
 90
        3
102
RTVSPost2010PropOp43
 70
     1
102
RTVSPost2010Prop44ColorIndex
 90
        5
102
RTVSPost2010Prop44ColorRGB
 90
      255
102
RTVSPost2010PropOp44
 70
     1
102
RTVSPost2010Prop45
280
     0
102
RTVSPost2010PropOp45
 70
     1
102
RTVSPost2010Prop46
 90
       50
102
RTVSPost2010PropOp46
 70
     1
102
RTVSPost2010Prop47
 90
       50
102
RTVSPost2010PropOp47
 70
     1
102
RTVSPost2010Prop48
 90
       50
102
RTVSPost2010PropOp48
 70
     1
102
RTVSPost2010Prop49
280
     0
102
RTVSPost2010PropOp49
 70
     1
102
RTVSPost2010Prop50
 90
       50
102
RTVSPost2010PropOp50
 70
     1
102
RTVSPost2010Prop51ColorIndex
 90
      256
102
RTVSPost2010Prop51ColorRGB
 90
-16777216
102
RTVSPost2010PropOp51
 70
     0
102
RTVSPost2010Prop52
140
1.0
102
RTVSPost2010PropOp52
 70
     0
102
RTVSPost2010Prop53
 90
        2
102
RTVSPost2010PropOp53
 70
     1
102
RTVSPost2010Prop54
  1
strokes_ogs.tif
102
RTVSPost2010PropOp54
 70
     1
102
RTVSPost2010Prop55
280
     0
102
RTVSPost2010PropOp55
 70
     1
102
RTVSPost2010Prop56
140
1.0
102
RTVSPost2010PropOp56
 70
     1
102
RTVSPost2010Prop57
140
1.0
102
RTVSPost2010PropOp57
 70
     1
102
RTVSPropertyOp0
 70
     1
102
RTVSPropertyOp1
 70
     1
102
RTVSPropertyOp2
 70
     1
102
RTVSPropertyOp3
 70
     1
102
RTVSPropertyOp4
 70
     1
102
RTVSPropertyOp5
 70
     1
102
RTVSPropertyOp6
 70
     1
102
RTVSPropertyOp7
 70
     1
102
RTVSPropertyOp8
 70
     1
102
RTVSPropertyOp9
 70
     1
102
RTVSPropertyOp10
 70
     1
102
RTVSPropertyOp11
 70
     1
102
RTVSPropertyOp12
 70
     1
102
RTVSPropertyOp13
 70
     1
102
RTVSPropertyOp14
 70
     1
102
RTVSPropertyOp15
 70
     1
102
RTVSPropertyOp16
 70
     1
102
RTVSPropertyOp17
 70
     1
102
RTVSPropertyOp18
 70
     1
102
RTVSPropertyOp19
 70
     1
102
RTVSPropertyOp20
 70
     1
102
RTVSPropertyOp21
 70
     1
102
RTVSPropertyOp22
 70
     1
102
RTVSPropertyOp23
 70
     1
102
RTVSPropertyOp24
 70
     1
102
RTVSPropertyOp25
 70
     1
102
RTVSPropertyOp26
 70
     1
102
RTVSPropertyOp27
 70
     1
102
RTVSPropertyOp28
 70
     1
102
RTVSPropertyOp29
 70
     1
102
RTVSPropertyOp30
 70
     1
102
RTVSPropertyOp31
 70
     1
102
RTVSPropertyOp32
 70
     1
102
RTVSPropertyOp33
 70
     1
102
RTVSPropertyOp34
 70
     1
102
RTVSPropertyOp35
 70
     1
102
RTVSPropertyOp36
 70
     1
102
RTVSPropertyOp37
 70
     1
102
RTVSPropertyOp38
 70
     1
102
RTVSPropertyOp39
 70
     1
102
RTVSPropertyOp40
 70
     1
102
RTVSPropertyOp41
 70
     1
102
RTVSPropertyOp42
 70
     1
102
RTVSPropertyOp43
 70
     1
102
RTVSPropertyOp44
 70
     1
102
RTVSPropertyOp45
 70
     1
102
RTVSPropertyOp46
 70
     1
102
RTVSPropertyOp47
 70
     1
102
RTVSPropertyOp48
 70
     1
102
RTVSPropertyOp49
 70
     1
102
RTVSPropertyOp50
 70
     1
102
RTVSPropertyOp51
 70
     0
102
RTVSPropertyOp52
 70
     0
102
RTVSPropertyOp53
 70
     1
102
RTVSPropertyOp54
 70
     1
102
RTVSPropertyOp55
 70
     1
102
RTVSPropertyOp56
 70
     1
102
RTVSPropertyOp57
 70
     1
102
RTVSPropertyOp58
 70
     1
102
RTVSPropertyOp59
 70
     1
102
RTVSPropertyOp60
 70
     1
102
RTVSPropertyOp61
 70
     1
102
RTVSPropertyOp62
 70
     1
  0
XRECORD
  5
554
102
{ACAD_REACTORS
330
553
102
}
330
553
100
AcDbXrecord
280
     1
102
RTVSPost2010Prop28
280
     0
102
RTVSPost2010PropOp28
 70
     1
102
RTVSPost2010Prop29
280
     1
102
RTVSPost2010PropOp29
 70
     1
102
RTVSPost2010Prop30
280
     1
102
RTVSPost2010PropOp30
 70
     1
102
RTVSPost2010Prop31
280
     0
102
RTVSPost2010PropOp31
 70
     1
102
RTVSPost2010Prop32
280
     0
102
RTVSPost2010PropOp32
 70
     1
102
RTVSPost2010Prop33
280
     0
102
RTVSPost2010PropOp33
 70
     1
102
RTVSPost2010Prop34
280
     0
102
RTVSPost2010PropOp34
 70
     1
102
RTVSPost2010Prop35
280
     0
102
RTVSPost2010PropOp35
 70
     1
102
RTVSPost2010Prop36
280
     0
102
RTVSPost2010PropOp36
 70
     1
102
RTVSPost2010Prop37
 90
       50
102
RTVSPost2010PropOp37
 70
     1
102
RTVSPost2010Prop38
140
0.0
102
RTVSPost2010PropOp38
 70
     1
102
RTVSPost2010Prop39
140
1.0
102
RTVSPost2010PropOp39
 70
     1
102
RTVSPost2010Prop40
 90
        0
102
RTVSPost2010PropOp40
 70
     1
102
RTVSPost2010Prop41ColorIndex
 90
       18
102
RTVSPost2010Prop41ColorRGB
 90
        0
102
RTVSPost2010PropOp41
 70
     1
102
RTVSPost2010Prop42
 90
       50
102
RTVSPost2010PropOp42
 70
     1
102
RTVSPost2010Prop43
 90
        3
102
RTVSPost2010PropOp43
 70
     1
102
RTVSPost2010Prop44ColorIndex
 90
        5
102
RTVSPost2010Prop44ColorRGB
 90
      255
102
RTVSPost2010PropOp44
 70
     1
102
RTVSPost2010Prop45
280
     0
102
RTVSPost2010PropOp45
 70
     1
102
RTVSPost2010Prop46
 90
       50
102
RTVSPost2010PropOp46
 70
     1
102
RTVSPost2010Prop47
 90
       50
102
RTVSPost2010PropOp47
 70
     1
102
RTVSPost2010Prop48
 90
       50
102
RTVSPost2010PropOp48
 70
     1
102
RTVSPost2010Prop49
280
     0
102
RTVSPost2010PropOp49
 70
     1
102
RTVSPost2010Prop50
 90
       50
102
RTVSPost2010PropOp50
 70
     1
102
RTVSPost2010Prop51ColorIndex
 90
      256
102
RTVSPost2010Prop51ColorRGB
 90
-16777216
102
RTVSPost2010PropOp51
 70
     0
102
RTVSPost2010Prop52
140
1.0
102
RTVSPost2010PropOp52
 70
     0
102
RTVSPost2010Prop53
 90
        2
102
RTVSPost2010PropOp53
 70
     1
102
RTVSPost2010Prop54
  1
strokes_ogs.tif
102
RTVSPost2010PropOp54
 70
     1
102
RTVSPost2010Prop55
280
     0
102
RTVSPost2010PropOp55
 70
     1
102
RTVSPost2010Prop56
140
1.0
102
RTVSPost2010PropOp56
 70
     1
102
RTVSPost2010Prop57
140
1.0
102
RTVSPost2010PropOp57
 70
     1
102
RTVSPropertyOp0
 70
     1
102
RTVSPropertyOp1
 70
     1
102
RTVSPropertyOp2
 70
     1
102
RTVSPropertyOp3
 70
     1
102
RTVSPropertyOp4
 70
     1
102
RTVSPropertyOp5
 70
     1
102
RTVSPropertyOp6
 70
     1
102
RTVSPropertyOp7
 70
     1
102
RTVSPropertyOp8
 70
     1
102
RTVSPropertyOp9
 70
     1
102
RTVSPropertyOp10
 70
     1
102
RTVSPropertyOp11
 70
     1
102
RTVSPropertyOp12
 70
     1
102
RTVSPropertyOp13
 70
     1
102
RTVSPropertyOp14
 70
     1
102
RTVSPropertyOp15
 70
     1
102
RTVSPropertyOp16
 70
     1
102
RTVSPropertyOp17
 70
     1
102
RTVSPropertyOp18
 70
     1
102
RTVSPropertyOp19
 70
     1
102
RTVSPropertyOp20
 70
     1
102
RTVSPropertyOp21
 70
     1
102
RTVSPropertyOp22
 70
     1
102
RTVSPropertyOp23
 70
     1
102
RTVSPropertyOp24
 70
     1
102
RTVSPropertyOp25
 70
     1
102
RTVSPropertyOp26
 70
     1
102
RTVSPropertyOp27
 70
     1
102
RTVSPropertyOp28
 70
     1
102
RTVSPropertyOp29
 70
     1
102
RTVSPropertyOp30
 70
     1
102
RTVSPropertyOp31
 70
     1
102
RTVSPropertyOp32
 70
     1
102
RTVSPropertyOp33
 70
     1
102
RTVSPropertyOp34
 70
     1
102
RTVSPropertyOp35
 70
     1
102
RTVSPropertyOp36
 70
     1
102
RTVSPropertyOp37
 70
     1
102
RTVSPropertyOp38
 70
     1
102
RTVSPropertyOp39
 70
     1
102
RTVSPropertyOp40
 70
     1
102
RTVSPropertyOp41
 70
     1
102
RTVSPropertyOp42
 70
     1
102
RTVSPropertyOp43
 70
     1
102
RTVSPropertyOp44
 70
     1
102
RTVSPropertyOp45
 70
     1
102
RTVSPropertyOp46
 70
     1
102
RTVSPropertyOp47
 70
     1
102
RTVSPropertyOp48
 70
     1
102
RTVSPropertyOp49
 70
     1
102
RTVSPropertyOp50
 70
     1
102
RTVSPropertyOp51
 70
     0
102
RTVSPropertyOp52
 70
     0
102
RTVSPropertyOp53
 70
     1
102
RTVSPropertyOp54
 70
     1
102
RTVSPropertyOp55
 70
     1
102
RTVSPropertyOp56
 70
     1
102
RTVSPropertyOp57
 70
     1
102
RTVSPropertyOp58
 70
     1
102
RTVSPropertyOp59
 70
     1
102
RTVSPropertyOp60
 70
     1
102
RTVSPropertyOp61
 70
     1
102
RTVSPropertyOp62
 70
     1
  0
XRECORD
  5
556
102
{ACAD_REACTORS
330
555
102
}
330
555
100
AcDbXrecord
280
     1
102
RTVSPost2010Prop28
280
     0
102
RTVSPost2010PropOp28
 70
     1
102
RTVSPost2010Prop29
280
     1
102
RTVSPost2010PropOp29
 70
     1
102
RTVSPost2010Prop30
280
     1
102
RTVSPost2010PropOp30
 70
     1
102
RTVSPost2010Prop31
280
     0
102
RTVSPost2010PropOp31
 70
     1
102
RTVSPost2010Prop32
280
     0
102
RTVSPost2010PropOp32
 70
     1
102
RTVSPost2010Prop33
280
     0
102
RTVSPost2010PropOp33
 70
     1
102
RTVSPost2010Prop34
280
     0
102
RTVSPost2010PropOp34
 70
     1
102
RTVSPost2010Prop35
280
     0
102
RTVSPost2010PropOp35
 70
     1
102
RTVSPost2010Prop36
280
     0
102
RTVSPost2010PropOp36
 70
     1
102
RTVSPost2010Prop37
 90
       50
102
RTVSPost2010PropOp37
 70
     1
102
RTVSPost2010Prop38
140
0.0
102
RTVSPost2010PropOp38
 70
     1
102
RTVSPost2010Prop39
140
1.0
102
RTVSPost2010PropOp39
 70
     1
102
RTVSPost2010Prop40
 90
        0
102
RTVSPost2010PropOp40
 70
     1
102
RTVSPost2010Prop41ColorIndex
 90
       18
102
RTVSPost2010Prop41ColorRGB
 90
        0
102
RTVSPost2010PropOp41
 70
     1
102
RTVSPost2010Prop42
 90
       50
102
RTVSPost2010PropOp42
 70
     1
102
RTVSPost2010Prop43
 90
        3
102
RTVSPost2010PropOp43
 70
     1
102
RTVSPost2010Prop44ColorIndex
 90
        5
102
RTVSPost2010Prop44ColorRGB
 90
      255
102
RTVSPost2010PropOp44
 70
     1
102
RTVSPost2010Prop45
280
     0
102
RTVSPost2010PropOp45
 70
     1
102
RTVSPost2010Prop46
 90
       50
102
RTVSPost2010PropOp46
 70
     1
102
RTVSPost2010Prop47
 90
       50
102
RTVSPost2010PropOp47
 70
     1
102
RTVSPost2010Prop48
 90
       50
102
RTVSPost2010PropOp48
 70
     1
102
RTVSPost2010Prop49
280
     0
102
RTVSPost2010PropOp49
 70
     1
102
RTVSPost2010Prop50
 90
       50
102
RTVSPost2010PropOp50
 70
     1
102
RTVSPost2010Prop51ColorIndex
 90
      256
102
RTVSPost2010Prop51ColorRGB
 90
-16777216
102
RTVSPost2010PropOp51
 70
     0
102
RTVSPost2010Prop52
140
1.0
102
RTVSPost2010PropOp52
 70
     0
102
RTVSPost2010Prop53
 90
        2
102
RTVSPost2010PropOp53
 70
     1
102
RTVSPost2010Prop54
  1
strokes_ogs.tif
102
RTVSPost2010PropOp54
 70
     1
102
RTVSPost2010Prop55
280
     0
102
RTVSPost2010PropOp55
 70
     1
102
RTVSPost2010Prop56
140
1.0
102
RTVSPost2010PropOp56
 70
     1
102
RTVSPost2010Prop57
140
1.0
102
RTVSPost2010PropOp57
 70
     1
102
RTVSPropertyOp0
 70
     1
102
RTVSPropertyOp1
 70
     1
102
RTVSPropertyOp2
 70
     1
102
RTVSPropertyOp3
 70
     1
102
RTVSPropertyOp4
 70
     1
102
RTVSPropertyOp5
 70
     1
102
RTVSPropertyOp6
 70
     1
102
RTVSPropertyOp7
 70
     1
102
RTVSPropertyOp8
 70
     1
102
RTVSPropertyOp9
 70
     1
102
RTVSPropertyOp10
 70
     1
102
RTVSPropertyOp11
 70
     1
102
RTVSPropertyOp12
 70
     1
102
RTVSPropertyOp13
 70
     1
102
RTVSPropertyOp14
 70
     1
102
RTVSPropertyOp15
 70
     1
102
RTVSPropertyOp16
 70
     1
102
RTVSPropertyOp17
 70
     1
102
RTVSPropertyOp18
 70
     1
102
RTVSPropertyOp19
 70
     1
102
RTVSPropertyOp20
 70
     1
102
RTVSPropertyOp21
 70
     1
102
RTVSPropertyOp22
 70
     1
102
RTVSPropertyOp23
 70
     1
102
RTVSPropertyOp24
 70
     1
102
RTVSPropertyOp25
 70
     1
102
RTVSPropertyOp26
 70
     1
102
RTVSPropertyOp27
 70
     1
102
RTVSPropertyOp28
 70
     1
102
RTVSPropertyOp29
 70
     1
102
RTVSPropertyOp30
 70
     1
102
RTVSPropertyOp31
 70
     1
102
RTVSPropertyOp32
 70
     1
102
RTVSPropertyOp33
 70
     1
102
RTVSPropertyOp34
 70
     1
102
RTVSPropertyOp35
 70
     1
102
RTVSPropertyOp36
 70
     1
102
RTVSPropertyOp37
 70
     1
102
RTVSPropertyOp38
 70
     1
102
RTVSPropertyOp39
 70
     1
102
RTVSPropertyOp40
 70
     1
102
RTVSPropertyOp41
 70
     1
102
RTVSPropertyOp42
 70
     1
102
RTVSPropertyOp43
 70
     1
102
RTVSPropertyOp44
 70
     1
102
RTVSPropertyOp45
 70
     1
102
RTVSPropertyOp46
 70
     1
102
RTVSPropertyOp47
 70
     1
102
RTVSPropertyOp48
 70
     1
102
RTVSPropertyOp49
 70
     1
102
RTVSPropertyOp50
 70
     1
102
RTVSPropertyOp51
 70
     0
102
RTVSPropertyOp52
 70
     0
102
RTVSPropertyOp53
 70
     1
102
RTVSPropertyOp54
 70
     1
102
RTVSPropertyOp55
 70
     1
102
RTVSPropertyOp56
 70
     1
102
RTVSPropertyOp57
 70
     1
102
RTVSPropertyOp58
 70
     1
102
RTVSPropertyOp59
 70
     1
102
RTVSPropertyOp60
 70
     1
102
RTVSPropertyOp61
 70
     1
102
RTVSPropertyOp62
 70
     1
  0
XRECORD
  5
54C
102
{ACAD_REACTORS
330
54B
102
}
330
54B
100
AcDbXrecord
280
     1
102
RTVSPost2010Prop28
280
     0
102
RTVSPost2010PropOp28
 70
     1
102
RTVSPost2010Prop29
280
     1
102
RTVSPost2010PropOp29
 70
     1
102
RTVSPost2010Prop30
280
     1
102
RTVSPost2010PropOp30
 70
     1
102
RTVSPost2010Prop31
280
     0
102
RTVSPost2010PropOp31
 70
     1
102
RTVSPost2010Prop32
280
     0
102
RTVSPost2010PropOp32
 70
     1
102
RTVSPost2010Prop33
280
     0
102
RTVSPost2010PropOp33
 70
     1
102
RTVSPost2010Prop34
280
     0
102
RTVSPost2010PropOp34
 70
     1
102
RTVSPost2010Prop35
280
     0
102
RTVSPost2010PropOp35
 70
     1
102
RTVSPost2010Prop36
280
     0
102
RTVSPost2010PropOp36
 70
     1
102
RTVSPost2010Prop37
 90
       50
102
RTVSPost2010PropOp37
 70
     1
102
RTVSPost2010Prop38
140
0.0
102
RTVSPost2010PropOp38
 70
     1
102
RTVSPost2010Prop39
140
1.0
102
RTVSPost2010PropOp39
 70
     1
102
RTVSPost2010Prop40
 90
        0
102
RTVSPost2010PropOp40
 70
     1
102
RTVSPost2010Prop41ColorIndex
 90
       18
102
RTVSPost2010Prop41ColorRGB
 90
        0
102
RTVSPost2010PropOp41
 70
     1
102
RTVSPost2010Prop42
 90
       50
102
RTVSPost2010PropOp42
 70
     1
102
RTVSPost2010Prop43
 90
        3
102
RTVSPost2010PropOp43
 70
     1
102
RTVSPost2010Prop44ColorIndex
 90
        5
102
RTVSPost2010Prop44ColorRGB
 90
      255
102
RTVSPost2010PropOp44
 70
     1
102
RTVSPost2010Prop45
280
     0
102
RTVSPost2010PropOp45
 70
     1
102
RTVSPost2010Prop46
 90
       50
102
RTVSPost2010PropOp46
 70
     1
102
RTVSPost2010Prop47
 90
       50
102
RTVSPost2010PropOp47
 70
     1
102
RTVSPost2010Prop48
 90
       50
102
RTVSPost2010PropOp48
 70
     1
102
RTVSPost2010Prop49
280
     0
102
RTVSPost2010PropOp49
 70
     1
102
RTVSPost2010Prop50
 90
       50
102
RTVSPost2010PropOp50
 70
     1
102
RTVSPost2010Prop51ColorIndex
 90
      256
102
RTVSPost2010Prop51ColorRGB
 90
-16777216
102
RTVSPost2010PropOp51
 70
     0
102
RTVSPost2010Prop52
140
1.0
102
RTVSPost2010PropOp52
 70
     0
102
RTVSPost2010Prop53
 90
        2
102
RTVSPost2010PropOp53
 70
     1
102
RTVSPost2010Prop54
  1
strokes_ogs.tif
102
RTVSPost2010PropOp54
 70
     1
102
RTVSPost2010Prop55
280
     0
102
RTVSPost2010PropOp55
 70
     1
102
RTVSPost2010Prop56
140
1.0
102
RTVSPost2010PropOp56
 70
     1
102
RTVSPost2010Prop57
140
1.0
102
RTVSPost2010PropOp57
 70
     1
102
RTVSPropertyOp0
 70
     1
102
RTVSPropertyOp1
 70
     1
102
RTVSPropertyOp2
 70
     1
102
RTVSPropertyOp3
 70
     1
102
RTVSPropertyOp4
 70
     1
102
RTVSPropertyOp5
 70
     1
102
RTVSPropertyOp6
 70
     1
102
RTVSPropertyOp7
 70
     1
102
RTVSPropertyOp8
 70
     1
102
RTVSPropertyOp9
 70
     1
102
RTVSPropertyOp10
 70
     1
102
RTVSPropertyOp11
 70
     1
102
RTVSPropertyOp12
 70
     1
102
RTVSPropertyOp13
 70
     1
102
RTVSPropertyOp14
 70
     1
102
RTVSPropertyOp15
 70
     1
102
RTVSPropertyOp16
 70
     1
102
RTVSPropertyOp17
 70
     1
102
RTVSPropertyOp18
 70
     1
102
RTVSPropertyOp19
 70
     1
102
RTVSPropertyOp20
 70
     1
102
RTVSPropertyOp21
 70
     1
102
RTVSPropertyOp22
 70
     1
102
RTVSPropertyOp23
 70
     1
102
RTVSPropertyOp24
 70
     1
102
RTVSPropertyOp25
 70
     1
102
RTVSPropertyOp26
 70
     1
102
RTVSPropertyOp27
 70
     1
102
RTVSPropertyOp28
 70
     1
102
RTVSPropertyOp29
 70
     1
102
RTVSPropertyOp30
 70
     1
102
RTVSPropertyOp31
 70
     1
102
RTVSPropertyOp32
 70
     1
102
RTVSPropertyOp33
 70
     1
102
RTVSPropertyOp34
 70
     1
102
RTVSPropertyOp35
 70
     1
102
RTVSPropertyOp36
 70
     1
102
RTVSPropertyOp37
 70
     1
102
RTVSPropertyOp38
 70
     1
102
RTVSPropertyOp39
 70
     1
102
RTVSPropertyOp40
 70
     1
102
RTVSPropertyOp41
 70
     1
102
RTVSPropertyOp42
 70
     1
102
RTVSPropertyOp43
 70
     1
102
RTVSPropertyOp44
 70
     1
102
RTVSPropertyOp45
 70
     1
102
RTVSPropertyOp46
 70
     1
102
RTVSPropertyOp47
 70
     1
102
RTVSPropertyOp48
 70
     1
102
RTVSPropertyOp49
 70
     1
102
RTVSPropertyOp50
 70
     1
102
RTVSPropertyOp51
 70
     0
102
RTVSPropertyOp52
 70
     0
102
RTVSPropertyOp53
 70
     1
102
RTVSPropertyOp54
 70
     1
102
RTVSPropertyOp55
 70
     1
102
RTVSPropertyOp56
 70
     1
102
RTVSPropertyOp57
 70
     1
102
RTVSPropertyOp58
 70
     1
102
RTVSPropertyOp59
 70
     1
102
RTVSPropertyOp60
 70
     1
102
RTVSPropertyOp61
 70
     1
102
RTVSPropertyOp62
 70
     1
  0
XRECORD
  5
540
102
{ACAD_REACTORS
330
53F
102
}
330
53F
100
AcDbXrecord
280
     1
102
RTVSPost2010Prop28
280
     0
102
RTVSPost2010PropOp28
 70
     1
102
RTVSPost2010Prop29
280
     1
102
RTVSPost2010PropOp29
 70
     1
102
RTVSPost2010Prop30
280
     1
102
RTVSPost2010PropOp30
 70
     1
102
RTVSPost2010Prop31
280
     0
102
RTVSPost2010PropOp31
 70
     1
102
RTVSPost2010Prop32
280
     0
102
RTVSPost2010PropOp32
 70
     1
102
RTVSPost2010Prop33
280
     0
102
RTVSPost2010PropOp33
 70
     1
102
RTVSPost2010Prop34
280
     0
102
RTVSPost2010PropOp34
 70
     1
102
RTVSPost2010Prop35
280
     0
102
RTVSPost2010PropOp35
 70
     1
102
RTVSPost2010Prop36
280
     0
102
RTVSPost2010PropOp36
 70
     1
102
RTVSPost2010Prop37
 90
       50
102
RTVSPost2010PropOp37
 70
     1
102
RTVSPost2010Prop38
140
0.0
102
RTVSPost2010PropOp38
 70
     1
102
RTVSPost2010Prop39
140
1.0
102
RTVSPost2010PropOp39
 70
     1
102
RTVSPost2010Prop40
 90
        0
102
RTVSPost2010PropOp40
 70
     1
102
RTVSPost2010Prop41ColorIndex
 90
       18
102
RTVSPost2010Prop41ColorRGB
 90
        0
102
RTVSPost2010PropOp41
 70
     1
102
RTVSPost2010Prop42
 90
       50
102
RTVSPost2010PropOp42
 70
     1
102
RTVSPost2010Prop43
 90
        3
102
RTVSPost2010PropOp43
 70
     1
102
RTVSPost2010Prop44ColorIndex
 90
        5
102
RTVSPost2010Prop44ColorRGB
 90
      255
102
RTVSPost2010PropOp44
 70
     1
102
RTVSPost2010Prop45
280
     0
102
RTVSPost2010PropOp45
 70
     1
102
RTVSPost2010Prop46
 90
       50
102
RTVSPost2010PropOp46
 70
     1
102
RTVSPost2010Prop47
 90
       50
102
RTVSPost2010PropOp47
 70
     1
102
RTVSPost2010Prop48
 90
       50
102
RTVSPost2010PropOp48
 70
     1
102
RTVSPost2010Prop49
280
     0
102
RTVSPost2010PropOp49
 70
     1
102
RTVSPost2010Prop50
 90
       50
102
RTVSPost2010PropOp50
 70
     1
102
RTVSPost2010Prop51ColorIndex
 90
      256
102
RTVSPost2010Prop51ColorRGB
 90
-16777216
102
RTVSPost2010PropOp51
 70
     0
102
RTVSPost2010Prop52
140
1.0
102
RTVSPost2010PropOp52
 70
     0
102
RTVSPost2010Prop53
 90
        2
102
RTVSPost2010PropOp53
 70
     1
102
RTVSPost2010Prop54
  1
strokes_ogs.tif
102
RTVSPost2010PropOp54
 70
     1
102
RTVSPost2010Prop55
280
     0
102
RTVSPost2010PropOp55
 70
     1
102
RTVSPost2010Prop56
140
1.0
102
RTVSPost2010PropOp56
 70
     1
102
RTVSPost2010Prop57
140
1.0
102
RTVSPost2010PropOp57
 70
     1
102
RTVSPropertyOp0
 70
     1
102
RTVSPropertyOp1
 70
     1
102
RTVSPropertyOp2
 70
     1
102
RTVSPropertyOp3
 70
     1
102
RTVSPropertyOp4
 70
     1
102
RTVSPropertyOp5
 70
     1
102
RTVSPropertyOp6
 70
     1
102
RTVSPropertyOp7
 70
     1
102
RTVSPropertyOp8
 70
     1
102
RTVSPropertyOp9
 70
     1
102
RTVSPropertyOp10
 70
     1
102
RTVSPropertyOp11
 70
     1
102
RTVSPropertyOp12
 70
     1
102
RTVSPropertyOp13
 70
     1
102
RTVSPropertyOp14
 70
     1
102
RTVSPropertyOp15
 70
     1
102
RTVSPropertyOp16
 70
     1
102
RTVSPropertyOp17
 70
     1
102
RTVSPropertyOp18
 70
     1
102
RTVSPropertyOp19
 70
     1
102
RTVSPropertyOp20
 70
     1
102
RTVSPropertyOp21
 70
     1
102
RTVSPropertyOp22
 70
     1
102
RTVSPropertyOp23
 70
     1
102
RTVSPropertyOp24
 70
     1
102
RTVSPropertyOp25
 70
     1
102
RTVSPropertyOp26
 70
     1
102
RTVSPropertyOp27
 70
     1
102
RTVSPropertyOp28
 70
     1
102
RTVSPropertyOp29
 70
     1
102
RTVSPropertyOp30
 70
     1
102
RTVSPropertyOp31
 70
     1
102
RTVSPropertyOp32
 70
     1
102
RTVSPropertyOp33
 70
     1
102
RTVSPropertyOp34
 70
     1
102
RTVSPropertyOp35
 70
     1
102
RTVSPropertyOp36
 70
     1
102
RTVSPropertyOp37
 70
     1
102
RTVSPropertyOp38
 70
     1
102
RTVSPropertyOp39
 70
     1
102
RTVSPropertyOp40
 70
     1
102
RTVSPropertyOp41
 70
     1
102
RTVSPropertyOp42
 70
     1
102
RTVSPropertyOp43
 70
     1
102
RTVSPropertyOp44
 70
     1
102
RTVSPropertyOp45
 70
     1
102
RTVSPropertyOp46
 70
     1
102
RTVSPropertyOp47
 70
     1
102
RTVSPropertyOp48
 70
     1
102
RTVSPropertyOp49
 70
     1
102
RTVSPropertyOp50
 70
     1
102
RTVSPropertyOp51
 70
     0
102
RTVSPropertyOp52
 70
     0
102
RTVSPropertyOp53
 70
     1
102
RTVSPropertyOp54
 70
     1
102
RTVSPropertyOp55
 70
     1
102
RTVSPropertyOp56
 70
     1
102
RTVSPropertyOp57
 70
     1
102
RTVSPropertyOp58
 70
     1
102
RTVSPropertyOp59
 70
     1
102
RTVSPropertyOp60
 70
     1
102
RTVSPropertyOp61
 70
     1
102
RTVSPropertyOp62
 70
     1
  0
XRECORD
  5
558
102
{ACAD_REACTORS
330
557
102
}
330
557
100
AcDbXrecord
280
     1
102
RTVSPost2010Prop28
280
     0
102
RTVSPost2010PropOp28
 70
     1
102
RTVSPost2010Prop29
280
     1
102
RTVSPost2010PropOp29
 70
     1
102
RTVSPost2010Prop30
280
     1
102
RTVSPost2010PropOp30
 70
     1
102
RTVSPost2010Prop31
280
     0
102
RTVSPost2010PropOp31
 70
     1
102
RTVSPost2010Prop32
280
     0
102
RTVSPost2010PropOp32
 70
     1
102
RTVSPost2010Prop33
280
     0
102
RTVSPost2010PropOp33
 70
     1
102
RTVSPost2010Prop34
280
     0
102
RTVSPost2010PropOp34
 70
     1
102
RTVSPost2010Prop35
280
     0
102
RTVSPost2010PropOp35
 70
     1
102
RTVSPost2010Prop36
280
     0
102
RTVSPost2010PropOp36
 70
     1
102
RTVSPost2010Prop37
 90
       50
102
RTVSPost2010PropOp37
 70
     1
102
RTVSPost2010Prop38
140
0.0
102
RTVSPost2010PropOp38
 70
     1
102
RTVSPost2010Prop39
140
1.0
102
RTVSPost2010PropOp39
 70
     1
102
RTVSPost2010Prop40
 90
        0
102
RTVSPost2010PropOp40
 70
     1
102
RTVSPost2010Prop41ColorIndex
 90
       18
102
RTVSPost2010Prop41ColorRGB
 90
        0
102
RTVSPost2010PropOp41
 70
     1
102
RTVSPost2010Prop42
 90
       50
102
RTVSPost2010PropOp42
 70
     1
102
RTVSPost2010Prop43
 90
        3
102
RTVSPost2010PropOp43
 70
     1
102
RTVSPost2010Prop44ColorIndex
 90
        5
102
RTVSPost2010Prop44ColorRGB
 90
      255
102
RTVSPost2010PropOp44
 70
     1
102
RTVSPost2010Prop45
280
     0
102
RTVSPost2010PropOp45
 70
     1
102
RTVSPost2010Prop46
 90
       50
102
RTVSPost2010PropOp46
 70
     1
102
RTVSPost2010Prop47
 90
       50
102
RTVSPost2010PropOp47
 70
     1
102
RTVSPost2010Prop48
 90
       50
102
RTVSPost2010PropOp48
 70
     1
102
RTVSPost2010Prop49
280
     0
102
RTVSPost2010PropOp49
 70
     1
102
RTVSPost2010Prop50
 90
       50
102
RTVSPost2010PropOp50
 70
     1
102
RTVSPost2010Prop51ColorIndex
 90
      256
102
RTVSPost2010Prop51ColorRGB
 90
-16777216
102
RTVSPost2010PropOp51
 70
     0
102
RTVSPost2010Prop52
140
1.0
102
RTVSPost2010PropOp52
 70
     0
102
RTVSPost2010Prop53
 90
        2
102
RTVSPost2010PropOp53
 70
     1
102
RTVSPost2010Prop54
  1
strokes_ogs.tif
102
RTVSPost2010PropOp54
 70
     1
102
RTVSPost2010Prop55
280
     0
102
RTVSPost2010PropOp55
 70
     1
102
RTVSPost2010Prop56
140
1.0
102
RTVSPost2010PropOp56
 70
     1
102
RTVSPost2010Prop57
140
1.0
102
RTVSPost2010PropOp57
 70
     1
102
RTVSPropertyOp0
 70
     1
102
RTVSPropertyOp1
 70
     1
102
RTVSPropertyOp2
 70
     1
102
RTVSPropertyOp3
 70
     1
102
RTVSPropertyOp4
 70
     1
102
RTVSPropertyOp5
 70
     1
102
RTVSPropertyOp6
 70
     1
102
RTVSPropertyOp7
 70
     1
102
RTVSPropertyOp8
 70
     1
102
RTVSPropertyOp9
 70
     1
102
RTVSPropertyOp10
 70
     1
102
RTVSPropertyOp11
 70
     1
102
RTVSPropertyOp12
 70
     1
102
RTVSPropertyOp13
 70
     1
102
RTVSPropertyOp14
 70
     1
102
RTVSPropertyOp15
 70
     1
102
RTVSPropertyOp16
 70
     1
102
RTVSPropertyOp17
 70
     1
102
RTVSPropertyOp18
 70
     1
102
RTVSPropertyOp19
 70
     1
102
RTVSPropertyOp20
 70
     1
102
RTVSPropertyOp21
 70
     1
102
RTVSPropertyOp22
 70
     1
102
RTVSPropertyOp23
 70
     1
102
RTVSPropertyOp24
 70
     1
102
RTVSPropertyOp25
 70
     1
102
RTVSPropertyOp26
 70
     1
102
RTVSPropertyOp27
 70
     1
102
RTVSPropertyOp28
 70
     1
102
RTVSPropertyOp29
 70
     1
102
RTVSPropertyOp30
 70
     1
102
RTVSPropertyOp31
 70
     1
102
RTVSPropertyOp32
 70
     1
102
RTVSPropertyOp33
 70
     1
102
RTVSPropertyOp34
 70
     1
102
RTVSPropertyOp35
 70
     1
102
RTVSPropertyOp36
 70
     1
102
RTVSPropertyOp37
 70
     1
102
RTVSPropertyOp38
 70
     1
102
RTVSPropertyOp39
 70
     1
102
RTVSPropertyOp40
 70
     1
102
RTVSPropertyOp41
 70
     1
102
RTVSPropertyOp42
 70
     1
102
RTVSPropertyOp43
 70
     1
102
RTVSPropertyOp44
 70
     1
102
RTVSPropertyOp45
 70
     1
102
RTVSPropertyOp46
 70
     1
102
RTVSPropertyOp47
 70
     1
102
RTVSPropertyOp48
 70
     1
102
RTVSPropertyOp49
 70
     1
102
RTVSPropertyOp50
 70
     1
102
RTVSPropertyOp51
 70
     0
102
RTVSPropertyOp52
 70
     0
102
RTVSPropertyOp53
 70
     1
102
RTVSPropertyOp54
 70
     1
102
RTVSPropertyOp55
 70
     1
102
RTVSPropertyOp56
 70
     1
102
RTVSPropertyOp57
 70
     1
102
RTVSPropertyOp58
 70
     1
102
RTVSPropertyOp59
 70
     1
102
RTVSPropertyOp60
 70
     1
102
RTVSPropertyOp61
 70
     1
102
RTVSPropertyOp62
 70
     1
  0
ENDSEC
  0
EOF
