0
SECTION
2
HEADER
9
$ACADVER
1
AC1015
9
$DWGCODEPAGE
3
ANSI_1252
9
$HANDSEED
5
291
9
$ANGBASE
50
0
9
$ANGDIR
70
0
9
$ATTMODE
70
1
9
$AUNITS
70
0
9
$AUPREC
70
0
9
$CECOLOR
62
256
9
$CELTSCALE
40
1
9
$CELTYPE
6
ByLayer
9
$CELWEIGHT
370
18
9
$CLAYER
8
0
9
$CMLJUST
70
0
9
$CMLSCALE
40
1
9
$CMLSTYLE
2
Standard
9
$DIMSTYLE
2
Standard
9
$TEXTSIZE
40
0.2
9
$TEXTSTYLE
7
Standard
9
$LUNITS
70
2
9
$LUPREC
70
4
9
$EXTNAMES
290
1
9
$INSUNITS
70
4
9
$LTSCALE
40
1
9
$LWDISPLAY
290
1
9
$PDMODE
70
0
9
$PDSIZE
40
0
9
$PLINEGEN
70
0
0
ENDSEC
0
SECTION
2
CLASSES
0
CLASS
1
RASTERVARIABLES
2
AcDbRasterVariables
3
ISM
90
0
280
0
281
0
0
ENDSEC
0
SECTION
2
TABLES
0
TABLE
2
VPORT
5
287
100
AcDbSymbolTable
0
VPORT
5
1
100
AcDbSymbolTableRecord
100
AcDbViewportTableRecord
2
*Active
70
0
10
0
20
0
11
1
21
1
12
-1
22
1
13
0
23
0
14
0.5
24
0.5
15
10
25
10
16
0
26
0
36
1
17
0
27
0
37
0
0
ENDTAB
0
TABLE
2
LTYPE
5
288
100
AcDbSymbolTable
0
LTYPE
5
14
100
AcDbSymbolTableRecord
100
AcDbLinetypeTableRecord
70
0
2
ByBlock
3

72
65
73
0
40
0
0
LTYPE
5
15
100
AcDbSymbolTableRecord
100
AcDbLinetypeTableRecord
70
0
2
ByLayer
3

72
65
73
0
40
0
0
LTYPE
5
16
100
AcDbSymbolTableRecord
100
AcDbLinetypeTableRecord
70
0
2
CONTINUOUS
3
Solid line
72
65
73
0
40
0
0
LTYPE
5
6A
100
AcDbSymbolTableRecord
100
AcDbLinetypeTableRecord
70
0
2
CENTER
3
____ _ ____ _ ____ _ ____
72
65
73
4
40
47.5
49
22
74
0
49
-8.5
74
0
49
8.5
74
0
49
-8.5
74
0
0
LTYPE
5
6B
100
AcDbSymbolTableRecord
100
AcDbLinetypeTableRecord
70
0
2
DASHED
3
__ __ __ __ __ __ __ __ __
72
65
73
2
40
25.72
49
12.86
74
0
49
-12.86
74
0
0
ENDTAB
0
TABLE
2
LAYER
5
289
100
AcDbSymbolTable
0
LAYER
5
10
100
AcDbSymbolTableRecord
100
AcDbLayerTableRecord
2
0
70
0
62
7
6
CONTINUOUS
290
1
370
-3
390
0
0
LAYER
5
6D
100
AcDbSymbolTableRecord
100
AcDbLayerTableRecord
2
80
70
0
62
-6
6
CONTINUOUS
290
1
370
-3
390
0
0
LAYER
5
6F
100
AcDbSymbolTableRecord
100
AcDbLayerTableRecord
2
81
70
0
62
-3
6
CONTINUOUS
290
1
370
-3
390
0
0
LAYER
5
71
100
AcDbSymbolTableRecord
100
AcDbLayerTableRecord
2
1
70
0
62
4
6
CONTINUOUS
290
1
370
-3
390
0
0
LAYER
5
FC
100
AcDbSymbolTableRecord
100
AcDbLayerTableRecord
2
4
70
0
62
-2
6
CENTER
290
1
370
-3
390
0
0
LAYER
5
272
100
AcDbSymbolTableRecord
100
AcDbLayerTableRecord
2
SK1
70
0
62
4
6
CONTINUOUS
290
1
370
-3
390
0
0
LAYER
5
273
100
AcDbSymbolTableRecord
100
AcDbLayerTableRecord
2
SK4
70
0
62
2
6
CENTER
290
1
370
-3
390
0
0
LAYER
5
274
100
AcDbSymbolTableRecord
100
AcDbLayerTableRecord
2
SK6
70
0
62
5
6
CONTINUOUS
290
1
370
-3
390
0
0
LAYER
5
275
100
AcDbSymbolTableRecord
100
AcDbLayerTableRecord
2
2L
70
0
62
7
6
CONTINUOUS
290
1
370
-3
390
0
0
LAYER
5
276
100
AcDbSymbolTableRecord
100
AcDbLayerTableRecord
2
SK2
70
0
62
7
6
CONTINUOUS
290
1
370
-3
390
0
0
ENDTAB
0
TABLE
2
STYLE
5
28a
100
AcDbSymbolTable
0
STYLE
5
11
100
AcDbSymbolTableRecord
100
AcDbTextStyleTableRecord
2
Standard
3
txt
70
0
71
0
40
0
41
1
42
0
50
0
0
STYLE
5
1D3
100
AcDbSymbolTableRecord
100
AcDbTextStyleTableRecord
2
iso-1
3
isocp.shx
70
0
71
0
40
0
41
1
42
0
50
0
0
STYLE
5
1D4
100
AcDbSymbolTableRecord
100
AcDbTextStyleTableRecord
2
DWGDirectTextStyle
3
isocp
70
0
71
0
40
0
41
1
42
0
50
0
0
ENDTAB
0
TABLE
2
DIMSTYLE
5
28b
100
AcDbSymbolTable
100
AcDbDimStyleTable
0
DIMSTYLE
105
27
100
AcDbSymbolTableRecord
100
AcDbDimStyleTableRecord
2
Standard
70
0
3
<>
41
0.18
42
0.0625
44
0.18
140
0.18
147
0.09
73
0
74
0
77
1
271
2
275
0
278
52
280
0
340
11
0
ENDTAB
0
TABLE
2
VIEW
5
28c
100
AcDbSymbolTable
0
ENDTAB
0
TABLE
2
UCS
5
28d
100
AcDbSymbolTable
0
ENDTAB
0
TABLE
2
APPID
5
28e
100
AcDbSymbolTable
0
APPID
5
12
100
AcDbSymbolTableRecord
100
AcDbRegAppTableRecord
2
ACAD
70
0
0
ENDTAB
0
TABLE
2
BLOCK_RECORD
5
28f
100
AcDbSymbolTable
0
BLOCK_RECORD
5
1F
100
AcDbSymbolTableRecord
100
AcDbBlockTableRecord
2
*Model_Space
340
0
70
0
0
BLOCK_RECORD
5
1B
100
AcDbSymbolTableRecord
100
AcDbBlockTableRecord
2
*Paper_Space
340
0
70
0
0
BLOCK_RECORD
5
23
100
AcDbSymbolTableRecord
100
AcDbBlockTableRecord
2
*Paper_Space0
340
0
70
0
0
BLOCK_RECORD
5
1D6
100
AcDbSymbolTableRecord
100
AcDbBlockTableRecord
2
DimnDraft3D11
340
0
70
0
0
BLOCK_RECORD
5
1E7
100
AcDbSymbolTableRecord
100
AcDbBlockTableRecord
2
DimnDraft3D22
340
0
70
0
0
BLOCK_RECORD
5
1F8
100
AcDbSymbolTableRecord
100
AcDbBlockTableRecord
2
DimnDraft3D33
340
0
70
0
0
BLOCK_RECORD
5
209
100
AcDbSymbolTableRecord
100
AcDbBlockTableRecord
2
DimnDraft3D44
340
0
70
0
0
ENDTAB
0
ENDSEC
0
SECTION
2
BLOCKS
0
BLOCK
5
20
100
AcDbEntity
8
0
100
AcDbBlockBegin
2
*Model_Space
70
0
10
0
20
0
30
0
3
*Model_Space
0
ENDBLK
5
21
100
AcDbEntity
8
0
100
AcDbBlockEnd
0
BLOCK
5
1C
100
AcDbEntity
8
0
100
AcDbBlockBegin
2
*Paper_Space
70
0
10
0
20
0
30
0
3
*Paper_Space
0
ENDBLK
5
1D
100
AcDbEntity
8
0
100
AcDbBlockEnd
0
BLOCK
5
24
100
AcDbEntity
8
0
100
AcDbBlockBegin
2
*Paper_Space0
70
0
10
0
20
0
30
0
3
*Paper_Space0
0
ENDBLK
5
25
100
AcDbEntity
8
0
100
AcDbBlockEnd
0
BLOCK
5
1D7
100
AcDbEntity
8
0
100
AcDbBlockBegin
2
DimnDraft3D11
70
0
10
0
20
0
30
0
3
DimnDraft3D11
0
LINE
5
1D9
100
AcDbEntity
8
2L
62
256
6
ByLayer
370
25
48
1
60
0
100
AcDbLine
10
27
20
-21.5875
30
0
11
27
21
-55.513127
31
0
39
0
210
0
220
0
230
1
0
LINE
5
1DB
100
AcDbEntity
8
2L
62
256
6
ByLayer
370
25
48
1
60
0
100
AcDbLine
10
0
20
-1.5875
30
0
11
0
21
-55.513127
31
0
39
0
210
0
220
0
230
1
0
LINE
5
1DC
100
AcDbEntity
8
2L
62
256
6
ByLayer
370
25
48
1
60
0
100
AcDbLine
10
27
20
-52.338127
30
0
11
0
21
-52.338127
31
0
39
0
210
0
220
0
230
1
0
LINE
5
1DD
100
AcDbEntity
8
2L
62
256
6
ByLayer
370
25
48
1
60
0
100
AcDbLine
10
27
20
-52.338127
30
0
11
23.825003
21
-53.188866
31
0
39
0
210
0
220
0
230
1
0
LINE
5
1DE
100
AcDbEntity
8
2L
62
256
6
ByLayer
370
25
48
1
60
0
100
AcDbLine
10
23.825003
20
-53.188866
30
0
11
23.824997
21
-51.487389
31
0
39
0
210
0
220
0
230
1
0
LINE
5
1DF
100
AcDbEntity
8
2L
62
256
6
ByLayer
370
25
48
1
60
0
100
AcDbLine
10
23.824997
20
-51.487389
30
0
11
27
21
-52.338127
31
0
39
0
210
0
220
0
230
1
0
LINE
5
1E0
100
AcDbEntity
8
2L
62
256
6
ByLayer
370
25
48
1
60
0
100
AcDbLine
10
27
20
-52.338127
30
0
11
27
21
-52.338127
31
0
39
0
210
0
220
0
230
1
0
LINE
5
1E1
100
AcDbEntity
8
2L
62
256
6
ByLayer
370
25
48
1
60
0
100
AcDbLine
10
0
20
-52.338127
30
0
11
3.174997
21
-51.487389
31
0
39
0
210
0
220
0
230
1
0
LINE
5
1E2
100
AcDbEntity
8
2L
62
256
6
ByLayer
370
25
48
1
60
0
100
AcDbLine
10
3.174997
20
-51.487389
30
0
11
3.175003
21
-53.188866
31
0
39
0
210
0
220
0
230
1
0
LINE
5
1E3
100
AcDbEntity
8
2L
62
256
6
ByLayer
370
25
48
1
60
0
100
AcDbLine
10
3.175003
20
-53.188866
30
0
11
0
21
-52.338127
31
0
39
0
210
0
220
0
230
1
0
LINE
5
1E4
100
AcDbEntity
8
2L
62
256
6
ByLayer
370
25
48
1
60
0
100
AcDbLine
10
0
20
-52.338127
30
0
11
0
21
-52.338127
31
0
39
0
210
0
220
0
230
1
0
MTEXT
5
1E5
100
AcDbEntity
8
2L
62
256
6
ByLayer
370
13
48
1
60
0
100
AcDbMText
10
13.288612
20
-52.613851
30
0
210
0
220
0
230
1
1
\W0.6551;\T0.85;27
40
3.175
41
0
44
0.963855
50
0
71
7
72
5
7
iso-1
0
ENDBLK
5
1D8
100
AcDbEntity
8
0
100
AcDbBlockEnd
0
BLOCK
5
1E8
100
AcDbEntity
8
0
100
AcDbBlockBegin
2
DimnDraft3D22
70
0
10
0
20
0
30
0
3
DimnDraft3D22
0
LINE
5
1EA
100
AcDbEntity
8
SK2
62
256
6
ByLayer
370
25
48
1
60
0
100
AcDbLine
10
28.5875
20
-20
30
0
11
45.591336
21
-20
31
0
39
0
210
0
220
0
230
1
0
LINE
5
1EC
100
AcDbEntity
8
SK2
62
256
6
ByLayer
370
25
48
1
60
0
100
AcDbLine
10
1.5875
20
0
30
0
11
45.591336
21
0
31
0
39
0
210
0
220
0
230
1
0
LINE
5
1ED
100
AcDbEntity
8
SK2
62
256
6
ByLayer
370
25
48
1
60
0
100
AcDbLine
10
42.416336
20
-20
30
0
11
42.416336
21
0
31
0
39
0
210
0
220
0
230
1
0
LINE
5
1EE
100
AcDbEntity
8
SK2
62
256
6
ByLayer
370
25
48
1
60
0
100
AcDbLine
10
42.416336
20
-20
30
0
11
41.565598
21
-16.825003
31
0
39
0
210
0
220
0
230
1
0
LINE
5
1EF
100
AcDbEntity
8
SK2
62
256
6
ByLayer
370
25
48
1
60
0
100
AcDbLine
10
41.565598
20
-16.825003
30
0
11
43.267075
21
-16.824997
31
0
39
0
210
0
220
0
230
1
0
LINE
5
1F0
100
AcDbEntity
8
SK2
62
256
6
ByLayer
370
25
48
1
60
0
100
AcDbLine
10
43.267075
20
-16.824997
30
0
11
42.416336
21
-20
31
0
39
0
210
0
220
0
230
1
0
LINE
5
1F1
100
AcDbEntity
8
SK2
62
256
6
ByLayer
370
25
48
1
60
0
100
AcDbLine
10
42.416336
20
-20
30
0
11
42.416336
21
-20
31
0
39
0
210
0
220
0
230
1
0
LINE
5
1F2
100
AcDbEntity
8
SK2
62
256
6
ByLayer
370
25
48
1
60
0
100
AcDbLine
10
42.416336
20
0
30
0
11
43.267075
21
-3.174997
31
0
39
0
210
0
220
0
230
1
0
LINE
5
1F3
100
AcDbEntity
8
SK2
62
256
6
ByLayer
370
25
48
1
60
0
100
AcDbLine
10
43.267075
20
-3.174997
30
0
11
41.565598
21
-3.175003
31
0
39
0
210
0
220
0
230
1
0
LINE
5
1F4
100
AcDbEntity
8
SK2
62
256
6
ByLayer
370
25
48
1
60
0
100
AcDbLine
10
41.565598
20
-3.175003
30
0
11
42.416336
21
0
31
0
39
0
210
0
220
0
230
1
0
LINE
5
1F5
100
AcDbEntity
8
SK2
62
256
6
ByLayer
370
25
48
1
60
0
100
AcDbLine
10
42.416336
20
0
30
0
11
42.416336
21
0
31
0
39
0
210
0
220
0
230
1
0
MTEXT
5
1F6
100
AcDbEntity
8
SK2
62
256
6
ByLayer
370
13
48
1
60
0
100
AcDbMText
10
42.69206
20
-10.211388
30
0
210
0
220
0
230
1
1
\W0.6551;\T0.85;20
40
3.175
41
0
44
0.963855
50
90
71
7
72
5
7
iso-1
0
ENDBLK
5
1E9
100
AcDbEntity
8
0
100
AcDbBlockEnd
0
BLOCK
5
1F9
100
AcDbEntity
8
0
100
AcDbBlockBegin
2
DimnDraft3D33
70
0
10
0
20
0
30
0
3
DimnDraft3D33
0
LINE
5
1FB
100
AcDbEntity
8
SK2
62
256
6
ByLayer
370
25
48
1
60
0
100
AcDbLine
10
20
20
0.9125
30
0
11
20
21
18.669157
31
0
39
0
210
0
220
0
230
1
0
LINE
5
1FC
100
AcDbEntity
8
SK2
62
256
6
ByLayer
370
25
48
1
60
0
100
AcDbLine
10
-20
20
0.9125
30
0
11
-20
21
18.669157
31
0
39
0
210
0
220
0
230
1
0
LINE
5
1FD
100
AcDbEntity
8
SK2
62
256
6
ByLayer
370
25
48
1
60
0
100
AcDbLine
10
20
20
15.494157
30
0
11
-20
21
15.494157
31
0
39
0
210
0
220
0
230
1
0
LINE
5
1FE
100
AcDbEntity
8
SK2
62
256
6
ByLayer
370
25
48
1
60
0
100
AcDbLine
10
20
20
15.494157
30
0
11
16.825003
21
14.643418
31
0
39
0
210
0
220
0
230
1
0
LINE
5
1FF
100
AcDbEntity
8
SK2
62
256
6
ByLayer
370
25
48
1
60
0
100
AcDbLine
10
16.825003
20
14.643418
30
0
11
16.824997
21
16.344895
31
0
39
0
210
0
220
0
230
1
0
LINE
5
200
100
AcDbEntity
8
SK2
62
256
6
ByLayer
370
25
48
1
60
0
100
AcDbLine
10
16.824997
20
16.344895
30
0
11
20
21
15.494157
31
0
39
0
210
0
220
0
230
1
0
LINE
5
201
100
AcDbEntity
8
SK2
62
256
6
ByLayer
370
25
48
1
60
0
100
AcDbLine
10
20
20
15.494157
30
0
11
20
21
15.494157
31
0
39
0
210
0
220
0
230
1
0
LINE
5
202
100
AcDbEntity
8
SK2
62
256
6
ByLayer
370
25
48
1
60
0
100
AcDbLine
10
-20
20
15.494157
30
0
11
-16.825003
21
16.344895
31
0
39
0
210
0
220
0
230
1
0
LINE
5
203
100
AcDbEntity
8
SK2
62
256
6
ByLayer
370
25
48
1
60
0
100
AcDbLine
10
-16.825003
20
16.344895
30
0
11
-16.824997
21
14.643418
31
0
39
0
210
0
220
0
230
1
0
LINE
5
204
100
AcDbEntity
8
SK2
62
256
6
ByLayer
370
25
48
1
60
0
100
AcDbLine
10
-16.824997
20
14.643418
30
0
11
-20
21
15.494157
31
0
39
0
210
0
220
0
230
1
0
LINE
5
205
100
AcDbEntity
8
SK2
62
256
6
ByLayer
370
25
48
1
60
0
100
AcDbLine
10
-20
20
15.494157
30
0
11
-20
21
15.494157
31
0
39
0
210
0
220
0
230
1
0
MTEXT
5
206
100
AcDbEntity
8
SK2
62
256
6
ByLayer
370
13
48
1
60
0
100
AcDbMText
10
3.970421
20
16.012183
30
0
210
0
220
0
230
1
1
\W0.7208;\T0.85;40
40
3.175
41
0
44
0.963855
50
0
71
7
72
5
7
iso-1
0
MTEXT
5
207
100
AcDbEntity
8
SK2
62
256
6
ByLayer
370
13
48
1
60
0
100
AcDbMText
10
-3.148524
20
16.012183
30
0
210
0
220
0
230
1
1
\W4.0089;\T0.85;%%c
40
3.175
41
0
44
0.963855
50
0
71
7
72
5
7
iso-1
0
ENDBLK
5
1FA
100
AcDbEntity
8
0
100
AcDbBlockEnd
0
BLOCK
5
20A
100
AcDbEntity
8
0
100
AcDbBlockBegin
2
DimnDraft3D44
70
0
10
0
20
0
30
0
3
DimnDraft3D44
0
LINE
5
20C
100
AcDbEntity
8
2L
62
256
6
ByLayer
370
25
48
1
60
0
100
AcDbLine
10
0
20
-21.5875
30
0
11
0
21
-84.391289
31
0
39
0
210
0
220
0
230
1
0
LINE
5
20D
100
AcDbEntity
8
2L
62
256
6
ByLayer
370
25
48
1
60
0
100
AcDbLine
10
27.632476
20
-19.917984
30
0
11
62.938774
21
-18.067659
31
0
39
0
210
0
220
0
230
1
0
LINE
5
20E
100
AcDbEntity
8
2L
62
256
6
ByLayer
370
25
48
1
60
0
100
AcDbLine
10
0
20
-81.216289
30
0
11
3.163438
21
-80.323528
31
0
39
0
210
0
220
0
230
1
0
LINE
5
20F
100
AcDbEntity
8
2L
62
256
6
ByLayer
370
25
48
1
60
0
100
AcDbLine
10
3.163438
20
-80.323528
30
0
11
3.186004
21
-82.024856
31
0
39
0
210
0
220
0
230
1
0
LINE
5
210
100
AcDbEntity
8
2L
62
256
6
ByLayer
370
25
48
1
60
0
100
AcDbLine
10
3.186004
20
-82.024856
30
0
11
0
21
-81.216289
31
0
39
0
210
0
220
0
230
1
0
LINE
5
211
100
AcDbEntity
8
2L
62
256
6
ByLayer
370
25
48
1
60
0
100
AcDbLine
10
0
20
-81.216289
30
0
11
0
21
-81.216289
31
0
39
0
210
0
220
0
230
1
0
LINE
5
212
100
AcDbEntity
8
2L
62
256
6
ByLayer
370
25
48
1
60
0
100
AcDbLine
10
59.768126
20
-18.233826
30
0
11
60.742327
21
-21.37314
31
0
39
0
210
0
220
0
230
1
0
LINE
5
213
100
AcDbEntity
8
2L
62
256
6
ByLayer
370
25
48
1
60
0
100
AcDbLine
10
60.742327
20
-21.37314
30
0
11
59.04215
21
-21.439658
31
0
39
0
210
0
220
0
230
1
0
LINE
5
214
100
AcDbEntity
8
2L
62
256
6
ByLayer
370
25
48
1
60
0
100
AcDbLine
10
59.04215
20
-21.439658
30
0
11
59.768126
21
-18.233826
31
0
39
0
210
0
220
0
230
1
0
LINE
5
215
100
AcDbEntity
8
2L
62
256
6
ByLayer
370
25
48
1
60
0
100
AcDbLine
10
59.768126
20
-18.233826
30
0
11
59.768126
21
-18.233826
31
0
39
0
210
0
220
0
230
1
0
ARC
5
216
100
AcDbEntity
8
2L
62
256
6
ByLayer
370
25
48
1
60
0
100
AcDbCircle
39
0
10
0
20
-21.36614
30
0
40
59.850148
210
0
220
0
230
1
100
AcDbArc
50
270
51
3
0
MTEXT
5
217
100
AcDbEntity
8
2L
62
256
6
ByLayer
370
13
48
1
60
0
100
AcDbMText
10
42.626829
20
-63.794075
30
0
210
0
220
0
230
1
1
\W2.2282;\T0.85;93%%d
40
3.175
41
0
44
0.963855
50
46.4999677328006
71
7
72
5
7
iso-1
0
ENDBLK
5
20B
100
AcDbEntity
8
0
100
AcDbBlockEnd
0
ENDSEC
0
SECTION
2
ENTITIES
0
ARC
5
101
100
AcDbEntity
8
1
62
256
6
ByLayer
370
18
48
1
60
0
100
AcDbCircle
39
0
10
-15
20
-17.325
30
0
40
10
210
0
220
0
230
1
100
AcDbArc
50
0
51
55.520707
0
ARC
5
102
100
AcDbEntity
8
1
62
256
6
ByLayer
370
18
48
1
60
0
100
AcDbCircle
39
0
10
0.7
20
-31.975
30
0
40
5.7
210
0
220
0
230
1
100
AcDbArc
50
180
51
270
0
ELLIPSE
5
103
100
AcDbEntity
8
1
62
256
6
ByLayer
370
18
48
1
60
0
100
AcDbEllipse
10
18.733868
20
-25.153376
30
0
11
-0.0942047212373976
21
1.79753316255823
31
0
210
0
220
0
230
1
40
0.990268
41
0
42
6.28318530717959
0
ELLIPSE
5
104
100
AcDbEntity
8
1
62
256
6
ByLayer
370
18
48
1
60
0
100
AcDbEllipse
10
0
20
-8.776933
30
0
11
-19.9999718031373
21
1.73369231504633
31
0
210
0
220
0
230
1
40
0.019371
41
-1.11809032195928
42
-0.513638459180311
0
ELLIPSE
5
105
100
AcDbEntity
8
1
62
256
6
ByLayer
370
18
48
1
60
0
100
AcDbEllipse
10
0
20
-8.776933
30
0
11
-19.999971803096
21
1.73369231504265
31
0
210
0
220
0
230
1
40
0.019371
41
-2.95733790046604
42
-2.02014394555189
0
ELLIPSE
5
106
100
AcDbEntity
8
1
62
256
6
ByLayer
370
18
48
1
60
0
100
AcDbEllipse
10
10.36951
20
-29.564439
30
0
11
-0.0209343824964009
21
0.399451813901886
31
0
210
0
220
0
230
1
40
0.990268
41
0.959931088598866
42
3.14159265358979
0
ELLIPSE
5
107
100
AcDbEntity
8
1
62
256
6
ByLayer
370
18
48
1
60
0
100
AcDbEllipse
10
11.426334
20
-29.510294
30
0
11
-0.0415547492546961
21
0.792911850595904
31
0
210
0
220
0
230
1
40
0.990268
41
1.06266976824028
42
2.07892288535525
0
ELLIPSE
5
108
100
AcDbEntity
8
1
62
256
6
ByLayer
370
18
48
1
60
0
100
AcDbEllipse
10
11.426334
20
-29.510294
30
0
11
-0.0415549871656059
21
0.792911844756128
31
0
210
0
220
0
230
1
40
0.990268
41
0.959930789303452
42
1.06266946827522
0
ELLIPSE
5
109
100
AcDbEntity
8
1
62
256
6
ByLayer
370
18
48
1
60
0
100
AcDbEllipse
10
12.347618
20
-29.576388
30
0
11
-0.0850459289492281
21
1.62277299396901
31
0
210
0
220
0
230
1
40
0.990268
41
2.55454202902134
42
3.14159265358979
0
ELLIPSE
5
10A
100
AcDbEntity
8
1
62
256
6
ByLayer
370
18
48
1
60
0
100
AcDbEllipse
10
11.703756
20
-29.610131
30
0
11
-0.0850459288597686
21
1.62277299397684
31
0
210
0
220
0
230
1
40
0.990268
41
-2.93989485742954
42
-2.18166156497122
0
ELLIPSE
5
10B
100
AcDbEntity
8
1
62
256
6
ByLayer
370
18
48
1
60
0
100
AcDbEllipse
10
12.347618
20
-29.576388
30
0
11
-0.0850459288572942
21
1.62277299397659
31
0
210
0
220
0
230
1
40
0.990268
41
3.14159265358979
42
-2.18166156496958
0
ELLIPSE
5
10C
100
AcDbEntity
8
1
62
256
6
ByLayer
370
18
48
1
60
0
100
AcDbEllipse
10
18.733868
20
-25.153376
30
0
11
-0.0877412306373504
21
1.6742024150162
31
0
210
0
220
0
230
1
40
0.990268
41
1.00635486758045
42
2.05076187109573
0
ELLIPSE
5
10D
100
AcDbEntity
8
1
62
256
6
ByLayer
370
18
48
1
60
0
100
AcDbEllipse
10
18.733868
20
-25.153376
30
0
11
-0.087741230633114
21
1.67420241501621
31
0
210
0
220
0
230
1
40
0.990268
41
-0.0464237789763732
42
1.006354867583
0
ELLIPSE
5
10E
100
AcDbEntity
8
1
62
256
6
ByLayer
370
18
48
1
60
0
100
AcDbEllipse
10
18.733868
20
-25.153376
30
0
11
-0.0877412306529007
21
1.67420241501501
31
0
210
0
220
0
230
1
40
0.990268
41
2.0507618710863
42
3.09516887460172
0
ELLIPSE
5
10F
100
AcDbEntity
8
1
62
256
6
ByLayer
370
18
48
1
60
0
100
AcDbEllipse
10
18.320601
20
-11.530205
30
0
11
1.10465542381201
21
1.10388678022688
31
0
210
0
220
0
230
1
40
0.071757
41
0.0795818146384669
42
1.65037814143298
0
ELLIPSE
5
110
100
AcDbEntity
8
1
62
256
6
ByLayer
370
18
48
1
60
0
100
AcDbEllipse
10
18.695587
20
-25.155382
30
0
11
-0.137381885134632
21
2.62140252873087
31
0
210
0
220
0
230
1
40
0.990268
41
0
42
2.05076187109454
0
ELLIPSE
5
111
100
AcDbEntity
8
1
62
256
6
ByLayer
370
18
48
1
60
0
100
AcDbEllipse
10
18.695587
20
-25.155382
30
0
11
-0.137381885138004
21
2.62140252873075
31
0
210
0
220
0
230
1
40
0.990268
41
3.14159265358979
42
0
0
ELLIPSE
5
112
100
AcDbEntity
8
1
62
256
6
ByLayer
370
18
48
1
60
0
100
AcDbEllipse
10
18.733868
20
-25.153376
30
0
11
-0.0877412306368725
21
1.6742024150165
31
0
210
0
220
0
230
1
40
0.990268
41
-1.09083078249375
42
-0.0464237789785684
0
ELLIPSE
5
113
100
AcDbEntity
8
1
62
256
6
ByLayer
370
18
48
1
60
0
100
AcDbEllipse
10
18.733868
20
-25.153376
30
0
11
-0.0877412306021302
21
1.67420241501653
31
0
210
0
220
0
230
1
40
0.990268
41
3.09516887463167
42
-2.13523778598808
0
ELLIPSE
5
114
100
AcDbEntity
8
1
62
256
6
ByLayer
370
18
48
1
60
0
100
AcDbEllipse
10
18.526976
20
-23.779312
30
0
11
-0.0152820992487509
21
0.291599824146343
31
0
210
0
220
0
230
1
40
0.990268
41
-1.35261792444898
42
-0.3294998868698
0
ELLIPSE
5
115
100
AcDbEntity
8
1
62
256
6
ByLayer
370
18
48
1
60
0
100
AcDbEllipse
10
19.460124
20
-23.518428
30
0
11
-0.0359024660833653
21
0.685059860833759
31
0
210
0
220
0
230
1
40
0.990268
41
1.7889747290818
42
2.57296537270489
0
ELLIPSE
5
116
100
AcDbEntity
8
1
62
256
6
ByLayer
370
18
48
1
60
0
100
AcDbEllipse
10
19.483848
20
-26.78799
30
0
11
-0.0359024659906151
21
0.685059860841382
31
0
210
0
220
0
230
1
40
0.990268
41
0.601579585503938
42
1.27122687920812
0
ELLIPSE
5
117
100
AcDbEntity
8
1
62
256
6
ByLayer
370
18
48
1
60
0
100
AcDbEllipse
10
18.544661
20
-26.548198
30
0
11
-0.0152820991543915
21
0.291599824149988
31
0
210
0
220
0
230
1
40
0.990268
41
-2.79366768075358
42
-1.87036577413291
0
ELLIPSE
5
118
100
AcDbEntity
8
1
62
256
6
ByLayer
370
18
48
1
60
0
100
AcDbEllipse
10
18.535819
20
-25.163755
30
0
11
-0.0631433312158701
21
1.20484653368355
31
0
210
0
220
0
230
1
40
0.990268
41
2.8362616403986
42
-2.7306597427108
0
ELLIPSE
5
119
100
AcDbEntity
8
1
62
256
6
ByLayer
370
18
48
1
60
0
100
AcDbEllipse
10
18.535819
20
-25.163755
30
0
11
-0.0631432760372972
21
1.20484653417959
31
0
210
0
220
0
230
1
40
0.990268
41
-2.73065969708054
42
-2.59259443010434
0
ELLIPSE
5
11A
100
AcDbEntity
8
1
62
256
6
ByLayer
370
18
48
1
60
0
100
AcDbEllipse
10
19.460124
20
-23.518428
30
0
11
-0.0359024658517122
21
0.685059860857356
31
0
210
0
220
0
230
1
40
0.990268
41
2.57296537304468
42
-3.14159265339988
0
ELLIPSE
5
11B
100
AcDbEntity
8
1
62
256
6
ByLayer
370
18
48
1
60
0
100
AcDbEllipse
10
18.535819
20
-25.163755
30
0
11
-0.0631433311780235
21
1.20484653368365
31
0
210
0
220
0
230
1
40
0.990268
41
-1.61303428422962
42
-0.568627280714906
0
ELLIPSE
5
11C
100
AcDbEntity
8
1
62
256
6
ByLayer
370
18
48
1
60
0
100
AcDbEllipse
10
18.535819
20
-25.163755
30
0
11
-0.0631433311981697
21
1.2048465336821
31
0
210
0
220
0
230
1
40
0.990268
41
-0.568627280731411
42
0.202470298838134
0
ELLIPSE
5
11D
100
AcDbEntity
8
1
62
256
6
ByLayer
370
18
48
1
60
0
100
AcDbEllipse
10
18.535819
20
-25.163755
30
0
11
-0.0631433311700973
21
1.2048465336824
31
0
210
0
220
0
230
1
40
0.990268
41
-2.5925944758491
42
-1.61303428422308
0
ELLIPSE
5
11E
100
AcDbEntity
8
1
62
256
6
ByLayer
370
18
48
1
60
0
100
AcDbEllipse
10
19.483848
20
-26.78799
30
0
11
-0.0359024659167384
21
0.68505986083759
31
0
210
0
220
0
230
1
40
0.990268
41
0
42
0.358351503178241
0
ELLIPSE
5
11F
100
AcDbEntity
8
1
62
256
6
ByLayer
370
18
48
1
60
0
100
AcDbEllipse
10
19.716809
20
-24.461694
30
0
11
-0.0152820992216395
21
0.291599824148443
31
0
210
0
220
0
230
1
40
0.990268
41
-2.39702492787021
42
-0.393676504639429
0
ELLIPSE
5
120
100
AcDbEntity
8
1
62
256
6
ByLayer
370
18
48
1
60
0
100
AcDbEllipse
10
20.409846
20
-25.145563
30
0
11
-0.0359024661178364
21
0.685059860838426
31
0
210
0
220
0
230
1
40
0.990268
41
0.744567725520001
42
1.52855836913681
0
ELLIPSE
5
121
100
AcDbEntity
8
1
62
256
6
ByLayer
370
18
48
1
60
0
100
AcDbEllipse
10
20.409846
20
-25.145563
30
0
11
-0.0359024659734897
21
0.685059860842469
31
0
210
0
220
0
230
1
40
0.990268
41
1.52855836934924
42
2.31254901296963
0
ELLIPSE
5
122
100
AcDbEntity
8
1
62
256
6
ByLayer
370
18
48
1
60
0
100
AcDbEllipse
10
19.731355
20
-25.842746
30
0
11
-0.0152820992234449
21
0.291599824148323
31
0
210
0
220
0
230
1
40
0.990268
41
-2.77797771051375
42
-0.829043640635056
0
ELLIPSE
5
123
100
AcDbEntity
8
1
62
256
6
ByLayer
370
18
48
1
60
0
100
AcDbEllipse
10
18.733868
20
-25.153376
30
0
11
-0.0877412306473171
21
1.67420241501546
31
0
210
0
220
0
230
1
40
0.990268
41
-2.13523778601546
42
-1.09083078250001
0
ELLIPSE
5
124
100
AcDbEntity
8
1
62
256
6
ByLayer
370
18
48
1
60
0
100
AcDbEllipse
10
18.539293
20
-25.163573
30
0
11
-0.137381885141192
21
2.62140252873064
31
0
210
0
220
0
230
1
40
0.990268
41
0
42
2.05076187109199
0
ELLIPSE
5
125
100
AcDbEntity
8
1
62
256
6
ByLayer
370
18
48
1
60
0
100
AcDbEllipse
10
18.539293
20
-25.163573
30
0
11
-0.137381885172444
21
2.62140252872777
31
0
210
0
220
0
230
1
40
0.990268
41
2.05076187107993
42
3.14159265358979
0
ELLIPSE
5
126
100
AcDbEntity
8
1
62
256
6
ByLayer
370
18
48
1
60
0
100
AcDbEllipse
10
18.695587
20
-25.155382
30
0
11
-0.137381885150777
21
2.62140252872968
31
0
210
0
220
0
230
1
40
0.990268
41
2.05076187108831
42
3.14159265358979
0
ELLIPSE
5
127
100
AcDbEntity
8
1
62
256
6
ByLayer
370
18
48
1
60
0
100
AcDbEllipse
10
24.863871
20
-29.990941
30
0
11
-0.209343824590784
21
3.994518139067
31
0
210
0
220
0
230
1
40
0.990268
41
1.47332835718223
42
1.92726103818832
0
ELLIPSE
5
128
100
AcDbEntity
8
1
62
256
6
ByLayer
370
18
48
1
60
0
100
AcDbEllipse
10
-9.899496
20
-7.725915
30
0
11
-5.24999110288119
21
0.455094103597581
31
0
210
0
220
0
230
1
40
0.019371
41
0.00167919327937754
42
0.0283389093747782
0
ELLIPSE
5
129
100
AcDbEntity
8
1
62
256
6
ByLayer
370
18
48
1
60
0
100
AcDbEllipse
10
-9.899495
20
-7.725916
30
0
11
-5.24999259831742
21
0.455094232699042
31
0
210
0
220
0
230
1
40
0.019371
41
-3.13991346055107
42
0.00167919303871165
0
ELLIPSE
5
12A
100
AcDbEntity
8
1
62
256
6
ByLayer
370
18
48
1
60
0
100
AcDbEllipse
10
-9.899495
20
-7.725916
30
0
11
-5.24999259829841
21
0.45509423269722
31
0
210
0
220
0
230
1
40
0.019371
41
2.15815941991837
42
-3.13991346055102
0
ELLIPSE
5
12B
100
AcDbEntity
8
1
62
256
6
ByLayer
370
18
48
1
60
0
100
AcDbEllipse
10
0
20
-29.42891
30
0
11
19.9563496370956
21
19.9574177254271
31
0
210
0
220
0
230
1
40
0.066173
41
-0.248656001699713
42
-0.0660804416033003
0
ELLIPSE
5
12C
100
AcDbEntity
8
1
62
256
6
ByLayer
370
18
48
1
60
0
100
AcDbEllipse
10
16.506863
20
-21.296142
30
0
11
-0.0415547492882744
21
0.792911850594716
31
0
210
0
220
0
230
1
40
0.990268
41
0
42
0.959931088556969
0
ELLIPSE
5
12D
100
AcDbEntity
8
1
62
256
6
ByLayer
370
18
48
1
60
0
100
AcDbEllipse
10
26.088706
20
-20.793979
30
0
11
-0.0415547492584915
21
0.792911850595025
31
0
210
0
220
0
230
1
40
0.990268
41
-2.18166156499495
42
0
0
ELLIPSE
5
12E
100
AcDbEntity
8
1
62
256
6
ByLayer
370
18
48
1
60
0
100
AcDbEllipse
10
21.008177
20
-29.00813
30
0
11
-0.0415547492618309
21
0.792911850595019
31
0
210
0
220
0
230
1
40
0.990268
41
3.14159265358979
42
-2.18166156499915
0
ELLIPSE
5
12F
100
AcDbEntity
8
1
62
256
6
ByLayer
370
18
48
1
60
0
100
AcDbEllipse
10
11.426334
20
-29.510294
30
0
11
-0.0415547492375214
21
0.792911850596877
31
0
210
0
220
0
230
1
40
0.990268
41
2.07892288537764
42
3.14159265358979
0
ELLIPSE
5
130
100
AcDbEntity
8
1
62
256
6
ByLayer
370
18
48
1
60
0
100
AcDbEllipse
10
10.874574
20
-29.53921
30
0
11
-0.0160433410536487
21
0.306125183544359
31
0
210
0
220
0
230
1
40
0.990268
41
1.06266976823116
42
2.078922885349
0
ELLIPSE
5
131
100
AcDbEntity
8
1
62
256
6
ByLayer
370
18
48
1
60
0
100
AcDbEllipse
10
18.696155
20
-25.155352
30
0
11
-0.0631433769795848
21
1.20484653318027
31
0
210
0
220
0
230
1
40
0.990268
41
0.410932873051281
42
0.548998139752797
0
ELLIPSE
5
132
100
AcDbEntity
8
1
62
256
6
ByLayer
370
18
48
1
60
0
100
AcDbEllipse
10
18.006086
20
-17.350772
30
0
11
-0.209343824970743
21
3.99451813901846
31
0
210
0
220
0
230
1
40
0.990268
41
0.733546931262146
42
2.53404166182118
0
ELLIPSE
5
133
100
AcDbEntity
8
1
62
256
6
ByLayer
370
18
48
1
60
0
100
AcDbEllipse
10
18.594435
20
-25.160683
30
0
11
-0.154122370080695
21
2.94083001014412
31
0
210
0
220
0
230
1
40
0.990268
41
2.28550286790076
42
0.856089785833462
0
ELLIPSE
5
134
100
AcDbEntity
8
1
62
256
6
ByLayer
370
18
48
1
60
0
100
AcDbEllipse
10
9.916116
20
-29.869412
30
0
11
-0.0785039340919566
21
1.49794430213879
31
0
210
0
220
0
230
1
40
0.990268
41
-2.48440701369034
42
-1.91335461296802
0
ELLIPSE
5
135
100
AcDbEntity
8
1
62
256
6
ByLayer
370
18
48
1
60
0
100
AcDbEllipse
10
10.861197
20
-29.819882
30
0
11
-0.0785039348223592
21
1.49794430205973
31
0
210
0
220
0
230
1
40
0.990268
41
-0.290435097487719
42
-3.04338523896868E-10
0
ELLIPSE
5
136
100
AcDbEntity
8
1
62
256
6
ByLayer
370
18
48
1
60
0
100
AcDbEllipse
10
10.861197
20
-29.819882
30
0
11
-0.0785039343643784
21
1.49794430213186
31
0
210
0
220
0
230
1
40
0.990268
41
0
42
3.14159265358979
0
ELLIPSE
5
137
100
AcDbEntity
8
1
62
256
6
ByLayer
370
18
48
1
60
0
100
AcDbEllipse
10
10.861197
20
-29.819882
30
0
11
-0.0785039339775351
21
1.49794430212303
31
0
210
0
220
0
230
1
40
0.990268
41
-3.14159265333511
42
-2.65760407020678
0
ELLIPSE
5
138
100
AcDbEntity
8
1
62
256
6
ByLayer
370
18
48
1
60
0
100
AcDbEllipse
10
12.648836
20
-29.560602
30
0
11
-0.0976353168248295
21
1.86299282590324
31
0
210
0
220
0
230
1
40
0.990268
41
2.49866953590463
42
-2.18166156499237
0
ELLIPSE
5
139
100
AcDbEntity
8
1
62
256
6
ByLayer
370
18
48
1
60
0
100
AcDbEllipse
10
18.696155
20
-25.155352
30
0
11
-0.0631432954895582
21
1.20484653393997
31
0
210
0
220
0
230
1
40
0.990268
41
-2.73065971315537
42
-2.59259444622971
0
ELLIPSE
5
13A
100
AcDbEntity
8
1
62
256
6
ByLayer
370
18
48
1
60
0
100
AcDbEllipse
10
9.899495
20
-9.441537
30
0
11
-5.24999259831735
21
0.45509423269904
31
0
210
0
220
0
230
1
40
0.019371
41
-3.13991346055114
42
-0.219855985979953
0
ELLIPSE
5
13B
100
AcDbEntity
8
1
62
256
6
ByLayer
370
18
48
1
60
0
100
AcDbEllipse
10
9.899495
20
-9.441537
30
0
11
-5.24999259703966
21
0.455094232585616
31
0
210
0
220
0
230
1
40
0.019371
41
-0.219855986006906
42
0.0016791930389725
0
ELLIPSE
5
13C
100
AcDbEntity
8
1
62
256
6
ByLayer
370
18
48
1
60
0
100
AcDbEllipse
10
9.899495
20
-9.441537
30
0
11
-5.2499925983174
21
0.45509423269904
31
0
210
0
220
0
230
1
40
0.019371
41
0.00167919303873776
42
-3.13991346055109
0
ELLIPSE
5
13D
100
AcDbEntity
8
1
62
256
6
ByLayer
370
18
48
1
60
0
100
AcDbEllipse
10
18.535819
20
-25.163755
30
0
11
-0.063143331091862
21
1.20484653368435
31
0
210
0
220
0
230
1
40
0.990268
41
0.611657760460118
42
1.2283808356128
0
ELLIPSE
5
13E
100
AcDbEntity
8
1
62
256
6
ByLayer
370
18
48
1
60
0
100
AcDbEllipse
10
18.615758
20
-25.159566
30
0
11
-0.157007868728773
21
2.99588860426372
31
0
210
0
220
0
230
1
40
0.990268
41
2.64141903536821
42
0.500173617541146
0
ELLIPSE
5
13F
100
AcDbEntity
8
1
62
256
6
ByLayer
370
18
48
1
60
0
100
AcDbEllipse
10
18.75752
20
-25.152136
30
0
11
-0.160740749030257
21
3.0671162035353
31
0
210
0
220
0
230
1
40
0.990268
41
2.62081468844548
42
0.520777965144355
0
ELLIPSE
5
140
100
AcDbEntity
8
1
62
256
6
ByLayer
370
18
48
1
60
0
100
AcDbEllipse
10
18.75752
20
-25.152136
30
0
11
-0.160740749037157
21
3.06711620353476
31
0
210
0
220
0
230
1
40
0.990268
41
1.5707963267949
42
2.62081468844327
0
ELLIPSE
5
141
100
AcDbEntity
8
1
62
256
6
ByLayer
370
18
48
1
60
0
100
AcDbEllipse
10
18.75752
20
-25.152136
30
0
11
-0.160740749028377
21
3.06711620353536
31
0
210
0
220
0
230
1
40
0.990268
41
0.520777965144966
42
1.5707963267949
0
ELLIPSE
5
142
100
AcDbEntity
8
1
62
256
6
ByLayer
370
18
48
1
60
0
100
AcDbEllipse
10
9.825778
20
-29.874146
30
0
11
-0.0785039342798026
21
1.49794430213401
31
0
210
0
220
0
230
1
40
0.990268
41
-2.78507846529595
42
-1.90008860810079
0
ELLIPSE
5
143
100
AcDbEntity
8
1
62
256
6
ByLayer
370
18
48
1
60
0
100
AcDbEllipse
10
17.587789
20
-23.53952
30
0
11
-0.035902464841718
21
0.68505986103793
31
0
210
0
220
0
230
1
40
0.990268
41
2.83029686465773
42
-3.1415926519305
0
ELLIPSE
5
144
100
AcDbEntity
8
1
62
256
6
ByLayer
370
18
48
1
60
0
100
AcDbEllipse
10
10.269576
20
-29.850888
30
0
11
0.999664486363836
21
1.55421894369622
31
0
210
0
220
0
230
1
40
0.024304
41
0.339019469472376
42
0.473128041765629
0
ELLIPSE
5
145
100
AcDbEntity
8
1
62
256
6
ByLayer
370
18
48
1
60
0
100
AcDbEllipse
10
9.916116
20
-29.869412
30
0
11
-0.0785038031399554
21
1.49794431309152
31
0
210
0
220
0
230
1
40
0.990268
41
-0.495047720785237
42
-0.455633968949009
0
ELLIPSE
5
146
100
AcDbEntity
8
1
62
256
6
ByLayer
370
18
48
1
60
0
100
AcDbEllipse
10
10.769084
20
-29.543498
30
0
11
-0.0209343824967198
21
0.399451813901862
31
0
210
0
220
0
230
1
40
0.990268
41
0.959931088598047
42
3.08552794681151
0
ELLIPSE
5
147
100
AcDbEntity
8
1
62
256
6
ByLayer
370
18
48
1
60
0
100
AcDbEllipse
10
18.535819
20
-25.163755
30
0
11
-0.0631433311429434
21
1.20484653368644
31
0
210
0
220
0
230
1
40
0.990268
41
1.82148691509355
42
2.44792220594192
0
ELLIPSE
5
148
100
AcDbEntity
8
1
62
256
6
ByLayer
370
18
48
1
60
0
100
AcDbEllipse
10
9.825778
20
-29.874146
30
0
11
-0.0785039250012337
21
1.49794430303636
31
0
210
0
220
0
230
1
40
0.990268
41
-0.545146457318005
42
-0.356514181989574
0
POINT
5
6C
100
AcDbEntity
8
80
62
256
6
ByLayer
370
18
48
0.05
60
0
100
AcDbPoint
10
0
20
0
30
0
39
0
210
0
220
0
230
1
50
360
0
POINT
5
6E
100
AcDbEntity
8
81
62
256
6
ByLayer
370
18
48
0.05
60
0
100
AcDbPoint
10
27
20
-20
30
0
39
0
210
0
220
0
230
1
50
360
0
POINT
5
70
100
AcDbEntity
8
1
62
256
6
ByLayer
370
18
48
1
60
0
100
AcDbPoint
10
19
20
0.325
30
0
39
0
210
0
220
0
230
1
50
360
0
POINT
5
72
100
AcDbEntity
8
1
62
256
6
ByLayer
370
18
48
1
60
0
100
AcDbPoint
10
-18.999075
20
0.325
30
0
39
0
210
0
220
0
230
1
50
360
0
SPLINE
5
149
100
AcDbEntity
8
1
62
256
6
ByLayer
370
18
48
1
60
0
100
AcDbSpline
70
4
71
3
72
10
73
6
40
0
40
0
40
0
40
0
40
0.433293403364005
40
0.682579817611408
40
1
40
1
40
1
40
1
41
1
10
-19.6599204994536
20
-0.343278579257502
30
0
41
1
10
-19.6839911778003
20
-0.367688841006116
30
0
41
1
10
-19.715289739629
20
-0.399876657014696
30
0
41
1
10
-19.7475051765651
20
-0.43401173673808
30
0
41
1
10
-19.7567525108265
20
-0.442614566472937
30
0
41
1
10
-19.7556866253729
20
-0.447245080890565
30
0
0
SPLINE
5
14A
100
AcDbEntity
8
1
62
256
6
ByLayer
370
18
48
1
60
0
100
AcDbSpline
70
4
71
1
72
4
73
2
40
0
40
0
40
1
40
1
41
1
10
-18.9990748130008
20
0.325000000000001
30
0
41
1
10
-19.6599204994536
20
-0.343278579257489
30
0
0
SPLINE
5
14B
100
AcDbEntity
8
1
62
256
6
ByLayer
370
18
48
1
60
0
100
AcDbSpline
70
4
71
3
72
10
73
6
40
0
40
0
40
0
40
0
40
0.428742614172532
40
0.739037394905434
40
1
40
1
40
1
40
1
41
1
10
-19.5586932485776
20
-0.343278579257504
30
0
41
1
10
-19.5773714244807
20
-0.362954091454938
30
0
41
1
10
-19.6045302825691
20
-0.392612987266273
30
0
41
1
10
-19.633260325067
20
-0.426565337928362
30
0
41
1
10
-19.6404985070381
20
-0.437476351552319
30
0
41
1
10
-19.6424801999688
20
-0.441518256608209
30
0
0
SPLINE
5
14C
100
AcDbEntity
8
1
62
256
6
ByLayer
370
18
48
1
60
0
100
AcDbSpline
70
4
71
1
72
4
73
2
40
0
40
0
40
1
40
1
41
1
10
-18.9249133089164
20
0.325000000000001
30
0
41
1
10
-19.5586932485776
20
-0.343278579257489
30
0
0
SPLINE
5
14D
100
AcDbEntity
8
1
62
256
6
ByLayer
370
18
48
1
60
0
100
AcDbSpline
70
4
71
3
72
11
73
7
40
0
40
0
40
0
40
0
40
0.334203165014145
40
0.584693294016828
40
0.797901593721801
40
1
40
1
40
1
40
1
41
1
10
-19.340953677083
20
-0.343278579257507
30
0
41
1
10
-19.357886224579
20
-0.361727935515885
30
0
41
1
10
-19.3826807297043
20
-0.390417253390709
30
0
41
1
10
-19.4078808585394
20
-0.423809182723096
30
0
41
1
10
-19.4176972608764
20
-0.441188913817456
30
0
41
1
10
-19.4150307487173
20
-0.445469142418878
30
0
41
1
10
-19.410506281985
20
-0.445294195688747
30
0
0
SPLINE
5
14E
100
AcDbEntity
8
1
62
256
6
ByLayer
370
18
48
1
60
0
100
AcDbSpline
70
4
71
1
72
4
73
2
40
0
40
0
40
1
40
1
41
1
10
-18.7307192534083
20
0.325000000000001
30
0
41
1
10
-19.340953677083
20
-0.343278579257489
30
0
0
SPLINE
5
14F
100
AcDbEntity
8
1
62
256
6
ByLayer
370
18
48
1
60
0
100
AcDbSpline
70
4
71
1
72
4
73
2
40
0
40
0
40
1
40
1
41
1
10
-18.4126951788705
20
0.325000000000001
30
0
41
1
10
-19.0026970897866
20
-0.343278579257489
30
0
0
SPLINE
5
150
100
AcDbEntity
8
1
62
256
6
ByLayer
370
18
48
1
60
0
100
AcDbSpline
70
4
71
3
72
11
73
7
40
0
40
0
40
0
40
0
40
0.31280877743376
40
0.555315581411978
40
0.799487312494138
40
1
40
1
40
1
40
1
41
1
10
-19.0026970897867
20
-0.343278579257512
30
0
41
1
10
-19.0180647195954
20
-0.360528591171679
30
0
41
1
10
-19.0406348913393
20
-0.388076870400522
30
0
41
1
10
-19.0640134608805
20
-0.42265888001201
30
0
41
1
10
-19.0699909131271
20
-0.44166838207968
30
0
41
1
10
-19.0648782497129
20
-0.445547149810434
30
0
41
1
10
-19.0603013607836
20
-0.445274455809895
30
0
0
SPLINE
5
151
100
AcDbEntity
8
1
62
256
6
ByLayer
370
18
48
1
60
0
100
AcDbSpline
70
4
71
1
72
4
73
2
40
0
40
0
40
1
40
1
41
1
10
-17.9642657448057
20
0.325000000000001
30
0
41
1
10
-18.5373273217393
20
-0.343278579257489
30
0
0
SPLINE
5
152
100
AcDbEntity
8
1
62
256
6
ByLayer
370
18
48
1
60
0
100
AcDbSpline
70
4
71
3
72
11
73
7
40
0
40
0
40
0
40
0
40
0.290765544590102
40
0.52368508464405
40
0.758079576935396
40
1
40
1
40
1
40
1
41
1
10
-18.5373273217393
20
-0.343278579257516
30
0
41
1
10
-18.5512817343647
20
-0.359343431903506
30
0
41
1
10
-18.5718589878302
20
-0.385681414111161
30
0
41
1
10
-18.5924392092314
20
-0.419638401458347
30
0
41
1
10
-18.5965303289394
20
-0.43972066084226
30
0
41
1
10
-18.5891509262954
20
-0.444944156933012
30
0
41
1
10
-18.5832182180265
20
-0.445285693903682
30
0
0
SPLINE
5
153
100
AcDbEntity
8
1
62
256
6
ByLayer
370
18
48
1
60
0
100
AcDbSpline
70
4
71
3
72
12
73
8
40
0
40
0
40
0
40
0
40
0.267974014480414
40
0.489564449436731
40
0.712449036195335
40
0.907929953647236
40
1
40
1
40
1
40
1
41
1
10
-17.93495223803
20
-0.343278579257525
30
0
41
1
10
-17.9476227165312
20
-0.35816014262881
30
0
41
1
10
-17.9663844926868
20
-0.383201493506502
30
0
41
1
10
-17.9845140184206
20
-0.416341109053705
30
0
41
1
10
-17.9868081190549
20
-0.437126486793405
30
0
41
1
10
-17.9775920618257
20
-0.444409843111252
30
0
41
1
10
-17.9701344149668
20
-0.445276347214079
30
0
41
1
10
-17.965633180246
20
-0.445265537750835
30
0
0
SPLINE
5
154
100
AcDbEntity
8
1
62
256
6
ByLayer
370
18
48
1
60
0
100
AcDbSpline
70
4
71
1
72
4
73
2
40
0
40
0
40
1
40
1
41
1
10
-17.3753372269432
20
0.325000000000001
30
0
41
1
10
-17.93495223803
20
-0.343278579257489
30
0
0
SPLINE
5
155
100
AcDbEntity
8
1
62
256
6
ByLayer
370
18
48
1
60
0
100
AcDbSpline
70
4
71
1
72
4
73
2
40
0
40
0
40
1
40
1
41
1
10
-16.6309904620861
20
0.325000000000001
30
0
41
1
10
-17.1811675775406
20
-0.343278579257489
30
0
0
SPLINE
5
156
100
AcDbEntity
8
1
62
256
6
ByLayer
370
18
48
1
60
0
100
AcDbSpline
70
4
71
3
72
12
73
8
40
0
40
0
40
0
40
0
40
0.244779800333914
40
0.453497524176793
40
0.663345002408949
40
0.849372719721781
40
1
40
1
40
1
40
1
41
1
10
-17.1811675775407
20
-0.34327857925753
30
0
41
1
10
-17.1926663294972
20
-0.356965916918557
30
0
41
1
10
-17.2097795686244
20
-0.380601599408349
30
0
41
1
10
-17.2257698660344
20
-0.412711255836416
30
0
41
1
10
-17.2265627857405
20
-0.434019983862976
30
0
41
1
10
-17.2153129530243
20
-0.443727074202701
30
0
41
1
10
-17.2042930790608
20
-0.445425492208068
30
0
41
1
10
-17.1983885503146
20
-0.445276765686925
30
0
0
SPLINE
5
157
100
AcDbEntity
8
1
62
256
6
ByLayer
370
18
48
1
60
0
100
AcDbSpline
70
4
71
1
72
4
73
2
40
0
40
0
40
1
40
1
41
1
10
-15.709148409446
20
0.325000000000001
30
0
41
1
10
-16.2549231580666
20
-0.343278579257489
30
0
0
SPLINE
5
158
100
AcDbEntity
8
1
62
256
6
ByLayer
370
18
48
1
60
0
100
AcDbSpline
70
4
71
3
72
12
73
8
40
0
40
0
40
0
40
0
40
0.221017710060508
40
0.445221815289687
40
0.640283466943458
40
0.81518112386575
40
1
40
1
40
1
40
1
41
1
10
-16.2549231580666
20
-0.343278579257543
30
0
41
1
10
-16.2653939407295
20
-0.355780802243353
30
0
41
1
10
-16.2821081652447
20
-0.379419167562666
30
0
41
1
10
-16.2962272487878
20
-0.411710899670392
30
0
41
1
10
-16.2934457406884
20
-0.432943813173602
30
0
41
1
10
-16.2789787859909
20
-0.443412393295545
30
0
41
1
10
-16.2652063265165
20
-0.445528471921724
30
0
41
1
10
-16.256703780519
20
-0.445276461883389
30
0
0
SPLINE
5
159
100
AcDbEntity
8
1
62
256
6
ByLayer
370
18
48
1
60
0
100
AcDbSpline
70
4
71
3
72
13
73
9
40
0
40
0
40
0
40
0
40
0.197050152785091
40
0.396981370437245
40
0.57560568993066
40
0.736700673248759
40
0.99436242248986
40
1
40
1
40
1
40
1
41
1
10
-15.1245672474213
20
-0.343278579257558
30
0
41
1
10
-15.1340490649261
20
-0.354509339231626
30
0
41
1
10
-15.1491338544769
20
-0.376048390698254
30
0
41
1
10
-15.1617880420809
20
-0.406480497719692
30
0
41
1
10
-15.1586912211568
20
-0.427956518581543
30
0
41
1
10
-15.1423606773934
20
-0.442270778710984
30
0
41
1
10
-15.1230605526025
20
-0.44524232894363
30
0
41
1
10
-15.111974654325
20
-0.445273020249478
30
0
41
1
10
-15.1074742265309
20
-0.445276542285151
30
0
0
SPLINE
5
15A
100
AcDbEntity
8
1
62
256
6
ByLayer
370
18
48
1
60
0
100
AcDbSpline
70
4
71
1
72
4
73
2
40
0
40
0
40
1
40
1
41
1
10
-14.576173837808
20
0.325000000000001
30
0
41
1
10
-15.1245672474212
20
-0.343278579257489
30
0
0
SPLINE
5
15B
100
AcDbEntity
8
1
62
256
6
ByLayer
370
18
48
1
60
0
100
AcDbSpline
70
4
71
1
72
4
73
2
40
0
40
0
40
1
40
1
41
1
10
-13.177721493111
20
0.325000000000001
30
0
41
1
10
-13.7398159364994
20
-0.343278579257489
30
0
0
SPLINE
5
15C
100
AcDbEntity
8
1
62
256
6
ByLayer
370
18
48
1
60
0
100
AcDbSpline
70
4
71
3
72
13
73
9
40
0
40
0
40
0
40
0
40
0.168954136267651
40
0.340479098198794
40
0.497143099456145
40
0.638017181574838
40
0.870970231941645
40
1
40
1
40
1
40
1
41
1
10
-13.7398159364995
20
-0.343278579257581
30
0
41
1
10
-13.748412227179
20
-0.353182194222444
30
0
41
1
10
-13.7620998397517
20
-0.372478775083741
30
0
41
1
10
-13.773709358311
20
-0.400701213888404
30
0
41
1
10
-13.7707416975138
20
-0.421961934475897
30
0
41
1
10
-13.7550923272346
20
-0.437888042990469
30
0
41
1
10
-13.730370490845
20
-0.444325624175567
30
0
41
1
10
-13.7101529863137
20
-0.44544532805759
30
0
41
1
10
-13.7024163152615
20
-0.44527247993629
30
0
0
SPLINE
5
15D
100
AcDbEntity
8
1
62
256
6
ByLayer
370
18
48
1
60
0
100
AcDbSpline
70
4
71
1
72
4
73
2
40
0
40
0
40
1
40
1
41
1
10
-11.416647658135
20
0.325000000000001
30
0
41
1
10
-12.0130158376653
20
-0.343278579257489
30
0
0
SPLINE
5
15E
100
AcDbEntity
8
1
62
256
6
ByLayer
370
18
48
1
60
0
100
AcDbSpline
70
4
71
3
72
13
73
9
40
0
40
0
40
0
40
0
40
0.141058671598153
40
0.284446137839338
40
0.416674820343274
40
0.533460827248495
40
0.732131058923532
40
1
40
1
40
1
40
1
41
1
10
-12.0130158376655
20
-0.343278579257617
30
0
41
1
10
-12.0208777205064
20
-0.351792765470528
30
0
41
1
10
-12.0334741648147
20
-0.368697627890028
30
0
41
1
10
-12.0445651561464
20
-0.394325580498088
30
0
41
1
10
-12.0421392326278
20
-0.414771598735632
30
0
41
1
10
-12.0279012614121
20
-0.431483890535661
30
0
41
1
10
-11.9966050620044
20
-0.443027740381849
30
0
41
1
10
-11.9672404567428
20
-0.446113621374668
30
0
41
1
10
-11.9478941621985
20
-0.445272647621934
30
0
0
SPLINE
5
15F
100
AcDbEntity
8
1
62
256
6
ByLayer
370
18
48
1
60
0
100
AcDbSpline
70
4
71
3
72
14
73
10
40
0
40
0
40
0
40
0
40
0.130050724876589
40
0.22208048429018
40
0.314623370986941
40
0.398688185332058
40
0.53981629885113
40
0.80919652580836
40
1
40
1
40
1
40
1
41
1
10
-9.76435133857445
20
-0.343278579257685
30
0
41
1
10
-9.77330031682767
20
-0.351707238390716
30
0
41
1
10
-9.78502380812436
20
-0.366228526536238
30
0
41
1
10
-9.79493295867861
20
-0.388148903898652
30
0
41
1
10
-9.79401706043497
20
-0.405307877986722
30
0
41
1
10
-9.78320986943704
20
-0.421172828385211
30
0
41
1
10
-9.75380586371243
20
-0.437182348205412
30
0
41
1
10
-9.70671247825487
20
-0.4441980760575
30
0
41
1
10
-9.66898873573359
20
-0.445712592659901
30
0
41
1
10
-9.65254729666257
20
-0.445244632529133
30
0
0
SPLINE
5
160
100
AcDbEntity
8
1
62
256
6
ByLayer
370
18
48
1
60
0
100
AcDbSpline
70
4
71
1
72
4
73
2
40
0
40
0
40
1
40
1
41
1
10
-9.08445616148815
20
0.325000000000001
30
0
41
1
10
-9.76435133857411
20
-0.343278579257489
30
0
0
SPLINE
5
161
100
AcDbEntity
8
1
62
256
6
ByLayer
370
18
48
1
60
0
100
AcDbSpline
70
4
71
3
72
14
73
10
40
0
40
0
40
0
40
0
40
0.128068076589164
40
0.280593652006275
40
0.433092688055354
40
0.578405551850714
40
0.72376664772945
40
0.861845329325252
40
1
40
1
40
1
40
1
41
1
10
-14.1284425725234
20
-7.36305301908255
30
0
41
1
10
-13.9838092119953
20
-7.37436046020913
30
0
41
1
10
-13.6429391726403
20
-7.41292803702822
30
0
41
1
10
-13.0253802884589
20
-7.51378809345699
30
0
41
1
10
-12.3130354519973
20
-7.68243955998847
30
0
41
1
10
-11.5684481797963
20
-7.9219202857631
30
0
41
1
10
-10.835733706357
20
-8.22134653118778
30
0
41
1
10
-10.1255658428804
20
-8.58220663646566
30
0
41
1
10
-9.68085136786743
20
-8.85331555341957
30
0
41
1
10
-9.46241674710021
20
-8.99822561148654
30
0
0
SPLINE
5
162
100
AcDbEntity
8
1
62
256
6
ByLayer
370
18
48
1
60
0
100
AcDbSpline
70
4
71
1
72
4
73
2
40
0
40
0
40
1
40
1
41
1
10
-9.33891637372674
20
-9.08169167285727
30
0
41
1
10
-9.46241674710021
20
-8.99822561148654
30
0
0
SPLINE
5
163
100
AcDbEntity
8
1
62
256
6
ByLayer
370
18
48
1
60
0
100
AcDbSpline
70
4
71
3
72
15
73
11
40
0
40
0
40
0
40
0
40
0.140134304691467
40
0.280406395587178
40
0.495284103400452
40
0.71018226587039
40
0.814146586733914
40
0.92079511376927
40
0.964549515214473
40
1
40
1
40
1
40
1
41
1
10
-6.99745543480035
20
-8.06276904861572
30
0
41
1
10
-7.11112959802142
20
-8.05566964048054
30
0
41
1
10
-7.34251530643421
20
-8.05648342507359
30
0
41
1
10
-7.76775505269559
20
-8.11716079507504
30
0
41
1
10
-8.26963965974537
20
-8.24644364239889
30
0
41
1
10
-8.73881972964908
20
-8.43015560413209
30
0
41
1
10
-9.09982349466369
20
-8.61730898378254
30
0
41
1
10
-9.30308555735289
20
-8.75674993742618
30
0
41
1
10
-9.42293081368269
20
-8.89405780080886
30
0
41
1
10
-9.45244665269831
20
-8.96455799322776
30
0
41
1
10
-9.46241674710021
20
-8.99822561148654
30
0
0
SPLINE
5
164
100
AcDbEntity
8
1
62
256
6
ByLayer
370
18
48
1
60
0
100
AcDbSpline
70
4
71
3
72
13
73
9
40
0
40
0
40
0
40
0
40
0.0568256757895515
40
0.127058506424865
40
0.239445856015405
40
0.462176278515687
40
0.730715672973125
40
1
40
1
40
1
40
1
41
1
10
-8.71779788708136
20
-6.4
30
0
41
1
10
-8.71714473485522
20
-6.37800818796202
30
0
41
1
10
-8.70999991347303
20
-6.33146397197819
30
0
41
1
10
-8.66685305263447
20
-6.25310391942657
30
0
41
1
10
-8.56075310013786
20
-6.15496461500184
30
0
41
1
10
-8.36971959477676
20
-6.06710431598983
30
0
41
1
10
-8.11502484266072
20
-6.01105047251048
30
0
41
1
10
-7.93164011992938
20
-5.99833393878528
30
0
41
1
10
-7.83836717690616
20
-6
30
0
0
SPLINE
5
165
100
AcDbEntity
8
1
62
256
6
ByLayer
370
18
48
1
60
0
100
AcDbSpline
70
4
71
3
72
15
73
11
40
0
40
0
40
0
40
0
40
0.0872100443851623
40
0.142372725741478
40
0.187241428912379
40
0.232207399350402
40
0.289948616811579
40
0.389778322260708
40
0.689884729402397
40
1
40
1
40
1
40
1
41
1
10
-6.4709013754068
20
-0.343278579257739
30
0
41
1
10
-6.47991639136431
20
-0.349313195931177
30
0
41
1
10
-6.49197586781443
20
-0.359994334627627
30
0
41
1
10
-6.50399385808109
20
-0.376065865796579
30
0
41
1
10
-6.50757779351813
20
-0.38913866273184
30
0
41
1
10
-6.50460791124357
20
-0.401382802075477
30
0
41
1
10
-6.49215036517103
20
-0.414580036472101
30
0
41
1
10
-6.44985384578737
20
-0.433642082004464
30
0
41
1
10
-6.36836090431281
20
-0.443038668418438
30
0
41
1
10
-6.29797844797247
20
-0.446530077755681
30
0
41
1
10
-6.26037776387808
20
-0.445258147376142
30
0
0
SPLINE
5
166
100
AcDbEntity
8
1
62
256
6
ByLayer
370
18
48
1
60
0
100
AcDbSpline
70
4
71
1
72
4
73
2
40
0
40
0
40
1
40
1
41
1
10
-5.49680304814575
20
0.325000000000001
30
0
41
1
10
-6.47090137540592
20
-0.343278579257489
30
0
0
SPLINE
5
167
100
AcDbEntity
8
1
62
256
6
ByLayer
370
18
48
1
60
0
100
AcDbSpline
70
4
71
1
72
4
73
2
40
0
40
0
40
1
40
1
41
1
10
6.47090137540591
20
-0.343278579257489
30
0
41
1
10
5.49680304813625
20
0.325000000000001
30
0
0
SPLINE
5
168
100
AcDbEntity
8
1
62
256
6
ByLayer
370
18
48
1
60
0
100
AcDbSpline
70
4
71
1
72
4
73
2
40
0
40
0
40
1
40
1
41
1
10
9.76435133857411
20
-0.343278579257489
30
0
41
1
10
9.08445616148814
20
0.325000000000001
30
0
0
SPLINE
5
169
100
AcDbEntity
8
1
62
256
6
ByLayer
370
18
48
1
60
0
100
AcDbSpline
70
4
71
1
72
4
73
2
40
0
40
0
40
1
40
1
41
1
10
12.0130158376653
20
-0.343278579257489
30
0
41
1
10
11.416647658135
20
0.325000000000001
30
0
0
SPLINE
5
16A
100
AcDbEntity
8
1
62
256
6
ByLayer
370
18
48
1
60
0
100
AcDbSpline
70
4
71
1
72
4
73
2
40
0
40
0
40
1
40
1
41
1
10
11.5283068617297
20
-30.9741220663702
30
0
41
1
10
11.6209141965237
20
-31.1096081447311
30
0
0
SPLINE
5
16B
100
AcDbEntity
8
1
62
256
6
ByLayer
370
18
48
1
60
0
100
AcDbSpline
70
4
71
1
72
4
73
2
40
0
40
0
40
1
40
1
41
1
10
13.7398159364994
20
-0.343278579257489
30
0
41
1
10
13.177721493111
20
0.325000000000001
30
0
0
SPLINE
5
16C
100
AcDbEntity
8
1
62
256
6
ByLayer
370
18
48
1
60
0
100
AcDbSpline
70
4
71
1
72
4
73
2
40
0
40
0
40
1
40
1
41
1
10
15.1245672474212
20
-0.343278579257489
30
0
41
1
10
14.576173837808
20
0.325000000000001
30
0
0
SPLINE
5
16D
100
AcDbEntity
8
1
62
256
6
ByLayer
370
18
48
1
60
0
100
AcDbSpline
70
4
71
1
72
4
73
2
40
0
40
0
40
1
40
1
41
1
10
16.2549231580666
20
-0.343278579257489
30
0
41
1
10
15.709148409446
20
0.325000000000001
30
0
0
SPLINE
5
16E
100
AcDbEntity
8
1
62
256
6
ByLayer
370
18
48
1
60
0
100
AcDbSpline
70
4
71
1
72
4
73
2
40
0
40
0
40
1
40
1
41
1
10
17.1811675775406
20
-0.343278579257489
30
0
41
1
10
16.6309904620861
20
0.325000000000001
30
0
0
SPLINE
5
16F
100
AcDbEntity
8
1
62
256
6
ByLayer
370
18
48
1
60
0
100
AcDbSpline
70
4
71
3
72
12
73
8
40
0
40
0
40
0
40
0
40
0.0573009716925543
40
0.280031064926642
40
0.505395285878045
40
0.744943740650592
40
1
40
1
40
1
40
1
41
1
10
17.2861849828667
20
-24.331181291076
30
0
41
1
10
17.2824737688464
20
-24.3378635590589
30
0
41
1
10
17.2656122804107
20
-24.3709231251417
30
0
41
1
10
17.2459054372699
20
-24.4366887897156
30
0
41
1
10
17.2450147089835
20
-24.5269475779726
30
0
41
1
10
17.2699944345421
20
-24.6138054441084
30
0
41
1
10
17.3007061310027
20
-24.6614235993454
30
0
41
1
10
17.3206144198437
20
-24.6833353593628
30
0
0
SPLINE
5
170
100
AcDbEntity
8
1
62
256
6
ByLayer
370
18
48
1
60
0
100
AcDbSpline
70
4
71
3
72
11
73
7
40
0
40
0
40
0
40
0
40
0.0440271063587161
40
0.422657254005093
40
0.765607320447963
40
1
40
1
40
1
40
1
41
1
10
17.514065441483
20
-24.1832562269579
30
0
41
1
10
17.5095714695751
20
-24.1834950350759
30
0
41
1
10
17.4736276012537
20
-24.1862069116254
30
0
41
1
10
17.4060530110694
20
-24.2058175774241
30
0
41
1
10
17.3312765508518
20
-24.2636019874432
30
0
41
1
10
17.2981199667856
20
-24.3101106219456
30
0
41
1
10
17.2861849828667
20
-24.331181291076
30
0
0
SPLINE
5
171
100
AcDbEntity
8
1
62
256
6
ByLayer
370
18
48
1
60
0
100
AcDbSpline
70
4
71
3
72
12
73
8
40
0
40
0
40
0
40
0
40
0.0767617052260379
40
0.346341788210412
40
0.619525929985604
40
0.910221788331086
40
1
40
1
40
1
40
1
41
1
10
17.3037993911794
20
-26.003506445955
30
0
41
1
10
17.3080744613196
20
-26.0108166011744
30
0
41
1
10
17.3284109093292
20
-26.0426728554244
30
0
41
1
10
17.3751793902738
20
-26.0922997047191
30
0
41
1
10
17.4506834768929
20
-26.1351961431119
30
0
41
1
10
17.513781577363
20
-26.1481496487358
30
0
41
1
10
17.5491285644207
20
-26.14805644768
30
0
41
1
10
17.5574623838523
20
-26.1475975793714
30
0
0
SPLINE
5
172
100
AcDbEntity
8
1
62
256
6
ByLayer
370
18
48
1
60
0
100
AcDbSpline
70
4
71
3
72
11
73
7
40
0
40
0
40
0
40
0
40
0.284186181053568
40
0.569985742254249
40
0.828961092406599
40
1
40
1
40
1
40
1
41
1
10
17.3308177683938
20
-25.6520489341637
30
0
41
1
10
17.3089418673803
20
-25.6769065981165
30
0
41
1
10
17.2757697190486
20
-25.7326961567847
30
0
41
1
10
17.2547404671551
20
-25.8361359013497
30
0
41
1
10
17.2689470743054
20
-25.931518181728
30
0
41
1
10
17.2921896733437
20
-25.9832893314376
30
0
41
1
10
17.3037993911794
20
-26.003506445955
30
0
0
SPLINE
5
173
100
AcDbEntity
8
1
62
256
6
ByLayer
370
18
48
1
60
0
100
AcDbSpline
70
4
71
1
72
4
73
2
40
0
40
0
40
1
40
1
41
1
10
17.93495223803
20
-0.343278579257489
30
0
41
1
10
17.3753372269432
20
0.325000000000001
30
0
0
SPLINE
5
174
100
AcDbEntity
8
1
62
256
6
ByLayer
370
18
48
1
60
0
100
AcDbSpline
70
4
71
1
72
4
73
2
40
0
40
0
40
1
40
1
41
1
10
17.5968464736651
20
-24.1929710154673
30
0
41
1
10
17.7926899427894
20
-24.2157234308213
30
0
0
SPLINE
5
175
100
AcDbEntity
8
1
62
256
6
ByLayer
370
18
48
1
60
0
100
AcDbSpline
70
4
71
1
72
4
73
2
40
0
40
0
40
1
40
1
41
1
10
17.5968464736651
20
-24.1929710154673
30
0
41
1
10
17.5137121338685
20
-24.1832743859085
30
0
0
SPLINE
5
176
100
AcDbEntity
8
1
62
256
6
ByLayer
370
18
48
1
60
0
100
AcDbSpline
70
4
71
1
72
4
73
2
40
0
40
0
40
1
40
1
41
1
10
17.5574623838523
20
-26.1475975793714
30
0
41
1
10
17.6143748485084
20
-26.1378601661449
30
0
0
SPLINE
5
177
100
AcDbEntity
8
1
62
256
6
ByLayer
370
18
48
1
60
0
100
AcDbSpline
70
4
71
2
72
6
73
3
40
0
40
0
40
0
40
1
40
1
40
1
41
1
10
17.747007445565
20
-26.1150424293667
30
0
41
1
10
17.6779366341384
20
-26.1189877433066
30
0
41
1
10
17.6143748485079
20
-26.137860166145
30
0
0
SPLINE
5
178
100
AcDbEntity
8
1
62
256
6
ByLayer
370
18
48
1
60
0
100
AcDbSpline
70
4
71
1
72
4
73
2
40
0
40
0
40
1
40
1
41
1
10
18.5373273217393
20
-0.343278579257489
30
0
41
1
10
17.9642657448057
20
0.325000000000001
30
0
0
SPLINE
5
179
100
AcDbEntity
8
1
62
256
6
ByLayer
370
18
48
1
60
0
100
AcDbSpline
70
4
71
1
72
4
73
2
40
0
40
0
40
1
40
1
41
1
10
19.0026970897866
20
-0.343278579257489
30
0
41
1
10
18.4126951788705
20
0.325000000000001
30
0
0
SPLINE
5
17A
100
AcDbEntity
8
1
62
256
6
ByLayer
370
18
48
1
60
0
100
AcDbSpline
70
4
71
3
72
12
73
8
40
0
40
0
40
0
40
0
40
0.0628011180647065
40
0.283352165783307
40
0.506851807023901
40
0.744678285731814
40
1
40
1
40
1
40
1
41
1
10
18.7231604813818
20
-23.4769449557639
30
0
41
1
10
18.7147564954257
20
-23.4769985566567
30
0
41
1
10
18.6771233271828
20
-23.4788219232304
30
0
41
1
10
18.6095873898803
20
-23.4957293157861
30
0
41
1
10
18.5303927971235
20
-23.5429973243464
30
0
41
1
10
18.4661643336672
20
-23.6129011188502
30
0
41
1
10
18.4389973835746
20
-23.6674438456854
30
0
41
1
10
18.4292310539047
20
-23.6981447960024
30
0
0
SPLINE
5
17B
100
AcDbEntity
8
1
62
256
6
ByLayer
370
18
48
1
60
0
100
AcDbSpline
70
4
71
3
72
11
73
7
40
0
40
0
40
0
40
0
40
0.284186472106432
40
0.569985996508079
40
0.828961317192132
40
1
40
1
40
1
40
1
41
1
10
18.9884928190417
20
-23.6918345766777
30
0
41
1
10
18.9818277821902
20
-23.657840462755
30
0
41
1
10
18.9571899969239
20
-23.5965551315619
30
0
41
1
10
18.8867093141385
20
-23.5212043898633
30
0
41
1
10
18.8016388741362
20
-23.4831670344769
30
0
41
1
10
18.7462815194413
20
-23.4769922757957
30
0
41
1
10
18.7231604813818
20
-23.4769449557639
30
0
0
SPLINE
5
17C
100
AcDbEntity
8
1
62
256
6
ByLayer
370
18
48
1
60
0
100
AcDbSpline
70
4
71
1
72
4
73
2
40
0
40
0
40
1
40
1
41
1
10
19.340953677083
20
-0.343278579257489
30
0
41
1
10
18.7307192534083
20
0.325000000000001
30
0
0
SPLINE
5
17D
100
AcDbEntity
8
1
62
256
6
ByLayer
370
18
48
1
60
0
100
AcDbSpline
70
4
71
3
72
11
73
7
40
0
40
0
40
0
40
0
40
0.284186472106437
40
0.569985996508081
40
0.828961317192131
40
1
40
1
40
1
40
1
41
1
10
18.4489614658187
20
-26.616504047255
30
0
41
1
10
18.4606354038569
20
-26.6502356557898
30
0
41
1
10
18.4941917967663
20
-26.7110535825621
30
0
41
1
10
18.5750300623527
20
-26.7858615063473
30
0
41
1
10
18.6652169956236
20
-26.8236307176837
30
0
41
1
10
18.7214379527026
20
-26.8297602168819
30
0
41
1
10
18.7445763456478
20
-26.8298066273827
30
0
0
SPLINE
5
17E
100
AcDbEntity
8
1
62
256
6
ByLayer
370
18
48
1
60
0
100
AcDbSpline
70
4
71
3
72
12
73
8
40
0
40
0
40
0
40
0
40
0.0628011180647099
40
0.283352165783282
40
0.506851807023866
40
0.744678285731759
40
1
40
1
40
1
40
1
41
1
10
18.7445763456478
20
-26.8298066273827
30
0
41
1
10
18.7529796517288
20
-26.8297530621206
30
0
41
1
10
18.7903980713605
20
-26.8279409500446
30
0
41
1
10
18.8557518254466
20
-26.8111479208653
30
0
41
1
10
18.928651582257
20
-26.7642098106779
30
0
41
1
10
18.9832627950148
20
-26.694810034926
30
0
41
1
10
19.0025051727363
20
-26.6406826173306
30
0
41
1
10
19.0077398033956
20
-26.6102191632952
30
0
0
SPLINE
5
17F
100
AcDbEntity
8
1
62
256
6
ByLayer
370
18
48
1
60
0
100
AcDbSpline
70
4
71
1
72
4
73
2
40
0
40
0
40
1
40
1
41
1
10
19.5586932485776
20
-0.343278579257489
30
0
41
1
10
18.9249133089164
20
0.325000000000001
30
0
0
SPLINE
5
180
100
AcDbEntity
8
1
62
256
6
ByLayer
370
18
48
1
60
0
100
AcDbSpline
70
4
71
1
72
4
73
2
40
0
40
0
40
1
40
1
41
1
10
19.6599204994536
20
-0.343278579257489
30
0
41
1
10
18.9990748130008
20
0.325000000000001
30
0
0
SPLINE
5
181
100
AcDbEntity
8
1
62
256
6
ByLayer
370
18
48
1
60
0
100
AcDbSpline
70
4
71
3
72
11
73
7
40
0
40
0
40
0
40
0
40
0.284186181053568
40
0.569985742254247
40
0.828961092406593
40
1
40
1
40
1
40
1
41
1
10
20.1066365164666
20
-24.6562896897689
30
0
41
1
10
20.1335213132427
20
-24.6311695207125
30
0
41
1
10
20.1756120661457
20
-24.5749125577845
30
0
41
1
10
20.2069989016888
20
-24.4709299952616
30
0
41
1
10
20.1979087937494
20
-24.375279570522
30
0
41
1
10
20.1755297987245
20
-24.3234631612439
30
0
41
1
10
20.1639374358502
20
-24.3032451371915
30
0
0
SPLINE
5
182
100
AcDbEntity
8
1
62
256
6
ByLayer
370
18
48
1
60
0
100
AcDbSpline
70
4
71
3
72
12
73
8
40
0
40
0
40
0
40
0
40
0.0767617052260328
40
0.34634178821042
40
0.619525929985605
40
0.910221788331097
40
1
40
1
40
1
40
1
41
1
10
20.1639374358502
20
-24.3032451371915
30
0
41
1
10
20.1596616858417
20
-24.2959350176025
30
0
41
1
10
20.1391103994136
20
-24.2640900225569
30
0
41
1
10
20.0901610400076
20
-24.2145774682593
30
0
41
1
10
20.0083563822862
20
-24.1720112288061
30
0
41
1
10
19.9380989743397
20
-24.1594329265883
30
0
41
1
10
19.8980332799876
20
-24.1597734246145
30
0
41
1
10
19.8885476010192
20
-24.1602926593234
30
0
0
SPLINE
5
183
100
AcDbEntity
8
1
62
256
6
ByLayer
370
18
48
1
60
0
100
AcDbSpline
70
4
71
1
72
4
73
2
40
0
40
0
40
1
40
1
41
1
10
18.9048259409171
20
-0.34327857925749
30
0
41
1
10
18.0890807878676
20
0.325
30
0
0
SPLINE
5
184
100
AcDbEntity
8
1
62
256
6
ByLayer
370
18
48
1
60
0
100
AcDbSpline
70
4
71
3
72
11
73
7
40
0
40
0
40
0
40
0
40
0.0277249698277109
40
0.248928994864585
40
0.527445661545018
40
1
40
1
40
1
40
1
41
1
10
19.0614795061749
20
-0.44529114995071
30
0
41
1
10
19.0569864456339
20
-0.445032893555384
30
0
41
1
10
19.0524860031411
20
-0.444704635718922
30
0
41
1
10
19.0336334711206
20
-0.437159158864346
30
0
41
1
10
18.9821653406094
20
-0.404710097932022
30
0
41
1
10
18.9368156971248
20
-0.370085318645786
30
0
41
1
10
18.9048259409171
20
-0.343278579257494
30
0
0
SPLINE
5
185
100
AcDbEntity
8
1
62
256
6
ByLayer
370
18
48
1
60
0
100
AcDbSpline
70
4
71
3
72
12
73
8
40
0
40
0
40
0
40
0
40
0.104553396978263
40
0.400958126727196
40
0.606160005022038
40
0.81919796435495
40
1
40
1
40
1
40
1
41
1
10
19.0026970897857
20
-0.343278579255585
30
0
41
1
10
19.0076021495111
20
-0.348830089576856
30
0
41
1
10
19.0255261196715
20
-0.369614119570053
30
0
41
1
10
19.0492546948184
20
-0.399742013122194
30
0
41
1
10
19.0661111039543
20
-0.427665952035787
30
0
41
1
10
19.0703080069854
20
-0.443017135407778
30
0
41
1
10
19.0652262661586
20
-0.445588901508695
30
0
41
1
10
19.0607178618455
20
-0.445280093592641
30
0
0
SPLINE
5
186
100
AcDbEntity
8
1
62
256
6
ByLayer
370
18
48
1
60
0
100
AcDbSpline
70
4
71
3
72
10
73
6
40
0
40
0
40
0
40
0
40
0.341232837326057
40
0.828679534232919
40
1
40
1
40
1
40
1
41
1
10
-13.3683356695468
20
-0.343278579257491
30
0
41
1
10
-13.4082636506738
20
-0.362577520261411
30
0
41
1
10
-13.5031347444044
20
-0.402532531626229
30
0
41
1
10
-13.6191190534705
20
-0.438706059453577
30
0
41
1
10
-13.6855155928781
20
-0.444614048458169
30
0
41
1
10
-13.7024163152615
20
-0.44527247993629
30
0
0
SPLINE
5
187
100
AcDbEntity
8
1
62
256
6
ByLayer
370
18
48
1
60
0
100
AcDbSpline
70
4
71
1
72
4
73
2
40
0
40
0
40
1
40
1
41
1
10
-11.8991530686011
20
0.325000000000001
30
0
41
1
10
-13.3683356695468
20
-0.34327857925749
30
0
0
SPLINE
5
188
100
AcDbEntity
8
1
62
256
6
ByLayer
370
18
48
1
60
0
100
AcDbSpline
70
4
71
3
72
13
73
9
40
0
40
0
40
0
40
0
40
0.150525840510815
40
0.343364095638586
40
0.537863161945525
40
0.707003143518776
40
0.904731927639398
40
1
40
1
40
1
40
1
41
1
10
15.1081772198388
20
-0.445271247476533
30
0
41
1
10
15.1160980823245
20
-0.445493692840281
30
0
41
1
10
15.1322794347929
20
-0.444088440188079
30
0
41
1
10
15.1528187255912
20
-0.436110132222313
30
0
41
1
10
15.1621800135638
20
-0.4176818927962
30
0
41
1
10
15.1566073928192
20
-0.390595362704036
30
0
41
1
10
15.1413967685293
20
-0.364832614366482
30
0
41
1
10
15.1290007126091
20
-0.348617981250285
30
0
41
1
10
15.1245672474105
20
-0.343278579219997
30
0
0
SPLINE
5
189
100
AcDbEntity
8
1
62
256
6
ByLayer
370
18
48
1
60
0
100
AcDbSpline
70
4
71
3
72
10
73
6
40
0
40
0
40
0
40
0
40
0.580284568404661
40
0.838666441712379
40
1
40
1
40
1
40
1
41
1
10
14.8237109429722
20
-0.343278579257488
30
0
41
1
10
14.884008359038
20
-0.377090302260523
30
0
41
1
10
14.9662710725392
20
-0.413659739154465
30
0
41
1
10
15.0607808447926
20
-0.441180671861755
30
0
41
1
10
15.0953823881381
20
-0.444797017676921
30
0
41
1
10
15.1081772198388
20
-0.445271247476534
30
0
0
SPLINE
5
18A
100
AcDbEntity
8
1
62
256
6
ByLayer
370
18
48
1
60
0
100
AcDbSpline
70
4
71
1
72
4
73
2
40
0
40
0
40
1
40
1
41
1
10
13.5564502636199
20
0.325
30
0
41
1
10
14.8237109429722
20
-0.34327857925749
30
0
0
SPLINE
5
18B
100
AcDbEntity
8
1
62
256
6
ByLayer
370
18
48
1
60
0
100
AcDbSpline
70
4
71
3
72
15
73
11
40
0
40
0
40
0
40
0
40
0.310115270597595
40
0.610221677739283
40
0.710051383188412
40
0.767792600649589
40
0.812758571087611
40
0.857627274258512
40
0.912789955614828
40
1
40
1
40
1
40
1
41
1
10
6.26037776387809
20
-0.445258147376142
30
0
41
1
10
6.29797844797247
20
-0.446530077755681
30
0
41
1
10
6.36836090431281
20
-0.443038668418438
30
0
41
1
10
6.44985384578738
20
-0.433642082004464
30
0
41
1
10
6.49215036517103
20
-0.414580036472101
30
0
41
1
10
6.50460791124358
20
-0.401382802075477
30
0
41
1
10
6.50757779351813
20
-0.38913866273184
30
0
41
1
10
6.50399385808109
20
-0.376065865796579
30
0
41
1
10
6.49197586781443
20
-0.359994334627627
30
0
41
1
10
6.47991639136432
20
-0.349313195931175
30
0
41
1
10
6.4709013754068
20
-0.343278579257735
30
0
0
SPLINE
5
18C
100
AcDbEntity
8
1
62
256
6
ByLayer
370
18
48
1
60
0
100
AcDbSpline
70
4
71
3
72
10
73
6
40
0
40
0
40
0
40
0
40
0.644090700284624
40
0.884725118926873
40
1
40
1
40
1
40
1
41
1
10
5.34998840487793
20
-0.343278579257491
30
0
41
1
10
5.54780485202436
20
-0.379560963882626
30
0
41
1
10
5.81697662953769
20
-0.415241370729049
30
0
41
1
10
6.12052139920057
20
-0.443649719905638
30
0
41
1
10
6.22627311448513
20
-0.44531831185817
30
0
41
1
10
6.26037776387809
20
-0.445258147376142
30
0
0
SPLINE
5
18D
100
AcDbEntity
8
1
62
256
6
ByLayer
370
18
48
1
60
0
100
AcDbSpline
70
4
71
3
72
13
73
9
40
0
40
0
40
0
40
0
40
0.155149676213804
40
0.262716446257243
40
0.370281951040655
40
0.583725525025374
40
0.792561960539481
40
1
40
1
40
1
40
1
41
1
10
-5.34998840487793
20
-0.343278579257494
30
0
41
1
10
-4.80340082885366
20
-0.247350709853288
30
0
41
1
10
-3.87392140567374
20
-0.109554434618212
30
0
41
1
10
-2.55327635307179
20
0.0266272122474297
30
0
41
1
10
-1.01860707860908
20
0.126728631207391
30
0
41
1
10
0.886004580706263
20
0.142590593077835
30
0
41
1
10
3.14355578497432
20
-0.0093632726892045
30
0
41
1
10
4.61831987097275
20
-0.214505649867319
30
0
41
1
10
5.34998840487793
20
-0.34327857925749
30
0
0
SPLINE
5
18E
100
AcDbEntity
8
1
62
256
6
ByLayer
370
18
48
1
60
0
100
AcDbSpline
70
4
71
3
72
10
73
6
40
0
40
0
40
0
40
0
40
0.115274881073126
40
0.355909299715374
40
1
40
1
40
1
40
1
41
1
10
-6.26037776387808
20
-0.445258147376142
30
0
41
1
10
-6.22627311448513
20
-0.44531831185817
30
0
41
1
10
-6.12052139920058
20
-0.443649719905638
30
0
41
1
10
-5.81697662953769
20
-0.415241370729048
30
0
41
1
10
-5.54780485202436
20
-0.379560963882626
30
0
41
1
10
-5.34998840487793
20
-0.343278579257491
30
0
0
SPLINE
5
18F
100
AcDbEntity
8
1
62
256
6
ByLayer
370
18
48
1
60
0
100
AcDbSpline
70
4
71
3
72
12
73
8
40
0
40
0
40
0
40
0
40
0.122848843627691
40
0.336149978943553
40
0.543025025044005
40
0.841058332127265
40
1
40
1
40
1
40
1
41
1
10
19.4093546521209
20
-0.445272892664304
30
0
41
1
10
19.4139102150483
20
-0.445348195726602
30
0
41
1
10
19.4196218642982
20
-0.443835635119089
30
0
41
1
10
19.4130159911149
20
-0.43253968495686
30
0
41
1
10
19.3957302191996
20
-0.406866852291447
30
0
41
1
10
19.369509751375
20
-0.3751350435751
30
0
41
1
10
19.3486988936523
20
-0.351759257963127
30
0
41
1
10
19.340953677083
20
-0.343278579257491
30
0
0
SPLINE
5
190
100
AcDbEntity
8
1
62
256
6
ByLayer
370
18
48
1
60
0
100
AcDbSpline
70
4
71
3
72
11
73
7
40
0
40
0
40
0
40
0
40
0.399366846957704
40
0.689972984170783
40
0.918132023068911
40
1
40
1
40
1
40
1
41
1
10
19.2723234562802
20
-0.343278579257498
30
0
41
1
10
19.2974655686201
20
-0.365506942621374
30
0
41
1
10
19.3366531978227
20
-0.398232877365644
30
0
41
1
10
19.3825135481715
20
-0.432216406879365
30
0
41
1
10
19.4030417291207
20
-0.443849991612865
30
0
41
1
10
19.4074662586691
20
-0.444745947903876
30
0
41
1
10
19.4119308756868
20
-0.445313820159105
30
0
0
SPLINE
5
191
100
AcDbEntity
8
1
62
256
6
ByLayer
370
18
48
1
60
0
100
AcDbSpline
70
4
71
1
72
4
73
2
40
0
40
0
40
1
40
1
41
1
10
18.5041169405622
20
0.325
30
0
41
1
10
19.2723234562802
20
-0.34327857925749
30
0
0
SPLINE
5
192
100
AcDbEntity
8
1
62
256
6
ByLayer
370
18
48
1
60
0
100
AcDbSpline
70
4
71
1
72
4
73
2
40
0
40
0
40
1
40
1
41
1
10
-18.9048259409171
20
-0.34327857925749
30
0
41
1
10
-18.0890807878676
20
0.325000000000001
30
0
0
SPLINE
5
193
100
AcDbEntity
8
1
62
256
6
ByLayer
370
18
48
1
60
0
100
AcDbSpline
70
4
71
3
72
12
73
8
40
0
40
0
40
0
40
0
40
0.0075008248747318
40
0.189388674565651
40
0.472774757652165
40
0.881491176974967
40
1
40
1
40
1
40
1
41
1
10
-19.0626359671475
20
-0.445286566759958
30
0
41
1
10
-19.0581398071572
20
-0.445087727541329
30
0
41
1
10
-19.0536525281787
20
-0.444694851161169
30
0
41
1
10
-19.0396190503336
20
-0.440123064539765
30
0
41
1
10
-18.9958101452315
20
-0.41421526364712
30
0
41
1
10
-18.9459033340874
20
-0.376850745848033
30
0
41
1
10
-18.9124701072047
20
-0.349626859814749
30
0
41
1
10
-18.9048259409171
20
-0.343278579257498
30
0
0
SPLINE
5
194
100
AcDbEntity
8
1
62
256
6
ByLayer
370
18
48
1
60
0
100
AcDbSpline
70
4
71
3
72
10
73
6
40
0
40
0
40
0
40
0
40
0.194347536229777
40
0.971704201289224
40
1
40
1
40
1
40
1
41
1
10
18.0196808249495
20
-24.160190264798
30
0
41
1
10
18.0050302611182
20
-24.1666881473543
30
0
41
1
10
17.9319103342583
20
-24.1963810843851
30
0
41
1
10
17.854328537628
20
-24.2121804659703
30
0
41
1
10
17.7959820048841
20
-24.2155453658296
30
0
41
1
10
17.7914880168848
20
-24.2157859931172
30
0
0
SPLINE
5
195
100
AcDbEntity
8
1
62
256
6
ByLayer
370
18
48
1
60
0
100
AcDbSpline
70
4
71
3
72
10
73
6
40
0
40
0
40
0
40
0
40
0.158183385871783
40
0.579510494600194
40
1
40
1
40
1
40
1
41
1
10
18.4292310539047
20
-23.6981447960024
30
0
41
1
10
18.4220832416374
20
-23.7204465346572
30
0
41
1
10
18.3918540167203
20
-23.8008414334392
30
0
41
1
10
18.3134468883412
20
-23.937008740365
30
0
41
1
10
18.2173402521364
20
-24.0319198701008
30
0
41
1
10
18.1616585492308
20
-24.0757890129919
30
0
0
SPLINE
5
196
100
AcDbEntity
8
1
62
256
6
ByLayer
370
18
48
1
60
0
100
AcDbSpline
70
4
71
1
72
4
73
2
40
0
40
0
40
1
40
1
41
1
10
19.823079436352
20
-24.1704784577877
30
0
41
1
10
19.8885476010192
20
-24.1602926593234
30
0
0
SPLINE
5
197
100
AcDbEntity
8
1
62
256
6
ByLayer
370
18
48
1
60
0
100
AcDbSpline
70
4
71
2
72
6
73
3
40
0
40
0
40
0
40
1
40
1
40
1
41
1
10
19.671015769451
20
-24.1943145337856
30
0
41
1
10
19.7490777743366
20
-24.1898980113634
30
0
41
1
10
19.8230794363526
20
-24.1704784577876
30
0
0
SPLINE
5
198
100
AcDbEntity
8
1
62
256
6
ByLayer
370
18
48
1
60
0
100
AcDbSpline
70
4
71
3
72
12
73
8
40
0
40
0
40
0
40
0
40
0.247584048824211
40
0.450656666069278
40
0.654919920481261
40
0.833713859585578
40
1
40
1
40
1
40
1
41
1
10
18.9884928190417
20
-23.6918345766777
30
0
41
1
10
19.0016495205113
20
-23.7629871199093
30
0
41
1
10
19.048056719433
20
-23.8826664952233
30
0
41
1
10
19.1746960316765
20
-24.0396246841987
30
0
41
1
10
19.336473175394
20
-24.1428154876389
30
0
41
1
10
19.5101588826537
20
-24.1919214116189
30
0
41
1
10
19.6181549738937
20
-24.1975772770332
30
0
41
1
10
19.671015769451
20
-24.1943145337856
30
0
0
SPLINE
5
199
100
AcDbEntity
8
1
62
256
6
ByLayer
370
18
48
1
60
0
100
AcDbSpline
70
4
71
3
72
13
73
9
40
0
40
0
40
0
40
0
40
0.0155668162629893
40
0.0847954860008343
40
0.153338373710003
40
0.353941192720246
40
0.504992593930446
40
1
40
1
40
1
40
1
41
1
10
8.71779788708134
20
-6.4
30
0
41
1
10
8.71777896612733
20
-6.3941545744595
30
0
41
1
10
8.71644162241377
20
-6.36265986983248
30
0
41
1
10
8.69947646212533
20
-6.3066495507236
30
0
41
1
10
8.62893847716366
20
-6.20613531503568
30
0
41
1
10
8.50268143974258
20
-6.12489631953046
30
0
41
1
10
8.23136401296491
20
-6.02398926806963
30
0
41
1
10
8.01331528528418
20
-5.99258105417693
30
0
41
1
10
7.83836717690616
20
-6
30
0
0
SPLINE
5
19A
100
AcDbEntity
8
1
62
256
6
ByLayer
370
18
48
1
60
0
100
AcDbSpline
70
4
71
3
72
14
73
10
40
0
40
0
40
0
40
0
40
0.396216813030469
40
0.551959900380033
40
0.655774236634806
40
0.742512754001432
40
0.829319436540401
40
0.945404531786378
40
1
40
1
40
1
40
1
41
1
10
9.65514361465894
20
-0.445265694039052
30
0
41
1
10
9.69099032506779
20
-0.447659318073446
30
0
41
1
10
9.73336800127919
20
-0.442603761686202
30
0
41
1
10
9.77660396265473
20
-0.426163735092135
30
0
41
1
10
9.79157686133129
20
-0.410995308861833
30
0
41
1
10
9.79550685586631
20
-0.394612814701966
30
0
41
1
10
9.79022608949932
20
-0.375013708023396
30
0
41
1
10
9.77787859235867
20
-0.357517420064894
30
0
41
1
10
9.76784870513437
20
-0.346694849041276
30
0
41
1
10
9.76435133855476
20
-0.343278579223044
30
0
0
SPLINE
5
19B
100
AcDbEntity
8
1
62
256
6
ByLayer
370
18
48
1
60
0
100
AcDbSpline
70
4
71
3
72
10
73
6
40
0
40
0
40
0
40
0
40
0.711984173220713
40
0.953409073737087
40
1
40
1
40
1
40
1
41
1
10
9.11879287402913
20
-0.34327857925749
30
0
41
1
10
9.2506026171077
20
-0.386271508809642
30
0
41
1
10
9.42187471846174
20
-0.424541293588028
30
0
41
1
10
9.59855317809598
20
-0.444158287705442
30
0
41
1
10
9.64729286440649
20
-0.445186470532632
30
0
41
1
10
9.65514361465894
20
-0.445265694039052
30
0
0
SPLINE
5
19C
100
AcDbEntity
8
1
62
256
6
ByLayer
370
18
48
1
60
0
100
AcDbSpline
70
4
71
2
72
6
73
3
40
0
40
0
40
0
40
1
40
1
40
1
41
1
10
6.61172018086064
20
0.325000000000001
30
0
41
1
10
7.88173052791113
20
0.0372097028531946
30
0
41
1
10
9.11879287402913
20
-0.34327857925749
30
0
0
SPLINE
5
19D
100
AcDbEntity
8
1
62
256
6
ByLayer
370
18
48
1
60
0
100
AcDbSpline
70
4
71
1
72
4
73
2
40
0
40
0
40
1
40
1
41
1
10
11.54046753934
20
-0.34327857925749
30
0
41
1
10
9.74178339679136
20
0.325000000000001
30
0
0
SPLINE
5
19E
100
AcDbEntity
8
1
62
256
6
ByLayer
370
18
48
1
60
0
100
AcDbSpline
70
4
71
3
72
10
73
6
40
0
40
0
40
0
40
0
40
0.163992727881522
40
0.581119255916547
40
1
40
1
40
1
40
1
41
1
10
11.9489131226792
20
-0.445277056416185
30
0
41
1
10
11.9283755400226
20
-0.444707457334752
30
0
41
1
10
11.8544885982318
20
-0.439702028594874
30
0
41
1
10
11.7155254099057
20
-0.407305102837414
30
0
41
1
10
11.5996586649314
20
-0.367646124442615
30
0
41
1
10
11.54046753934
20
-0.343278579257488
30
0
0
SPLINE
5
19F
100
AcDbEntity
8
1
62
256
6
ByLayer
370
18
48
1
60
0
100
AcDbSpline
70
4
71
3
72
14
73
10
40
0
40
0
40
0
40
0
40
0.126581363228347
40
0.243713488827137
40
0.371329907041159
40
0.498369405235609
40
0.650840916004515
40
0.930670256266149
40
1
40
1
40
1
40
1
41
1
10
12.0130158376653
20
-0.343278579257488
30
0
41
1
10
12.0199244828521
20
-0.350820716076496
30
0
41
1
10
12.0309384980411
20
-0.365276948015738
30
0
41
1
10
12.042433387761
20
-0.38791843073013
30
0
41
1
10
12.0442155975082
20
-0.408709318865324
30
0
41
1
10
12.0344003316684
20
-0.425940270076248
30
0
41
1
10
12.0087312373348
20
-0.440611074888158
30
0
41
1
10
11.976999980011
20
-0.444823622309286
30
0
41
1
10
11.9536607259623
20
-0.44532000569297
30
0
41
1
10
11.9489131226792
20
-0.445277056416185
30
0
0
SPLINE
5
1A0
100
AcDbEntity
8
1
62
256
6
ByLayer
370
18
48
1
60
0
100
AcDbSpline
70
4
71
3
72
11
73
7
40
0
40
0
40
0
40
0
40
0.0798827076424654
40
0.520688006406985
40
0.818975826279553
40
1
40
1
40
1
40
1
41
1
10
-18.408216543415
20
-0.343278579257491
30
0
41
1
10
-18.413719487323
20
-0.347563754346214
30
0
41
1
10
-18.4492867238291
20
-0.374820664990342
30
0
41
1
10
-18.50416897711
20
-0.412919556463235
30
0
41
1
10
-18.5570632822934
20
-0.440658780706675
30
0
41
1
10
-18.5759807093297
20
-0.444867724348169
30
0
41
1
10
-18.5822039742274
20
-0.445278449568786
30
0
0
SPLINE
5
1A1
100
AcDbEntity
8
1
62
256
6
ByLayer
370
18
48
1
60
0
100
AcDbSpline
70
4
71
1
72
4
73
2
40
0
40
0
40
1
40
1
41
1
10
-17.536457559895
20
0.325000000000001
30
0
41
1
10
-18.408216543415
20
-0.34327857925749
30
0
0
SPLINE
5
1A2
100
AcDbEntity
8
1
62
256
6
ByLayer
370
18
48
1
60
0
100
AcDbSpline
70
4
71
3
72
11
73
7
40
0
40
0
40
0
40
0
40
0.364780394936241
40
0.653644702385626
40
0.85403311636696
40
1
40
1
40
1
40
1
41
1
10
-19.6464364834369
20
-0.343278579257492
30
0
41
1
10
-19.667162165224
20
-0.363451325624317
30
0
41
1
10
-19.6998578095013
20
-0.39489704045373
30
0
41
1
10
-19.7355756042465
20
-0.428323983480815
30
0
41
1
10
-19.7504243933846
20
-0.441416352287148
30
0
41
1
10
-19.7538275277597
20
-0.444419476871509
30
0
41
1
10
-19.7581489341464
20
-0.445719310952034
30
0
0
SPLINE
5
1A3
100
AcDbEntity
8
1
62
256
6
ByLayer
370
18
48
1
60
0
100
AcDbSpline
70
4
71
1
72
4
73
2
40
0
40
0
40
1
40
1
41
1
10
-18.9546127301509
20
0.325000000000001
30
0
41
1
10
-19.6464364834369
20
-0.343278579257491
30
0
0
SPLINE
5
1A4
100
AcDbEntity
8
1
62
256
6
ByLayer
370
18
48
1
60
0
100
AcDbSpline
70
4
71
1
72
4
73
2
40
0
40
0
40
1
40
1
41
1
10
-16.9794705811172
20
-0.34327857925749
30
0
41
1
10
-15.9578301704837
20
0.325000000000001
30
0
0
SPLINE
5
1A5
100
AcDbEntity
8
1
62
256
6
ByLayer
370
18
48
1
60
0
100
AcDbSpline
70
4
71
3
72
11
73
7
40
0
40
0
40
0
40
0
40
0.0822848866376942
40
0.373494860945842
40
0.834964888510729
40
1
40
1
40
1
40
1
41
1
10
-17.1985059617918
20
-0.445279751538916
30
0
41
1
10
-17.1940072332319
20
-0.445162337797465
30
0
41
1
10
-17.1738897308959
20
-0.443457663809864
30
0
41
1
10
-17.1160615913482
20
-0.424022535927704
30
0
41
1
10
-17.0431620131851
20
-0.384500073989134
30
0
41
1
10
-16.9928897833176
20
-0.352279331621753
30
0
41
1
10
-16.9794705811172
20
-0.343278579257525
30
0
0
SPLINE
5
1A6
100
AcDbEntity
8
1
62
256
6
ByLayer
370
18
48
1
60
0
100
AcDbSpline
70
4
71
3
72
10
73
6
40
0
40
0
40
0
40
0
40
0.42048950539974
40
0.841816614128136
40
1
40
1
40
1
40
1
41
1
10
19.2306512600996
20
-26.2349155326502
30
0
41
1
10
19.1776969132912
20
-26.2786417408649
30
0
41
1
10
19.089842859957
20
-26.3731203710591
30
0
41
1
10
19.030070903292
20
-26.5083110500187
30
0
41
1
10
19.0115439044538
20
-26.5880926611194
30
0
41
1
10
19.0077398033956
20
-26.6102191632952
30
0
0
SPLINE
5
1A7
100
AcDbEntity
8
1
62
256
6
ByLayer
370
18
48
1
60
0
100
AcDbSpline
70
4
71
3
72
10
73
6
40
0
40
0
40
0
40
0
40
0.0282957987107752
40
0.805652463770231
40
1
40
1
40
1
40
1
41
1
10
19.6180860437263
20
-26.0940136935675
30
0
41
1
10
19.6135919890421
20
-26.0942532077308
30
0
41
1
10
19.5484246362445
20
-26.0979767661279
30
0
41
1
10
19.4640392619708
20
-26.1141327081085
30
0
41
1
10
19.3877953073092
20
-26.1439893684989
30
0
41
1
10
19.3726289843804
20
-26.1505142808441
30
0
0
SPLINE
5
1A8
100
AcDbEntity
8
1
62
256
6
ByLayer
370
18
48
1
60
0
100
AcDbSpline
70
4
71
1
72
4
73
2
40
0
40
0
40
1
40
1
41
1
10
19.8401243836349
20
-26.1153929438302
30
0
41
1
10
19.6170029237898
20
-26.0940701073932
30
0
0
SPLINE
5
1A9
100
AcDbEntity
8
1
62
256
6
ByLayer
370
18
48
1
60
0
100
AcDbSpline
70
4
71
1
72
4
73
2
40
0
40
0
40
1
40
1
41
1
10
19.9353835311318
20
-26.1244541391432
30
0
41
1
10
19.8401243836349
20
-26.1153929438302
30
0
0
SPLINE
5
1AA
100
AcDbEntity
8
1
62
256
6
ByLayer
370
18
48
1
60
0
100
AcDbSpline
70
4
71
3
72
11
73
7
40
0
40
0
40
0
40
0
40
0.234392679552043
40
0.577342745994914
40
0.955972893641282
40
1
40
1
40
1
40
1
41
1
10
20.1815518441629
20
-25.9755702920705
30
0
41
1
10
20.1695971998841
20
-25.9966419915567
30
0
41
1
10
20.1355304717017
20
-26.0431983246911
30
0
41
1
10
20.0554536012034
20
-26.1012605174423
30
0
41
1
10
19.980586116849
20
-26.1212533876289
30
0
41
1
10
19.9397698707103
20
-26.1242263947339
30
0
41
1
10
19.9352755031884
20
-26.1244597041613
30
0
0
SPLINE
5
1AB
100
AcDbEntity
8
1
62
256
6
ByLayer
370
18
48
1
60
0
100
AcDbSpline
70
4
71
3
72
12
73
8
40
0
40
0
40
0
40
0
40
0.255056259349413
40
0.494604714121952
40
0.719968935073361
40
0.942699028307449
40
1
40
1
40
1
40
1
41
1
10
20.1168398650167
20
-25.6250032645699
30
0
41
1
10
20.1412136761814
20
-25.6466809964789
30
0
41
1
10
20.1797609950704
20
-25.6938885041451
30
0
41
1
10
20.2142425765854
20
-25.7802483991113
30
0
41
1
10
20.2195574479912
20
-25.8701819656692
30
0
41
1
10
20.2019339295339
20
-25.9358384478229
30
0
41
1
10
20.1852625567254
20
-25.9688880503679
30
0
41
1
10
20.1815518441628
20
-25.9755702920705
30
0
0
SPLINE
5
1AC
100
AcDbEntity
8
1
62
256
6
ByLayer
370
18
48
1
60
0
100
AcDbSpline
70
4
71
3
72
13
73
9
40
0
40
0
40
0
40
0
40
0.212275459580104
40
0.386387479228189
40
0.561520337419869
40
0.714816097899348
40
0.917450657562084
40
1
40
1
40
1
40
1
41
1
10
20.1066365164666
20
-24.6562896897689
30
0
41
1
10
20.0498403240113
20
-24.7084231055451
30
0
41
1
10
19.9670325599665
20
-24.8163528684032
30
0
41
1
10
19.8924617091222
20
-25.0132297081674
30
0
41
1
10
19.885279724608
20
-25.2073675454542
30
0
41
1
10
19.938183108477
20
-25.4002708269455
30
0
41
1
10
20.0250612693065
20
-25.5347380471693
30
0
41
1
10
20.095114975669
20
-25.6057152967509
30
0
41
1
10
20.1168398650167
20
-25.6250032645699
30
0
0
SPLINE
5
1AD
100
AcDbEntity
8
1
62
256
6
ByLayer
370
18
48
1
60
0
100
AcDbSpline
70
4
71
1
72
4
73
2
40
0
40
0
40
1
40
1
41
1
10
-14.8237109429722
20
-0.34327857925749
30
0
41
1
10
-13.5564502636199
20
0.325000000000001
30
0
0
SPLINE
5
1AE
100
AcDbEntity
8
1
62
256
6
ByLayer
370
18
48
1
60
0
100
AcDbSpline
70
4
71
3
72
10
73
6
40
0
40
0
40
0
40
0
40
0.276610294777501
40
0.775612231456874
40
1
40
1
40
1
40
1
41
1
10
-15.1095827087057
20
-0.445278565292449
30
0
41
1
10
-15.0868273258237
20
-0.443846649876812
30
0
41
1
10
-15.0205039516619
20
-0.433933666852962
30
0
41
1
10
-14.9187271297532
20
-0.392435077215135
30
0
41
1
10
-14.8464755087282
20
-0.35578543638534
30
0
41
1
10
-14.8237109429757
20
-0.343278579267313
30
0
0
SPLINE
5
1AF
100
AcDbEntity
8
1
62
256
6
ByLayer
370
18
48
1
60
0
100
AcDbSpline
70
4
71
1
72
4
73
2
40
0
40
0
40
1
40
1
41
1
10
13.3683356695468
20
-0.34327857925749
30
0
41
1
10
11.8991530686011
20
0.325000000000001
30
0
0
SPLINE
5
1B0
100
AcDbEntity
8
1
62
256
6
ByLayer
370
18
48
1
60
0
100
AcDbSpline
70
4
71
2
72
6
73
3
40
0
40
0
40
0
40
1
40
1
40
1
41
1
10
13.7031910539864
20
-0.445276855443502
30
0
41
1
10
13.551409608069
20
-0.435716317440875
30
0
41
1
10
13.3683356695468
20
-0.343278579257488
30
0
0
SPLINE
5
1B1
100
AcDbEntity
8
1
62
256
6
ByLayer
370
18
48
1
60
0
100
AcDbSpline
70
4
71
3
72
14
73
10
40
0
40
0
40
0
40
0
40
0.0710040465101669
40
0.249850708317589
40
0.394439649603925
40
0.538806797006701
40
0.743668827005124
40
0.946868653804494
40
1
40
1
40
1
40
1
41
1
10
13.7398159364959
20
-0.34327857924706
30
0
41
1
10
13.7432489949022
20
-0.3473187937658
30
0
41
1
10
13.754400312124
20
-0.36147090625592
30
0
41
1
10
13.7683685078244
20
-0.384392261981455
30
0
41
1
10
13.7737418193114
20
-0.409011655860026
30
0
41
1
10
13.7668375822114
20
-0.429061720763564
30
0
41
1
10
13.745474683603
20
-0.44167402861516
30
0
41
1
10
13.721002688731
20
-0.445010047584162
30
0
41
1
10
13.7069990872222
20
-0.445288730893285
30
0
41
1
10
13.7024990254272
20
-0.445271389306067
30
0
0
SPLINE
5
1B2
100
AcDbEntity
8
1
62
256
6
ByLayer
370
18
48
1
60
0
100
AcDbSpline
70
4
71
1
72
4
73
2
40
0
40
0
40
1
40
1
41
1
10
17.7716749003053
20
-0.34327857925749
30
0
41
1
10
16.8327016176845
20
0.325
30
0
0
SPLINE
5
1B3
100
AcDbEntity
8
1
62
256
6
ByLayer
370
18
48
1
60
0
100
AcDbSpline
70
4
71
3
72
10
73
6
40
0
40
0
40
0
40
0
40
0.19285510146424
40
0.468535766349845
40
1
40
1
40
1
40
1
41
1
10
17.9665597439123
20
-0.445278424962078
30
0
41
1
10
17.9581672895366
20
-0.44478778320157
30
0
41
1
10
17.9355091691614
20
-0.440438905835429
30
0
41
1
10
17.8703663660249
20
-0.410021226714186
30
0
41
1
10
17.813287955515
20
-0.373973465716144
30
0
41
1
10
17.7716749003053
20
-0.343278579257493
30
0
0
SPLINE
5
1B4
100
AcDbEntity
8
1
62
256
6
ByLayer
370
18
48
1
60
0
100
AcDbSpline
70
4
71
3
72
13
73
9
40
0
40
0
40
0
40
0
40
0.076125192250318
40
0.344862366360286
40
0.539744081720383
40
0.753878528141756
40
0.96702850554003
40
1
40
1
40
1
40
1
41
1
10
17.9349522380298
20
-0.343278579256916
30
0
41
1
10
17.9383693228934
20
-0.347346082980048
30
0
41
1
10
17.9531562033176
20
-0.365510265445401
30
0
41
1
10
17.972981463754
20
-0.393428352388137
30
0
41
1
10
17.9861189268182
20
-0.422419538668469
30
0
41
1
10
17.985451102585
20
-0.440355507223613
30
0
41
1
10
17.975352338591
20
-0.445087175904052
30
0
41
1
10
17.9708440030562
20
-0.445203623716853
30
0
41
1
10
17.9663441627081
20
-0.445277723395564
30
0
0
SPLINE
5
1B5
100
AcDbEntity
8
1
62
256
6
ByLayer
370
18
48
1
60
0
100
AcDbSpline
70
4
71
1
72
4
73
2
40
0
40
0
40
1
40
1
41
1
10
19.6464364834369
20
-0.34327857925749
30
0
41
1
10
18.9546127301509
20
0.325
30
0
0
SPLINE
5
1B6
100
AcDbEntity
8
1
62
256
6
ByLayer
370
18
48
1
60
0
100
AcDbSpline
70
4
71
3
72
11
73
7
40
0
40
0
40
0
40
0
40
0.0968562848673459
40
0.315278319977771
40
0.576957486652427
40
1
40
1
40
1
40
1
41
1
10
19.7589698125192
20
-0.445598443761058
30
0
41
1
10
19.7544540992695
20
-0.445021311576891
30
0
41
1
10
19.7510614884456
20
-0.441934543660183
30
0
41
1
10
19.7401359385698
20
-0.432476270943624
30
0
41
1
10
19.7044744058551
20
-0.399314608633815
30
0
41
1
10
19.670796621246
20
-0.366991559256316
30
0
41
1
10
19.6464364834369
20
-0.343278579257502
30
0
0
SPLINE
5
1B7
100
AcDbEntity
8
1
62
256
6
ByLayer
370
18
48
1
60
0
100
AcDbSpline
70
4
71
3
72
13
73
9
40
0
40
0
40
0
40
0
40
0.0725389561299051
40
0.282680251094681
40
0.494082831480854
40
0.681208669575999
40
0.932107707459112
40
1
40
1
40
1
40
1
41
1
10
17.1976557611125
20
-0.445265751623984
30
0
41
1
10
17.2021563671386
20
-0.445271375138269
30
0
41
1
10
17.2112835613887
20
-0.444663865666179
30
0
41
1
10
17.2244257733822
20
-0.438639345456733
30
0
41
1
10
17.2272672931153
20
-0.419805231488423
30
0
41
1
10
17.2159538180705
20
-0.390720195017948
30
0
41
1
10
17.1977599436425
20
-0.363942825772066
30
0
41
1
10
17.1841955781061
20
-0.346940535849655
30
0
41
1
10
17.1811675775405
20
-0.343278579257019
30
0
0
SPLINE
5
1B8
100
AcDbEntity
8
1
62
256
6
ByLayer
370
18
48
1
60
0
100
AcDbSpline
70
4
71
3
72
10
73
6
40
0
40
0
40
0
40
0
40
0.568025568657174
40
0.835557018455672
40
1
40
1
40
1
40
1
41
1
10
16.9794705811172
20
-0.343278579257493
30
0
41
1
10
17.027899449872
20
-0.376394461537536
30
0
41
1
10
17.0927886150655
20
-0.413055431958306
30
0
41
1
10
17.1651104474448
20
-0.44133373311996
30
0
41
1
10
17.189782555176
20
-0.444891231229692
30
0
41
1
10
17.1985207267192
20
-0.445277610226231
30
0
0
SPLINE
5
1B9
100
AcDbEntity
8
1
62
256
6
ByLayer
370
18
48
1
60
0
100
AcDbSpline
70
4
71
1
72
4
73
2
40
0
40
0
40
1
40
1
41
1
10
15.9578301704837
20
0.325
30
0
41
1
10
16.9794705811172
20
-0.34327857925749
30
0
0
SPLINE
5
1BA
100
AcDbEntity
8
1
62
256
6
ByLayer
370
18
48
1
60
0
100
AcDbSpline
70
4
71
2
72
6
73
3
40
0
40
0
40
0
40
1
40
1
40
1
41
1
10
-9.11879287402913
20
-0.343278579257493
30
0
41
1
10
-9.39490209321676
20
-0.433518461432601
30
0
41
1
10
-9.65254729666257
20
-0.445244632529133
30
0
0
SPLINE
5
1BB
100
AcDbEntity
8
1
62
256
6
ByLayer
370
18
48
1
60
0
100
AcDbSpline
70
4
71
2
72
6
73
3
40
0
40
0
40
0
40
1
40
1
40
1
41
1
10
-6.61172018086064
20
0.325000000000001
30
0
41
1
10
-7.88172906724866
20
0.0372120069985997
30
0
41
1
10
-9.11879287402913
20
-0.343278579257492
30
0
0
SPLINE
5
1BC
100
AcDbEntity
8
1
62
256
6
ByLayer
370
18
48
1
60
0
100
AcDbSpline
70
4
71
1
72
4
73
2
40
0
40
0
40
1
40
1
41
1
10
-16.008510663641
20
-0.34327857925749
30
0
41
1
10
-14.8816949219503
20
0.325000000000001
30
0
0
SPLINE
5
1BD
100
AcDbEntity
8
1
62
256
6
ByLayer
370
18
48
1
60
0
100
AcDbSpline
70
4
71
3
72
11
73
7
40
0
40
0
40
0
40
0
40
0.0604715205985571
40
0.362833791299764
40
0.863855617591782
40
1
40
1
40
1
40
1
41
1
10
-16.2570398812324
20
-0.445282567028272
30
0
41
1
10
-16.2525406830073
20
-0.445190006153568
30
0
41
1
10
-16.2293187477692
20
-0.443911549010895
30
0
41
1
10
-16.1608362533735
20
-0.424684989732746
30
0
41
1
10
-16.0773558548656
20
-0.383955337211134
30
0
41
1
10
-16.0207119015102
20
-0.350734310444419
30
0
41
1
10
-16.008510663641
20
-0.343278579257523
30
0
0
SPLINE
5
1BE
100
AcDbEntity
8
1
62
256
6
ByLayer
370
18
48
1
60
0
100
AcDbSpline
70
4
71
3
72
11
73
7
40
0
40
0
40
0
40
0
40
0.123218973503699
40
0.50756115778247
40
0.757153309165489
40
1
40
1
40
1
40
1
41
1
10
19.5586932485771
20
-0.343278579256898
30
0
41
1
10
19.5639710331277
20
-0.34886072257112
30
0
41
1
10
19.5849525119043
20
-0.371256111107796
30
0
41
1
10
19.6133586755909
20
-0.402667754206434
30
0
41
1
10
19.6361317740404
20
-0.430513248260638
30
0
41
1
10
19.6413855202707
20
-0.438899075484865
30
0
41
1
10
19.64307327988
20
-0.443073805693881
30
0
0
SPLINE
5
1BF
100
AcDbEntity
8
1
62
256
6
ByLayer
370
18
48
1
60
0
100
AcDbSpline
70
4
71
1
72
4
73
2
40
0
40
0
40
1
40
1
41
1
10
-19.5180034570805
20
-0.343278579257489
30
0
41
1
10
-18.7906850260974
20
0.325000000000001
30
0
0
SPLINE
5
1C0
100
AcDbEntity
8
1
62
256
6
ByLayer
370
18
48
1
60
0
100
AcDbSpline
70
4
71
3
72
10
73
6
40
0
40
0
40
0
40
0
40
0.505262177317782
40
0.877728643417909
40
1
40
1
40
1
40
1
41
1
10
-19.641804841135
20
-0.445278478222282
30
0
41
1
10
-19.6266640075729
20
-0.437570660098176
30
0
41
1
10
-19.5930694322719
20
-0.410865346764998
30
0
41
1
10
-19.5526651402779
20
-0.375167016941426
30
0
41
1
10
-19.5250146659593
20
-0.349779082349362
30
0
41
1
10
-19.5180034570802
20
-0.343278579257342
30
0
0
SPLINE
5
1C1
100
AcDbEntity
8
1
62
256
6
ByLayer
370
18
48
1
60
0
100
AcDbSpline
70
4
71
3
72
11
73
7
40
0
40
0
40
0
40
0
40
0.119083691526206
40
0.570514479808227
40
0.866931786345967
40
1
40
1
40
1
40
1
41
1
10
-17.7716749003053
20
-0.343278579257495
30
0
41
1
10
-17.7805402874376
20
-0.349713896671254
30
0
41
1
10
-17.8225526302389
20
-0.379357715437434
30
0
41
1
10
-17.8854800737444
20
-0.418332440063977
30
0
41
1
10
-17.9408489875055
20
-0.442099807542714
30
0
41
1
10
-17.9607299320629
20
-0.445033883102328
30
0
41
1
10
-17.9663915368705
20
-0.445277651197063
30
0
0
SPLINE
5
1C2
100
AcDbEntity
8
1
62
256
6
ByLayer
370
18
48
1
60
0
100
AcDbSpline
70
4
71
1
72
4
73
2
40
0
40
0
40
1
40
1
41
1
10
-16.8327016176845
20
0.325000000000001
30
0
41
1
10
-17.7716749003053
20
-0.34327857925749
30
0
0
SPLINE
5
1C3
100
AcDbEntity
8
1
62
256
6
ByLayer
370
18
48
1
60
0
100
AcDbSpline
70
4
71
3
72
11
73
7
40
0
40
0
40
0
40
0
40
0.153255085717156
40
0.533397858870212
40
0.803009726279604
40
1
40
1
40
1
40
1
41
1
10
-19.2723234562796
20
-0.34327857925738
30
0
41
1
10
-19.2816433297453
20
-0.351481485306911
30
0
41
1
10
-19.3131815910777
20
-0.378705087398385
30
0
41
1
10
-19.3584484081592
20
-0.415265967954135
30
0
41
1
10
-19.3951646174866
20
-0.440028138996717
30
0
41
1
10
-19.4073449974364
20
-0.445251246439642
30
0
41
1
10
-19.4118710955344
20
-0.445294276408493
30
0
0
SPLINE
5
1C4
100
AcDbEntity
8
1
62
256
6
ByLayer
370
18
48
1
60
0
100
AcDbSpline
70
4
71
1
72
4
73
2
40
0
40
0
40
1
40
1
41
1
10
-18.5041169405622
20
0.325000000000001
30
0
41
1
10
-19.2723234562802
20
-0.343278579257491
30
0
0
SPLINE
5
1C5
100
AcDbEntity
8
1
62
256
6
ByLayer
370
18
48
1
60
0
100
AcDbSpline
70
4
71
3
72
13
73
9
40
0
40
0
40
0
40
0
40
0.082549342437915
40
0.285183902100653
40
0.438479662580131
40
0.613612520771811
40
0.787724540419896
40
1
40
1
40
1
40
1
41
1
10
17.3206144198437
20
-24.6833353593628
30
0
41
1
10
17.3382898086093
20
-24.7028355525145
30
0
41
1
10
17.395147750585
20
-24.7745043628035
30
0
41
1
10
17.4641464083273
20
-24.9099086080788
30
0
41
1
10
17.5056183351214
20
-25.1034109868493
30
0
41
1
10
17.5005413716769
20
-25.2974385046566
30
0
41
1
10
17.442983491905
20
-25.4934237323878
30
0
41
1
10
17.376578784792
20
-25.6004938474587
30
0
41
1
10
17.3308177683938
20
-25.6520489341637
30
0
0
SPLINE
5
1C6
100
AcDbEntity
8
1
62
256
6
ByLayer
370
18
48
1
60
0
100
AcDbSpline
70
4
71
1
72
4
73
2
40
0
40
0
40
1
40
1
41
1
10
16.008510663641
20
-0.34327857925749
30
0
41
1
10
14.8816949219503
20
0.325
30
0
0
SPLINE
5
1C7
100
AcDbEntity
8
1
62
256
6
ByLayer
370
18
48
1
60
0
100
AcDbSpline
70
4
71
3
72
10
73
6
40
0
40
0
40
0
40
0
40
0.136482189792044
40
0.386762816519977
40
1
40
1
40
1
40
1
41
1
10
16.2562377321302
20
-0.445272339247191
30
0
41
1
10
16.2474409921285
20
-0.444948835383614
30
0
41
1
10
16.2212884059939
20
-0.442097786540308
30
0
41
1
10
16.1404284310049
20
-0.416331913505684
30
0
41
1
10
16.0660286492502
20
-0.379336285524727
30
0
41
1
10
16.008510663641
20
-0.34327857925749
30
0
0
SPLINE
5
1C8
100
AcDbEntity
8
1
62
256
6
ByLayer
370
18
48
1
60
0
100
AcDbSpline
70
4
71
3
72
13
73
9
40
0
40
0
40
0
40
0
40
0.0348917184126972
40
0.272453006735678
40
0.447245155874362
40
0.641566258436902
40
0.834735858191692
40
1
40
1
40
1
40
1
41
1
10
16.2542788556938
20
-0.342491945217048
30
0
41
1
10
16.2571218777652
20
-0.345980578687327
30
0
41
1
10
16.2683671159154
20
-0.360024855441096
30
0
41
1
10
16.285084671901
20
-0.384563741316723
30
0
41
1
10
16.2959851239126
20
-0.413818252537001
30
0
41
1
10
16.293210045122
20
-0.43390976984668
30
0
41
1
10
16.2779203083254
20
-0.443720511192804
30
0
41
1
10
16.2638563716007
20
-0.445517980673968
30
0
41
1
10
16.2562377321302
20
-0.445272339247191
30
0
0
SPLINE
5
1C9
100
AcDbEntity
8
1
62
256
6
ByLayer
370
18
48
1
60
0
100
AcDbSpline
70
4
71
3
72
11
73
7
40
0
40
0
40
0
40
0
40
0.411970772124703
40
0.687463188453742
40
0.910646715084585
40
1
40
1
40
1
40
1
41
1
10
19.5180034570805
20
-0.343278579257499
30
0
41
1
10
19.5427218373032
20
-0.36626800284757
30
0
41
1
10
19.5790061678723
20
-0.39876728036635
30
0
41
1
10
19.6196046838483
20
-0.432326848076072
30
0
41
1
10
19.6350201829421
20
-0.442977100737
30
0
41
1
10
19.6391713606827
20
-0.444742969750541
30
0
41
1
10
19.6436271632753
20
-0.445411937259433
30
0
0
SPLINE
5
1CA
100
AcDbEntity
8
1
62
256
6
ByLayer
370
18
48
1
60
0
100
AcDbSpline
70
4
71
1
72
4
73
2
40
0
40
0
40
1
40
1
41
1
10
18.7906850260974
20
0.325
30
0
41
1
10
19.5180034570805
20
-0.34327857925749
30
0
0
SPLINE
5
1CB
100
AcDbEntity
8
1
62
256
6
ByLayer
370
18
48
1
60
0
100
AcDbSpline
70
4
71
3
72
11
73
7
40
0
40
0
40
0
40
0
40
0.0496340243515153
40
0.46390530251097
40
0.767689446651563
40
1
40
1
40
1
40
1
41
1
10
19.6594663301714
20
-0.342816898996837
30
0
41
1
10
19.6626221803505
20
-0.346025428059252
30
0
41
1
10
19.6829399920939
20
-0.366701113435867
30
0
41
1
10
19.7152161468
20
-0.399820527423177
30
0
41
1
10
19.7447872426324
20
-0.431083161941643
30
0
41
1
10
19.7524788343258
20
-0.439952097793443
30
0
41
1
10
19.7552730228908
20
-0.443480126813394
30
0
0
SPLINE
5
1CC
100
AcDbEntity
8
1
62
256
6
ByLayer
370
18
48
1
60
0
100
AcDbSpline
70
4
71
1
72
4
73
2
40
0
40
0
40
1
40
1
41
1
10
18.408216543415
20
-0.34327857925749
30
0
41
1
10
17.536457559895
20
0.325
30
0
0
SPLINE
5
1CD
100
AcDbEntity
8
1
62
256
6
ByLayer
370
18
48
1
60
0
100
AcDbSpline
70
4
71
3
72
11
73
7
40
0
40
0
40
0
40
0
40
0.0016982214449153
40
0.221444448091118
40
0.499970007759344
40
1
40
1
40
1
40
1
41
1
10
18.5832730352185
20
-0.445279581231233
30
0
41
1
10
18.5787734403242
20
-0.445191839521715
30
0
41
1
10
18.574264340222
20
-0.445144898953142
30
0
41
1
10
18.5535589487743
20
-0.439080715727114
30
0
41
1
10
18.4953438498346
20
-0.407389915040916
30
0
41
1
10
18.4445026451893
20
-0.371904905793194
30
0
41
1
10
18.408216543415
20
-0.343278579257496
30
0
0
SPLINE
5
1CE
100
AcDbEntity
8
1
62
256
6
ByLayer
370
18
48
1
60
0
100
AcDbSpline
70
4
71
3
72
12
73
8
40
0
40
0
40
0
40
0
40
0.0888006895699535
40
0.372672012915315
40
0.573629852222414
40
0.788193714781812
40
1
40
1
40
1
40
1
41
1
10
18.5373273217389
20
-0.343278579256492
30
0
41
1
10
18.5413818961241
20
-0.347997063402582
30
0
41
1
10
18.557622552608
20
-0.36743447657642
30
0
41
1
10
18.5792697899163
20
-0.396479847318955
30
0
41
1
10
18.5942685614686
20
-0.425067727289651
30
0
41
1
10
18.5955106549007
20
-0.441803952828576
30
0
41
1
10
18.5880511318393
20
-0.44532914377731
30
0
41
1
10
18.5822787769219
20
-0.445278577788856
30
0
0
SPLINE
5
1CF
100
AcDbEntity
8
1
62
256
6
ByLayer
370
18
48
1
60
0
100
AcDbSpline
70
4
71
1
72
4
73
2
40
0
40
0
40
1
40
1
41
1
10
-11.54046753934
20
-0.343278579257493
30
0
41
1
10
-9.74178339679136
20
0.325000000000001
30
0
0
SPLINE
5
1D0
100
AcDbEntity
8
1
62
256
6
ByLayer
370
18
48
1
60
0
100
AcDbSpline
70
4
71
3
72
10
73
6
40
0
40
0
40
0
40
0
40
0.0550687869983691
40
0.500493573635686
40
1
40
1
40
1
40
1
41
1
10
-11.9478941621985
20
-0.445272647621934
30
0
41
1
10
-11.9411096869194
20
-0.445177815964118
30
0
41
1
10
-11.8790493140595
20
-0.443365595487266
30
0
41
1
10
-11.7410587274259
20
-0.414620981690954
30
0
41
1
10
-11.611227076177
20
-0.372440600569549
30
0
41
1
10
-11.54046753934
20
-0.34327857925749
30
0
0
SPLINE
5
1D1
100
AcDbEntity
8
1
62
256
6
ByLayer
370
18
48
1
60
0
100
AcDbSpline
70
4
71
3
72
12
73
8
40
0
40
0
40
0
40
0
40
0.166286140414421
40
0.345080079518738
40
0.54934333393072
40
0.752415951175787
40
1
40
1
40
1
40
1
41
1
10
17.747007445565
20
-26.1150424293667
30
0
41
1
10
17.7936132655604
20
-26.1121074954978
30
0
41
1
10
17.8910628308127
20
-26.1183160809182
30
0
41
1
10
18.0543656408245
20
-26.1679661494855
30
0
41
1
10
18.218323663933
20
-26.2710426578799
30
0
41
1
10
18.3619534665039
20
-26.4271104129884
30
0
41
1
10
18.4247695822036
20
-26.5459298334136
30
0
41
1
10
18.4489614658187
20
-26.616504047255
30
0
0
INSERT
5
1E6
100
AcDbEntity
8
2L
62
256
6
ByLayer
370
25
48
1
60
0
100
AcDbBlockReference
2
DimnDraft3D11
10
0
20
0
30
0
41
1
42
1
43
1
50
0
210
0
220
0
230
1
0
INSERT
5
1F7
100
AcDbEntity
8
SK2
62
256
6
ByLayer
370
25
48
1
60
0
100
AcDbBlockReference
2
DimnDraft3D22
10
0
20
0
30
0
41
1
42
1
43
1
50
0
210
0
220
0
230
1
0
INSERT
5
208
100
AcDbEntity
8
SK2
62
256
6
ByLayer
370
25
48
1
60
0
100
AcDbBlockReference
2
DimnDraft3D33
10
0
20
0
30
0
41
1
42
1
43
1
50
0
210
0
220
0
230
1
0
INSERT
5
218
100
AcDbEntity
8
2L
62
256
6
ByLayer
370
25
48
1
60
0
100
AcDbBlockReference
2
DimnDraft3D44
10
0
20
0
30
0
41
1
42
1
43
1
50
0
210
0
220
0
230
1
0
LINE
5
73
100
AcDbEntity
8
1
62
256
6
ByLayer
370
18
48
1
60
0
100
AcDbLine
10
20
20
-0.675
30
0
11
-20
21
-0.675
31
0
39
0
210
0
220
0
230
1
0
LINE
5
74
100
AcDbEntity
8
1
62
256
6
ByLayer
370
18
48
1
60
0
100
AcDbLine
10
-20
20
-0.675
30
0
11
-20
21
-6.849358
31
0
39
0
210
0
220
0
230
1
0
LINE
5
75
100
AcDbEntity
8
1
62
256
6
ByLayer
370
18
48
1
60
0
100
AcDbLine
10
-19
20
0.325
30
0
11
-20
21
-0.675
31
0
39
0
210
0
220
0
230
1
0
LINE
5
76
100
AcDbEntity
8
1
62
256
6
ByLayer
370
18
48
1
60
0
100
AcDbLine
10
-19.65992
20
-0.343279
30
0
11
-19.646436
21
-0.343279
31
0
39
0
210
0
220
0
230
1
0
LINE
5
77
100
AcDbEntity
8
1
62
256
6
ByLayer
370
18
48
1
60
0
100
AcDbLine
10
-19.558693
20
-0.343279
30
0
11
-19.518003
21
-0.343279
31
0
39
0
210
0
220
0
230
1
0
LINE
5
78
100
AcDbEntity
8
1
62
256
6
ByLayer
370
18
48
1
60
0
100
AcDbLine
10
-19.340954
20
-0.343279
30
0
11
-19.272323
21
-0.343279
31
0
39
0
210
0
220
0
230
1
0
LINE
5
79
100
AcDbEntity
8
1
62
256
6
ByLayer
370
18
48
1
60
0
100
AcDbLine
10
-19.002697
20
-0.343279
30
0
11
-18.904826
21
-0.343279
31
0
39
0
210
0
220
0
230
1
0
LINE
5
7A
100
AcDbEntity
8
1
62
256
6
ByLayer
370
18
48
1
60
0
100
AcDbLine
10
-18.537327
20
-0.343279
30
0
11
-18.408217
21
-0.343279
31
0
39
0
210
0
220
0
230
1
0
LINE
5
7B
100
AcDbEntity
8
1
62
256
6
ByLayer
370
18
48
1
60
0
100
AcDbLine
10
-17.934952
20
-0.343279
30
0
11
-17.771675
21
-0.343279
31
0
39
0
210
0
220
0
230
1
0
LINE
5
7C
100
AcDbEntity
8
1
62
256
6
ByLayer
370
18
48
1
60
0
100
AcDbLine
10
-17.402724
20
-7.07659
30
0
11
-15.147629
21
-7.273886
31
0
39
0
210
0
220
0
230
1
0
LINE
5
7D
100
AcDbEntity
8
1
62
256
6
ByLayer
370
18
48
1
60
0
100
AcDbLine
10
-20
20
-6.849358
30
0
11
-17.402724
21
-7.07659
31
0
39
0
210
0
220
0
230
1
0
LINE
5
7E
100
AcDbEntity
8
1
62
256
6
ByLayer
370
18
48
1
60
0
100
AcDbLine
10
-17.181168
20
-0.343279
30
0
11
-16.979471
21
-0.343279
31
0
39
0
210
0
220
0
230
1
0
LINE
5
7F
100
AcDbEntity
8
1
62
256
6
ByLayer
370
18
48
1
60
0
100
AcDbLine
10
-16.254923
20
-0.343279
30
0
11
-16.008511
21
-0.343279
31
0
39
0
210
0
220
0
230
1
0
LINE
5
80
100
AcDbEntity
8
1
62
256
6
ByLayer
370
18
48
1
60
0
100
AcDbLine
10
-15.124567
20
-0.343279
30
0
11
-14.823711
21
-0.343279
31
0
39
0
210
0
220
0
230
1
0
LINE
5
81
100
AcDbEntity
8
1
62
256
6
ByLayer
370
18
48
1
60
0
100
AcDbLine
10
-13.739816
20
-0.343279
30
0
11
-13.368336
21
-0.343279
31
0
39
0
210
0
220
0
230
1
0
LINE
5
82
100
AcDbEntity
8
1
62
256
6
ByLayer
370
18
48
1
60
0
100
AcDbLine
10
-12.013016
20
-0.343279
30
0
11
-11.540468
21
-0.343279
31
0
39
0
210
0
220
0
230
1
0
LINE
5
83
100
AcDbEntity
8
1
62
256
6
ByLayer
370
18
48
1
60
0
100
AcDbLine
10
-9.764351
20
-0.343279
30
0
11
-9.118793
21
-0.343279
31
0
39
0
210
0
220
0
230
1
0
LINE
5
84
100
AcDbEntity
8
1
62
256
6
ByLayer
370
18
48
1
60
0
100
AcDbLine
10
-8.717798
20
-6.4
30
0
11
-8.717798
21
-7.670216
31
0
39
0
210
0
220
0
230
1
0
LINE
5
85
100
AcDbEntity
8
1
62
256
6
ByLayer
370
18
48
1
60
0
100
AcDbLine
10
8.717798
20
-6.4
30
0
11
-8.717798
21
-6.4
31
0
39
0
210
0
220
0
230
1
0
LINE
5
86
100
AcDbEntity
8
1
62
256
6
ByLayer
370
18
48
1
60
0
100
AcDbLine
10
-6.470901
20
-0.343279
30
0
11
-5.349988
21
-0.343279
31
0
39
0
210
0
220
0
230
1
0
LINE
5
87
100
AcDbEntity
8
SK1
62
256
6
ByLayer
370
18
48
1
60
0
100
AcDbLine
10
-2.65359
20
3.825
30
0
11
-3
21
3.225
31
0
39
0
210
0
220
0
230
1
0
LINE
5
89
100
AcDbEntity
8
SK1
62
256
6
ByLayer
370
18
48
1
60
0
100
AcDbLine
10
-3
20
3.225
30
0
11
-3
21
0.325
31
0
39
0
210
0
220
0
230
1
0
LINE
5
8A
100
AcDbEntity
8
SK1
62
256
6
ByLayer
370
18
48
1
60
0
100
AcDbLine
10
0
20
3.225
30
0
11
-3
21
3.225
31
0
39
0
210
0
220
0
230
1
0
LINE
5
8B
100
AcDbEntity
8
SK1
62
256
6
ByLayer
370
18
48
1
60
0
100
AcDbLine
10
3
20
3.225
30
0
11
2.65359
21
3.825
31
0
39
0
210
0
220
0
230
1
0
LINE
5
8C
100
AcDbEntity
8
SK1
62
256
6
ByLayer
370
18
48
1
60
0
100
AcDbLine
10
3
20
0.325
30
0
11
3
21
3.225
31
0
39
0
210
0
220
0
230
1
0
LINE
5
8D
100
AcDbEntity
8
SK1
62
256
6
ByLayer
370
18
48
1
60
0
100
AcDbLine
10
3
20
3.225
30
0
11
0
21
3.225
31
0
39
0
210
0
220
0
230
1
0
LINE
5
8E
100
AcDbEntity
8
1
62
256
6
ByLayer
370
18
48
1
60
0
100
AcDbLine
10
-5.496803
20
0.325
30
0
11
5.496803
21
0.325
31
0
39
0
210
0
220
0
230
1
0
LINE
5
8F
100
AcDbEntity
8
1
62
256
6
ByLayer
370
18
48
1
60
0
100
AcDbLine
10
6.61172
20
0.325
30
0
11
5.496803
21
0.325
31
0
39
0
210
0
220
0
230
1
0
LINE
5
90
100
AcDbEntity
8
1
62
256
6
ByLayer
370
18
48
1
60
0
100
AcDbLine
10
8.717798
20
-9.181045
30
0
11
8.717798
21
-6.4
31
0
39
0
210
0
220
0
230
1
0
LINE
5
91
100
AcDbEntity
8
1
62
256
6
ByLayer
370
18
48
1
60
0
100
AcDbLine
10
-8.717798
20
-7.670216
30
0
11
8.717798
21
-9.181045
31
0
39
0
210
0
220
0
230
1
0
LINE
5
92
100
AcDbEntity
8
1
62
256
6
ByLayer
370
18
48
1
60
0
100
AcDbLine
10
9.741783
20
0.325
30
0
11
9.084456
21
0.325
31
0
39
0
210
0
220
0
230
1
0
LINE
5
93
100
AcDbEntity
8
1
62
256
6
ByLayer
370
18
48
1
60
0
100
AcDbLine
10
6.61172
20
0.325
30
0
11
9.084456
21
0.325
31
0
39
0
210
0
220
0
230
1
0
LINE
5
94
100
AcDbEntity
8
1
62
256
6
ByLayer
370
18
48
1
60
0
100
AcDbLine
10
10.433049
20
-29.331364
30
0
11
10.033475
21
-29.352305
31
0
39
0
210
0
220
0
230
1
0
LINE
5
95
100
AcDbEntity
8
1
62
256
6
ByLayer
370
18
48
1
60
0
100
AcDbLine
10
10.569063
20
-28.48637
30
0
11
10.033475
21
-29.352305
31
0
39
0
210
0
220
0
230
1
0
LINE
5
96
100
AcDbEntity
8
1
62
256
6
ByLayer
370
18
48
1
60
0
100
AcDbLine
10
10.720124
20
-29.16046
30
0
11
10.601923
21
-29.404148
31
0
39
0
210
0
220
0
230
1
0
LINE
5
97
100
AcDbEntity
8
1
62
256
6
ByLayer
370
18
48
1
60
0
100
AcDbLine
10
9.741783
20
0.325
30
0
11
11.416648
21
0.325
31
0
39
0
210
0
220
0
230
1
0
LINE
5
98
100
AcDbEntity
8
1
62
256
6
ByLayer
370
18
48
1
60
0
100
AcDbLine
10
11.899153
20
0.325
30
0
11
11.416648
21
0.325
31
0
39
0
210
0
220
0
230
1
0
LINE
5
99
100
AcDbEntity
8
1
62
256
6
ByLayer
370
18
48
1
60
0
100
AcDbLine
10
11.528307
20
-30.974122
30
0
11
10.884445
21
-31.007865
31
0
39
0
210
0
220
0
230
1
0
LINE
5
9A
100
AcDbEntity
8
1
62
256
6
ByLayer
370
18
48
1
60
0
100
AcDbLine
10
13.068898
20
-30.471928
30
0
11
13.230385
21
-30.210837
31
0
39
0
210
0
220
0
230
1
0
LINE
5
9B
100
AcDbEntity
8
1
62
256
6
ByLayer
370
18
48
1
60
0
100
AcDbLine
10
13.068898
20
-30.471928
30
0
11
13.71276
21
-30.438185
31
0
39
0
210
0
220
0
230
1
0
LINE
5
9C
100
AcDbEntity
8
1
62
256
6
ByLayer
370
18
48
1
60
0
100
AcDbLine
10
13.55645
20
0.325
30
0
11
13.177721
21
0.325
31
0
39
0
210
0
220
0
230
1
0
LINE
5
9D
100
AcDbEntity
8
1
62
256
6
ByLayer
370
18
48
1
60
0
100
AcDbLine
10
11.899153
20
0.325
30
0
11
13.177721
21
0.325
31
0
39
0
210
0
220
0
230
1
0
LINE
5
9E
100
AcDbEntity
8
1
62
256
6
ByLayer
370
18
48
1
60
0
100
AcDbLine
10
13.71276
20
-30.438185
30
0
11
13.874247
21
-30.177094
31
0
39
0
210
0
220
0
230
1
0
LINE
5
9F
100
AcDbEntity
8
1
62
256
6
ByLayer
370
18
48
1
60
0
100
AcDbLine
10
14.21606
20
-30.549971
30
0
11
13.71276
21
-30.438185
31
0
39
0
210
0
220
0
230
1
0
LINE
5
A0
100
AcDbEntity
8
1
62
256
6
ByLayer
370
18
48
1
60
0
100
AcDbLine
10
14.881695
20
0.325
30
0
11
14.576174
21
0.325
31
0
39
0
210
0
220
0
230
1
0
LINE
5
A1
100
AcDbEntity
8
1
62
256
6
ByLayer
370
18
48
1
60
0
100
AcDbLine
10
13.55645
20
0.325
30
0
11
14.576174
21
0.325
31
0
39
0
210
0
220
0
230
1
0
LINE
5
A2
100
AcDbEntity
8
1
62
256
6
ByLayer
370
18
48
1
60
0
100
AcDbLine
10
14.881695
20
0.325
30
0
11
15.709148
21
0.325
31
0
39
0
210
0
220
0
230
1
0
LINE
5
A3
100
AcDbEntity
8
1
62
256
6
ByLayer
370
18
48
1
60
0
100
AcDbLine
10
15.95783
20
0.325
30
0
11
15.709148
21
0.325
31
0
39
0
210
0
220
0
230
1
0
LINE
5
A4
100
AcDbEntity
8
1
62
256
6
ByLayer
370
18
48
1
60
0
100
AcDbLine
10
15.95783
20
0.325
30
0
11
16.63099
21
0.325
31
0
39
0
210
0
220
0
230
1
0
LINE
5
A5
100
AcDbEntity
8
1
62
256
6
ByLayer
370
18
48
1
60
0
100
AcDbLine
10
16.832702
20
0.325
30
0
11
16.63099
21
0.325
31
0
39
0
210
0
220
0
230
1
0
LINE
5
A6
100
AcDbEntity
8
1
62
256
6
ByLayer
370
18
48
1
60
0
100
AcDbLine
10
16.832702
20
0.325
30
0
11
17.375337
21
0.325
31
0
39
0
210
0
220
0
230
1
0
LINE
5
A7
100
AcDbEntity
8
1
62
256
6
ByLayer
370
18
48
1
60
0
100
AcDbLine
10
17.536458
20
0.325
30
0
11
17.375337
21
0.325
31
0
39
0
210
0
220
0
230
1
0
LINE
5
A8
100
AcDbEntity
8
1
62
256
6
ByLayer
370
18
48
1
60
0
100
AcDbLine
10
17.447289
20
-24.200809
30
0
11
17.596846
21
-24.192971
31
0
39
0
210
0
220
0
230
1
0
LINE
5
A9
100
AcDbEntity
8
1
62
256
6
ByLayer
370
18
48
1
60
0
100
AcDbLine
10
17.511581
20
-26.143247
30
0
11
17.614375
21
-26.13786
31
0
39
0
210
0
220
0
230
1
0
LINE
5
AA
100
AcDbEntity
8
1
62
256
6
ByLayer
370
18
48
1
60
0
100
AcDbLine
10
18.089081
20
0.325
30
0
11
17.964266
21
0.325
31
0
39
0
210
0
220
0
230
1
0
LINE
5
AB
100
AcDbEntity
8
1
62
256
6
ByLayer
370
18
48
1
60
0
100
AcDbLine
10
17.536458
20
0.325
30
0
11
17.964266
21
0.325
31
0
39
0
210
0
220
0
230
1
0
LINE
5
AC
100
AcDbEntity
8
1
62
256
6
ByLayer
370
18
48
1
60
0
100
AcDbLine
10
18.153823
20
-11.538945
30
0
11
15.202247
21
-14.52242
31
0
39
0
210
0
220
0
230
1
0
LINE
5
AD
100
AcDbEntity
8
1
62
256
6
ByLayer
370
18
48
1
60
0
100
AcDbLine
10
18.153823
20
-11.538945
30
0
11
-9.338916
21
-9.081692
31
0
39
0
210
0
220
0
230
1
0
LINE
5
AE
100
AcDbEntity
8
1
62
256
6
ByLayer
370
18
48
1
60
0
100
AcDbLine
10
18.504117
20
0.325
30
0
11
18.412695
21
0.325
31
0
39
0
210
0
220
0
230
1
0
LINE
5
AF
100
AcDbEntity
8
1
62
256
6
ByLayer
370
18
48
1
60
0
100
AcDbLine
10
18.089081
20
0.325
30
0
11
18.412695
21
0.325
31
0
39
0
210
0
220
0
230
1
0
LINE
5
B0
100
AcDbEntity
8
1
62
256
6
ByLayer
370
18
48
1
60
0
100
AcDbLine
10
18.558205
20
-22.53398
30
0
11
18.401911
21
-22.542171
31
0
39
0
210
0
220
0
230
1
0
LINE
5
B1
100
AcDbEntity
8
1
62
256
6
ByLayer
370
18
48
1
60
0
100
AcDbLine
10
18.790685
20
0.325
30
0
11
18.730719
21
0.325
31
0
39
0
210
0
220
0
230
1
0
LINE
5
B2
100
AcDbEntity
8
1
62
256
6
ByLayer
370
18
48
1
60
0
100
AcDbLine
10
18.504117
20
0.325
30
0
11
18.730719
21
0.325
31
0
39
0
210
0
220
0
230
1
0
LINE
5
B3
100
AcDbEntity
8
1
62
256
6
ByLayer
370
18
48
1
60
0
100
AcDbLine
10
18.805584
20
-23.70142
30
0
11
18.988493
21
-23.691835
31
0
39
0
210
0
220
0
230
1
0
LINE
5
B4
100
AcDbEntity
8
1
62
256
6
ByLayer
370
18
48
1
60
0
100
AcDbLine
10
18.825073
20
-26.619792
30
0
11
19.00774
21
-26.610219
31
0
39
0
210
0
220
0
230
1
0
LINE
5
B5
100
AcDbEntity
8
1
62
256
6
ByLayer
370
18
48
1
60
0
100
AcDbLine
10
18.790685
20
0.325
30
0
11
18.924913
21
0.325
31
0
39
0
210
0
220
0
230
1
0
LINE
5
B6
100
AcDbEntity
8
1
62
256
6
ByLayer
370
18
48
1
60
0
100
AcDbLine
10
18.954613
20
0.325
30
0
11
18.924913
21
0.325
31
0
39
0
210
0
220
0
230
1
0
LINE
5
B7
100
AcDbEntity
8
1
62
256
6
ByLayer
370
18
48
1
60
0
100
AcDbLine
10
18.954613
20
0.325
30
0
11
18.999075
21
0.325
31
0
39
0
210
0
220
0
230
1
0
LINE
5
B8
100
AcDbEntity
8
1
62
256
6
ByLayer
370
18
48
1
60
0
100
AcDbLine
10
19.070315
20
-26.243318
30
0
11
19.230651
21
-26.234916
31
0
39
0
210
0
220
0
230
1
0
LINE
5
B9
100
AcDbEntity
8
1
62
256
6
ByLayer
370
18
48
1
60
0
100
AcDbLine
10
19.372629
20
-26.150514
30
0
11
19.212293
21
-26.158917
31
0
39
0
210
0
220
0
230
1
0
LINE
5
BA
100
AcDbEntity
8
1
62
256
6
ByLayer
370
18
48
1
60
0
100
AcDbLine
10
19.923728
20
-24.665876
30
0
11
20.106637
21
-24.65629
31
0
39
0
210
0
220
0
230
1
0
LINE
5
BB
100
AcDbEntity
8
1
62
256
6
ByLayer
370
18
48
1
60
0
100
AcDbLine
10
19.933931
20
-25.634589
30
0
11
20.11684
21
-25.625003
31
0
39
0
210
0
220
0
230
1
0
LINE
5
BC
100
AcDbEntity
8
1
62
256
6
ByLayer
370
18
48
1
60
0
100
AcDbLine
10
18.832969
20
-27.776785
30
0
11
18.676675
21
-27.784976
31
0
39
0
210
0
220
0
230
1
0
LINE
5
BD
100
AcDbEntity
8
1
62
256
6
ByLayer
370
18
48
1
60
0
100
AcDbLine
10
18.904826
20
-0.343279
30
0
11
19.002697
21
-0.343279
31
0
39
0
210
0
220
0
230
1
0
LINE
5
BE
100
AcDbEntity
8
1
62
256
6
ByLayer
370
18
48
1
60
0
100
AcDbLine
10
-11.416648
20
0.325
30
0
11
-11.899153
21
0.325
31
0
39
0
210
0
220
0
230
1
0
LINE
5
BF
100
AcDbEntity
8
1
62
256
6
ByLayer
370
18
48
1
60
0
100
AcDbLine
10
-9.741783
20
0.325
30
0
11
-11.416648
21
0.325
31
0
39
0
210
0
220
0
230
1
0
LINE
5
C0
100
AcDbEntity
8
1
62
256
6
ByLayer
370
18
48
1
60
0
100
AcDbLine
10
15.124567
20
-0.343279
30
0
11
14.823711
21
-0.343279
31
0
39
0
210
0
220
0
230
1
0
LINE
5
C1
100
AcDbEntity
8
1
62
256
6
ByLayer
370
18
48
1
60
0
100
AcDbLine
10
-18.954613
20
0.325
30
0
11
-18.999075
21
0.325
31
0
39
0
210
0
220
0
230
1
0
LINE
5
C2
100
AcDbEntity
8
1
62
256
6
ByLayer
370
18
48
1
60
0
100
AcDbLine
10
6.470901
20
-0.343279
30
0
11
5.349988
21
-0.343279
31
0
39
0
210
0
220
0
230
1
0
LINE
5
C3
100
AcDbEntity
8
1
62
256
6
ByLayer
370
18
48
1
60
0
100
AcDbLine
10
19.340954
20
-0.343279
30
0
11
19.272323
21
-0.343279
31
0
39
0
210
0
220
0
230
1
0
LINE
5
C4
100
AcDbEntity
8
1
62
256
6
ByLayer
370
18
48
1
60
0
100
AcDbLine
10
19.669658
20
-24.194388
30
0
11
19.496026
21
-24.203488
31
0
39
0
210
0
220
0
230
1
0
LINE
5
C5
100
AcDbEntity
8
1
62
256
6
ByLayer
370
18
48
1
60
0
100
AcDbLine
10
-5
20
-31.975
30
0
11
-5
21
-17.325
31
0
39
0
210
0
220
0
230
1
0
LINE
5
C6
100
AcDbEntity
8
1
62
256
6
ByLayer
370
18
48
1
60
0
100
AcDbLine
10
17.45961
20
-37.675
30
0
11
0.7
21
-37.675
31
0
39
0
210
0
220
0
230
1
0
LINE
5
C7
100
AcDbEntity
8
1
62
256
6
ByLayer
370
18
48
1
60
0
100
AcDbLine
10
21.229946
20
-31.579156
30
0
11
17.45961
21
-37.675
31
0
39
0
210
0
220
0
230
1
0
LINE
5
C8
100
AcDbEntity
8
1
62
256
6
ByLayer
370
18
48
1
60
0
100
AcDbLine
10
-15.147629
20
-7.273886
30
0
11
-14.128443
21
-7.363053
31
0
39
0
210
0
220
0
230
1
0
LINE
5
C9
100
AcDbEntity
8
1
62
256
6
ByLayer
370
18
48
1
60
0
100
AcDbLine
10
19.415464
20
-10.42351
30
0
11
-6.997455
21
-8.062769
31
0
39
0
210
0
220
0
230
1
0
LINE
5
CA
100
AcDbEntity
8
1
62
256
6
ByLayer
370
18
48
1
60
0
100
AcDbLine
10
19.667587
20
-10.410297
30
0
11
19.415464
21
-10.42351
31
0
39
0
210
0
220
0
230
1
0
LINE
5
CB
100
AcDbEntity
8
1
62
256
6
ByLayer
370
18
48
1
60
0
100
AcDbLine
10
20
20
-0.675
30
0
11
20
21
-9.60225
31
0
39
0
210
0
220
0
230
1
0
LINE
5
CC
100
AcDbEntity
8
1
62
256
6
ByLayer
370
18
48
1
60
0
100
AcDbLine
10
19
20
0.325
30
0
11
20
21
-0.675
31
0
39
0
210
0
220
0
230
1
0
LINE
5
CD
100
AcDbEntity
8
1
62
256
6
ByLayer
370
18
48
1
60
0
100
AcDbLine
10
-17.964266
20
0.325
30
0
11
-17.536458
21
0.325
31
0
39
0
210
0
220
0
230
1
0
LINE
5
CE
100
AcDbEntity
8
1
62
256
6
ByLayer
370
18
48
1
60
0
100
AcDbLine
10
-18.089081
20
0.325
30
0
11
-17.964266
21
0.325
31
0
39
0
210
0
220
0
230
1
0
LINE
5
CF
100
AcDbEntity
8
1
62
256
6
ByLayer
370
18
48
1
60
0
100
AcDbLine
10
15.839834
20
-20.875055
30
0
11
10.759305
21
-29.089206
31
0
39
0
210
0
220
0
230
1
0
LINE
5
D0
100
AcDbEntity
8
1
62
256
6
ByLayer
370
18
48
1
60
0
100
AcDbLine
10
26.047151
20
-20.001067
30
0
11
16.465308
21
-20.50323
31
0
39
0
210
0
220
0
230
1
0
LINE
5
D1
100
AcDbEntity
8
1
62
256
6
ByLayer
370
18
48
1
60
0
100
AcDbLine
10
21.675206
20
-29.429218
30
0
11
26.755735
21
-21.215066
31
0
39
0
210
0
220
0
230
1
0
LINE
5
D2
100
AcDbEntity
8
1
62
256
6
ByLayer
370
18
48
1
60
0
100
AcDbLine
10
11.467889
20
-30.303205
30
0
11
21.049732
21
-29.801042
31
0
39
0
210
0
220
0
230
1
0
LINE
5
D3
100
AcDbEntity
8
1
62
256
6
ByLayer
370
18
48
1
60
0
100
AcDbLine
10
10.617534
20
-29.702033
30
0
11
10.760561
21
-29.932029
31
0
39
0
210
0
220
0
230
1
0
LINE
5
D4
100
AcDbEntity
8
1
62
256
6
ByLayer
370
18
48
1
60
0
100
AcDbLine
10
15.868109
20
-20.83247
30
0
11
15.919855
21
-20.748808
31
0
39
0
210
0
220
0
230
1
0
LINE
5
D5
100
AcDbEntity
8
1
62
256
6
ByLayer
370
18
48
1
60
0
100
AcDbLine
10
7.838367
20
-6
30
0
11
-7.838367
21
-6
31
0
39
0
210
0
220
0
230
1
0
LINE
5
D6
100
AcDbEntity
8
1
62
256
6
ByLayer
370
18
48
1
60
0
100
AcDbLine
10
9.764351
20
-0.343279
30
0
11
9.118793
21
-0.343279
31
0
39
0
210
0
220
0
230
1
0
LINE
5
D7
100
AcDbEntity
8
1
62
256
6
ByLayer
370
18
48
1
60
0
100
AcDbLine
10
11.540468
20
-0.343279
30
0
11
12.013016
21
-0.343279
31
0
39
0
210
0
220
0
230
1
0
LINE
5
D8
100
AcDbEntity
8
1
62
256
6
ByLayer
370
18
48
1
60
0
100
AcDbLine
10
14.465865
20
-30.146088
30
0
11
14.21606
21
-30.549971
31
0
39
0
210
0
220
0
230
1
0
LINE
5
D9
100
AcDbEntity
8
1
62
256
6
ByLayer
370
18
48
1
60
0
100
AcDbLine
10
-17.375337
20
0.325
30
0
11
-17.536458
21
0.325
31
0
39
0
210
0
220
0
230
1
0
LINE
5
DA
100
AcDbEntity
8
1
62
256
6
ByLayer
370
18
48
1
60
0
100
AcDbLine
10
-16.832702
20
0.325
30
0
11
-17.375337
21
0.325
31
0
39
0
210
0
220
0
230
1
0
LINE
5
DB
100
AcDbEntity
8
1
62
256
6
ByLayer
370
18
48
1
60
0
100
AcDbLine
10
-18.924913
20
0.325
30
0
11
-18.954613
21
0.325
31
0
39
0
210
0
220
0
230
1
0
LINE
5
DC
100
AcDbEntity
8
1
62
256
6
ByLayer
370
18
48
1
60
0
100
AcDbLine
10
-18.790685
20
0.325
30
0
11
-18.924913
21
0.325
31
0
39
0
210
0
220
0
230
1
0
LINE
5
DD
100
AcDbEntity
8
1
62
256
6
ByLayer
370
18
48
1
60
0
100
AcDbLine
10
-15.709148
20
0.325
30
0
11
-14.881695
21
0.325
31
0
39
0
210
0
220
0
230
1
0
LINE
5
DE
100
AcDbEntity
8
1
62
256
6
ByLayer
370
18
48
1
60
0
100
AcDbLine
10
-15.95783
20
0.325
30
0
11
-15.709148
21
0.325
31
0
39
0
210
0
220
0
230
1
0
LINE
5
DF
100
AcDbEntity
8
1
62
256
6
ByLayer
370
18
48
1
60
0
100
AcDbLine
10
-13.177721
20
0.325
30
0
11
-11.899153
21
0.325
31
0
39
0
210
0
220
0
230
1
0
LINE
5
E0
100
AcDbEntity
8
1
62
256
6
ByLayer
370
18
48
1
60
0
100
AcDbLine
10
-13.55645
20
0.325
30
0
11
-13.177721
21
0.325
31
0
39
0
210
0
220
0
230
1
0
LINE
5
E1
100
AcDbEntity
8
1
62
256
6
ByLayer
370
18
48
1
60
0
100
AcDbLine
10
13.368336
20
-0.343279
30
0
11
13.739816
21
-0.343279
31
0
39
0
210
0
220
0
230
1
0
LINE
5
E2
100
AcDbEntity
8
1
62
256
6
ByLayer
370
18
48
1
60
0
100
AcDbLine
10
17.771675
20
-0.343279
30
0
11
17.934952
21
-0.343279
31
0
39
0
210
0
220
0
230
1
0
LINE
5
E3
100
AcDbEntity
8
1
62
256
6
ByLayer
370
18
48
1
60
0
100
AcDbLine
10
17.181168
20
-0.343279
30
0
11
16.979471
21
-0.343279
31
0
39
0
210
0
220
0
230
1
0
LINE
5
E4
100
AcDbEntity
8
1
62
256
6
ByLayer
370
18
48
1
60
0
100
AcDbLine
10
-5.496803
20
0.325
30
0
11
-6.61172
21
0.325
31
0
39
0
210
0
220
0
230
1
0
LINE
5
E5
100
AcDbEntity
8
1
62
256
6
ByLayer
370
18
48
1
60
0
100
AcDbLine
10
-14.576174
20
0.325
30
0
11
-13.55645
21
0.325
31
0
39
0
210
0
220
0
230
1
0
LINE
5
E6
100
AcDbEntity
8
1
62
256
6
ByLayer
370
18
48
1
60
0
100
AcDbLine
10
-14.881695
20
0.325
30
0
11
-14.576174
21
0.325
31
0
39
0
210
0
220
0
230
1
0
LINE
5
E7
100
AcDbEntity
8
1
62
256
6
ByLayer
370
18
48
1
60
0
100
AcDbLine
10
19.518003
20
-0.343279
30
0
11
19.558693
21
-0.343279
31
0
39
0
210
0
220
0
230
1
0
LINE
5
E8
100
AcDbEntity
8
1
62
256
6
ByLayer
370
18
48
1
60
0
100
AcDbLine
10
-18.730719
20
0.325
30
0
11
-18.504117
21
0.325
31
0
39
0
210
0
220
0
230
1
0
LINE
5
E9
100
AcDbEntity
8
1
62
256
6
ByLayer
370
18
48
1
60
0
100
AcDbLine
10
-18.790685
20
0.325
30
0
11
-18.730719
21
0.325
31
0
39
0
210
0
220
0
230
1
0
LINE
5
EA
100
AcDbEntity
8
1
62
256
6
ByLayer
370
18
48
1
60
0
100
AcDbLine
10
-16.63099
20
0.325
30
0
11
-16.832702
21
0.325
31
0
39
0
210
0
220
0
230
1
0
LINE
5
EB
100
AcDbEntity
8
1
62
256
6
ByLayer
370
18
48
1
60
0
100
AcDbLine
10
-15.95783
20
0.325
30
0
11
-16.63099
21
0.325
31
0
39
0
210
0
220
0
230
1
0
LINE
5
EC
100
AcDbEntity
8
1
62
256
6
ByLayer
370
18
48
1
60
0
100
AcDbLine
10
-18.412695
20
0.325
30
0
11
-18.504117
21
0.325
31
0
39
0
210
0
220
0
230
1
0
LINE
5
ED
100
AcDbEntity
8
1
62
256
6
ByLayer
370
18
48
1
60
0
100
AcDbLine
10
-18.089081
20
0.325
30
0
11
-18.412695
21
0.325
31
0
39
0
210
0
220
0
230
1
0
LINE
5
EE
100
AcDbEntity
8
1
62
256
6
ByLayer
370
18
48
1
60
0
100
AcDbLine
10
19.447945
20
-26.10293
30
0
11
19.617041
21
-26.094068
31
0
39
0
210
0
220
0
230
1
0
LINE
5
EF
100
AcDbEntity
8
1
62
256
6
ByLayer
370
18
48
1
60
0
100
AcDbLine
10
16.008511
20
-0.343279
30
0
11
16.254923
21
-0.343279
31
0
39
0
210
0
220
0
230
1
0
LINE
5
F0
100
AcDbEntity
8
1
62
256
6
ByLayer
370
18
48
1
60
0
100
AcDbLine
10
17.575611
20
-26.124023
30
0
11
17.749243
21
-26.114923
31
0
39
0
210
0
220
0
230
1
0
LINE
5
F1
100
AcDbEntity
8
1
62
256
6
ByLayer
370
18
48
1
60
0
100
AcDbLine
10
17.792787
20
-24.215718
30
0
11
17.623692
21
-24.22458
31
0
39
0
210
0
220
0
230
1
0
LINE
5
F2
100
AcDbEntity
8
1
62
256
6
ByLayer
370
18
48
1
60
0
100
AcDbLine
10
10.49835
20
-28.490076
30
0
11
11.142212
21
-28.456333
31
0
39
0
210
0
220
0
230
1
0
LINE
5
F3
100
AcDbEntity
8
SK1
62
256
6
ByLayer
370
18
48
1
60
0
100
AcDbLine
10
0
20
3.825
30
0
11
-2.65359
21
3.825
31
0
39
0
210
0
220
0
230
1
0
LINE
5
F4
100
AcDbEntity
8
SK1
62
256
6
ByLayer
370
18
48
1
60
0
100
AcDbLine
10
2.65359
20
3.825
30
0
11
0
21
3.825
31
0
39
0
210
0
220
0
230
1
0
LINE
5
F5
100
AcDbEntity
8
1
62
256
6
ByLayer
370
18
48
1
60
0
100
AcDbLine
10
10.433049
20
-29.331364
30
0
11
10.968638
21
-28.46543
31
0
39
0
210
0
220
0
230
1
0
LINE
5
F6
100
AcDbEntity
8
1
62
256
6
ByLayer
370
18
48
1
60
0
100
AcDbLine
10
19.646436
20
-0.343279
30
0
11
19.65992
21
-0.343279
31
0
39
0
210
0
220
0
230
1
0
LINE
5
F7
100
AcDbEntity
8
1
62
256
6
ByLayer
370
18
48
1
60
0
100
AcDbLine
10
18.408217
20
-0.343279
30
0
11
18.537327
21
-0.343279
31
0
39
0
210
0
220
0
230
1
0
LINE
5
F8
100
AcDbEntity
8
1
62
256
6
ByLayer
370
18
48
1
60
0
100
AcDbLine
10
-9.084456
20
0.325
30
0
11
-6.61172
21
0.325
31
0
39
0
210
0
220
0
230
1
0
LINE
5
F9
100
AcDbEntity
8
1
62
256
6
ByLayer
370
18
48
1
60
0
100
AcDbLine
10
-9.741783
20
0.325
30
0
11
-9.084456
21
0.325
31
0
39
0
210
0
220
0
230
1
0
LINE
5
FA
100
AcDbEntity
8
1
62
256
6
ByLayer
370
18
48
1
60
0
100
AcDbLine
10
10.390444
20
-29.963891
30
0
11
10.768213
21
-29.944093
31
0
39
0
210
0
220
0
230
1
0
LINE
5
FB
100
AcDbEntity
8
4
62
256
6
ByLayer
370
18
48
0.05
60
0
100
AcDbLine
10
0
20
0
30
0
11
0
21
-20
31
0
39
0
210
0
220
0
230
1
0
LINE
5
FD
100
AcDbEntity
8
SK4
62
256
6
ByLayer
370
18
48
0.05
60
0
100
AcDbLine
10
0
20
5
30
0
11
0
21
-42
31
0
39
0
210
0
220
0
230
1
0
LINE
5
FF
100
AcDbEntity
8
81
62
256
6
ByLayer
370
18
48
0.05
60
0
100
AcDbLine
10
27
20
-20
30
0
11
27
21
-18
31
0
39
0
210
0
220
0
230
1
0
LINE
5
100
100
AcDbEntity
8
80
62
256
6
ByLayer
370
18
48
0.05
60
0
100
AcDbLine
10
0
20
0
30
0
11
0
21
2
31
0
39
0
210
0
220
0
230
1
0
MTEXT
5
1D2
100
AcDbEntity
8
SK6
62
256
6
ByLayer
370
13
48
1
60
0
100
AcDbMText
10
-34.545428
20
-38.481573
30
0
210
0
220
0
230
1
1
\W0.7085;\T0.85;570-SDUCR-40-11X
40
3.175
41
0
44
0.963855
50
89.9999999999999
71
7
72
5
7
iso-1
0
ENDSEC
0
SECTION
2
OBJECTS
0
DICTIONARY
5
284
330
0
100
AcDbDictionary
280
0
281
1
3
ACAD_GROUP
350
285
3
ACAD_MLINESTYLE
350
286
0
DICTIONARY
5
285
330
0
100
AcDbDictionary
280
0
281
1
0
DICTIONARY
5
286
330
0
100
AcDbDictionary
280
0
281
1
3
Standard
350
18
0
MLINESTYLE
5
18
330
286
100
AcDbMlineStyle
2
Standard
70
0
3

62
256
51
90
52
90
71
2
49
-0.5
62
256
6
ByLayer
49
0.5
62
256
6
ByLayer
0
RASTERVARIABLES
5
271
330

100
AcDbRasterVariables
90
0
70
1
71
1
72
1
0
ENDSEC
0
EOF
