0
SECTION
2
HEADER
9
$ACADVER
1
AC1015
9
$DWGCODEPAGE
3
ANSI_1252
9
$HANDSEED
5
292
9
$ANGBASE
50
0
9
$ANGDIR
70
0
9
$ATTMODE
70
1
9
$AUNITS
70
0
9
$AUPREC
70
0
9
$CECOLOR
62
256
9
$CELTSCALE
40
1
9
$CELTYPE
6
ByLayer
9
$CELWEIGHT
370
18
9
$CLAYER
8
0
9
$CMLJUST
70
0
9
$CMLSCALE
40
1
9
$CMLSTYLE
2
Standard
9
$DIMSTYLE
2
Standard
9
$TEXTSIZE
40
0.2
9
$TEXTSTYLE
7
Standard
9
$LUNITS
70
2
9
$LUPREC
70
4
9
$EXTNAMES
290
1
9
$INSUNITS
70
4
9
$LTSCALE
40
1
9
$LWDISPLAY
290
1
9
$PDMODE
70
0
9
$PDSIZE
40
0
9
$PLINEGEN
70
0
0
ENDSEC
0
SECTION
2
CLASSES
0
CLASS
1
RASTERVARIABLES
2
AcDbRasterVariables
3
ISM
90
0
280
0
281
0
0
ENDSEC
0
SECTION
2
TABLES
0
TABLE
2
VPORT
5
288
100
AcDbSymbolTable
0
VPORT
5
1
100
AcDbSymbolTableRecord
100
AcDbViewportTableRecord
2
*Active
70
0
10
0
20
0
11
1
21
1
12
-1
22
1
13
0
23
0
14
0.5
24
0.5
15
10
25
10
16
0
26
0
36
1
17
0
27
0
37
0
0
ENDTAB
0
TABLE
2
LTYPE
5
289
100
AcDbSymbolTable
0
LTYPE
5
14
100
AcDbSymbolTableRecord
100
AcDbLinetypeTableRecord
70
0
2
ByBlock
3

72
65
73
0
40
0
0
LTYPE
5
15
100
AcDbSymbolTableRecord
100
AcDbLinetypeTableRecord
70
0
2
ByLayer
3

72
65
73
0
40
0
0
LTYPE
5
16
100
AcDbSymbolTableRecord
100
AcDbLinetypeTableRecord
70
0
2
CONTINUOUS
3
Solid line
72
65
73
0
40
0
0
LTYPE
5
6A
100
AcDbSymbolTableRecord
100
AcDbLinetypeTableRecord
70
0
2
CENTER
3
____ _ ____ _ ____ _ ____
72
65
73
4
40
47.5
49
22
74
0
49
-8.5
74
0
49
8.5
74
0
49
-8.5
74
0
0
LTYPE
5
6B
100
AcDbSymbolTableRecord
100
AcDbLinetypeTableRecord
70
0
2
DASHED
3
__ __ __ __ __ __ __ __ __
72
65
73
2
40
25.72
49
12.86
74
0
49
-12.86
74
0
0
ENDTAB
0
TABLE
2
LAYER
5
28a
100
AcDbSymbolTable
0
LAYER
5
10
100
AcDbSymbolTableRecord
100
AcDbLayerTableRecord
2
0
70
0
62
7
6
CONTINUOUS
290
1
370
-3
390
0
0
LAYER
5
6D
100
AcDbSymbolTableRecord
100
AcDbLayerTableRecord
2
80
70
0
62
-6
6
CONTINUOUS
290
1
370
-3
390
0
0
LAYER
5
6F
100
AcDbSymbolTableRecord
100
AcDbLayerTableRecord
2
81
70
0
62
-3
6
CONTINUOUS
290
1
370
-3
390
0
0
LAYER
5
71
100
AcDbSymbolTableRecord
100
AcDbLayerTableRecord
2
1
70
0
62
4
6
CONTINUOUS
290
1
370
-3
390
0
0
LAYER
5
FC
100
AcDbSymbolTableRecord
100
AcDbLayerTableRecord
2
4
70
0
62
-2
6
CENTER
290
1
370
-3
390
0
0
LAYER
5
273
100
AcDbSymbolTableRecord
100
AcDbLayerTableRecord
2
SK1
70
0
62
4
6
CONTINUOUS
290
1
370
-3
390
0
0
LAYER
5
274
100
AcDbSymbolTableRecord
100
AcDbLayerTableRecord
2
SK4
70
0
62
2
6
CENTER
290
1
370
-3
390
0
0
LAYER
5
275
100
AcDbSymbolTableRecord
100
AcDbLayerTableRecord
2
SK6
70
0
62
5
6
CONTINUOUS
290
1
370
-3
390
0
0
LAYER
5
276
100
AcDbSymbolTableRecord
100
AcDbLayerTableRecord
2
2L
70
0
62
7
6
CONTINUOUS
290
1
370
-3
390
0
0
LAYER
5
277
100
AcDbSymbolTableRecord
100
AcDbLayerTableRecord
2
SK2
70
0
62
7
6
CONTINUOUS
290
1
370
-3
390
0
0
ENDTAB
0
TABLE
2
STYLE
5
28b
100
AcDbSymbolTable
0
STYLE
5
11
100
AcDbSymbolTableRecord
100
AcDbTextStyleTableRecord
2
Standard
3
txt
70
0
71
0
40
0
41
1
42
0
50
0
0
STYLE
5
1D4
100
AcDbSymbolTableRecord
100
AcDbTextStyleTableRecord
2
iso-1
3
isocp.shx
70
0
71
0
40
0
41
1
42
0
50
0
0
STYLE
5
1D5
100
AcDbSymbolTableRecord
100
AcDbTextStyleTableRecord
2
DWGDirectTextStyle
3
isocp
70
0
71
0
40
0
41
1
42
0
50
0
0
ENDTAB
0
TABLE
2
DIMSTYLE
5
28c
100
AcDbSymbolTable
100
AcDbDimStyleTable
0
DIMSTYLE
105
27
100
AcDbSymbolTableRecord
100
AcDbDimStyleTableRecord
2
Standard
70
0
3
<>
41
0.18
42
0.0625
44
0.18
140
0.18
147
0.09
73
0
74
0
77
1
271
2
275
0
278
52
280
0
340
11
0
ENDTAB
0
TABLE
2
VIEW
5
28d
100
AcDbSymbolTable
0
ENDTAB
0
TABLE
2
UCS
5
28e
100
AcDbSymbolTable
0
ENDTAB
0
TABLE
2
APPID
5
28f
100
AcDbSymbolTable
0
APPID
5
12
100
AcDbSymbolTableRecord
100
AcDbRegAppTableRecord
2
ACAD
70
0
0
ENDTAB
0
TABLE
2
BLOCK_RECORD
5
290
100
AcDbSymbolTable
0
BLOCK_RECORD
5
1F
100
AcDbSymbolTableRecord
100
AcDbBlockTableRecord
2
*Model_Space
340
0
70
0
0
BLOCK_RECORD
5
1B
100
AcDbSymbolTableRecord
100
AcDbBlockTableRecord
2
*Paper_Space
340
0
70
0
0
BLOCK_RECORD
5
23
100
AcDbSymbolTableRecord
100
AcDbBlockTableRecord
2
*Paper_Space0
340
0
70
0
0
BLOCK_RECORD
5
1D7
100
AcDbSymbolTableRecord
100
AcDbBlockTableRecord
2
DimnDraft3D11
340
0
70
0
0
BLOCK_RECORD
5
1E8
100
AcDbSymbolTableRecord
100
AcDbBlockTableRecord
2
DimnDraft3D22
340
0
70
0
0
BLOCK_RECORD
5
1F9
100
AcDbSymbolTableRecord
100
AcDbBlockTableRecord
2
DimnDraft3D33
340
0
70
0
0
BLOCK_RECORD
5
20A
100
AcDbSymbolTableRecord
100
AcDbBlockTableRecord
2
DimnDraft3D44
340
0
70
0
0
ENDTAB
0
ENDSEC
0
SECTION
2
BLOCKS
0
BLOCK
5
20
100
AcDbEntity
8
0
100
AcDbBlockBegin
2
*Model_Space
70
0
10
0
20
0
30
0
3
*Model_Space
0
ENDBLK
5
21
100
AcDbEntity
8
0
100
AcDbBlockEnd
0
BLOCK
5
1C
100
AcDbEntity
8
0
100
AcDbBlockBegin
2
*Paper_Space
70
0
10
0
20
0
30
0
3
*Paper_Space
0
ENDBLK
5
1D
100
AcDbEntity
8
0
100
AcDbBlockEnd
0
BLOCK
5
24
100
AcDbEntity
8
0
100
AcDbBlockBegin
2
*Paper_Space0
70
0
10
0
20
0
30
0
3
*Paper_Space0
0
ENDBLK
5
25
100
AcDbEntity
8
0
100
AcDbBlockEnd
0
BLOCK
5
1D8
100
AcDbEntity
8
0
100
AcDbBlockBegin
2
DimnDraft3D11
70
0
10
0
20
0
30
0
3
DimnDraft3D11
0
LINE
5
1DA
100
AcDbEntity
8
2L
62
256
6
ByLayer
370
25
48
1
60
0
100
AcDbLine
10
0
20
-1.5875
30
0
11
0
21
-55.282954
31
0
39
0
210
0
220
0
230
1
0
LINE
5
1DC
100
AcDbEntity
8
2L
62
256
6
ByLayer
370
25
48
1
60
0
100
AcDbLine
10
-27
20
-21.5875
30
0
11
-27
21
-55.282954
31
0
39
0
210
0
220
0
230
1
0
LINE
5
1DD
100
AcDbEntity
8
2L
62
256
6
ByLayer
370
25
48
1
60
0
100
AcDbLine
10
0
20
-52.107954
30
0
11
-27
21
-52.107954
31
0
39
0
210
0
220
0
230
1
0
LINE
5
1DE
100
AcDbEntity
8
2L
62
256
6
ByLayer
370
25
48
1
60
0
100
AcDbLine
10
0
20
-52.107954
30
0
11
-3.174997
21
-52.958693
31
0
39
0
210
0
220
0
230
1
0
LINE
5
1DF
100
AcDbEntity
8
2L
62
256
6
ByLayer
370
25
48
1
60
0
100
AcDbLine
10
-3.174997
20
-52.958693
30
0
11
-3.175003
21
-51.257215
31
0
39
0
210
0
220
0
230
1
0
LINE
5
1E0
100
AcDbEntity
8
2L
62
256
6
ByLayer
370
25
48
1
60
0
100
AcDbLine
10
-3.175003
20
-51.257215
30
0
11
0
21
-52.107954
31
0
39
0
210
0
220
0
230
1
0
LINE
5
1E1
100
AcDbEntity
8
2L
62
256
6
ByLayer
370
25
48
1
60
0
100
AcDbLine
10
0
20
-52.107954
30
0
11
0
21
-52.107954
31
0
39
0
210
0
220
0
230
1
0
LINE
5
1E2
100
AcDbEntity
8
2L
62
256
6
ByLayer
370
25
48
1
60
0
100
AcDbLine
10
-27
20
-52.107954
30
0
11
-23.825003
21
-51.257215
31
0
39
0
210
0
220
0
230
1
0
LINE
5
1E3
100
AcDbEntity
8
2L
62
256
6
ByLayer
370
25
48
1
60
0
100
AcDbLine
10
-23.825003
20
-51.257215
30
0
11
-23.824997
21
-52.958693
31
0
39
0
210
0
220
0
230
1
0
LINE
5
1E4
100
AcDbEntity
8
2L
62
256
6
ByLayer
370
25
48
1
60
0
100
AcDbLine
10
-23.824997
20
-52.958693
30
0
11
-27
21
-52.107954
31
0
39
0
210
0
220
0
230
1
0
LINE
5
1E5
100
AcDbEntity
8
2L
62
256
6
ByLayer
370
25
48
1
60
0
100
AcDbLine
10
-27
20
-52.107954
30
0
11
-27
21
-52.107954
31
0
39
0
210
0
220
0
230
1
0
MTEXT
5
1E6
100
AcDbEntity
8
2L
62
256
6
ByLayer
370
13
48
1
60
0
100
AcDbMText
10
-13.711388
20
-52.383678
30
0
210
0
220
0
230
1
1
\W0.6551;\T0.85;27
40
3.175
41
0
44
0.963855
50
0
71
7
72
5
7
iso-1
0
ENDBLK
5
1D9
100
AcDbEntity
8
0
100
AcDbBlockEnd
0
BLOCK
5
1E9
100
AcDbEntity
8
0
100
AcDbBlockBegin
2
DimnDraft3D22
70
0
10
0
20
0
30
0
3
DimnDraft3D22
0
LINE
5
1EB
100
AcDbEntity
8
SK2
62
256
6
ByLayer
370
25
48
1
60
0
100
AcDbLine
10
-1.5875
20
0
30
0
11
-39.597455
21
0
31
0
39
0
210
0
220
0
230
1
0
LINE
5
1ED
100
AcDbEntity
8
SK2
62
256
6
ByLayer
370
25
48
1
60
0
100
AcDbLine
10
-28.5875
20
-20
30
0
11
-39.597455
21
-20
31
0
39
0
210
0
220
0
230
1
0
LINE
5
1EE
100
AcDbEntity
8
SK2
62
256
6
ByLayer
370
25
48
1
60
0
100
AcDbLine
10
-36.422455
20
0
30
0
11
-36.422455
21
-20
31
0
39
0
210
0
220
0
230
1
0
LINE
5
1EF
100
AcDbEntity
8
SK2
62
256
6
ByLayer
370
25
48
1
60
0
100
AcDbLine
10
-36.422455
20
0
30
0
11
-35.571716
21
-3.174997
31
0
39
0
210
0
220
0
230
1
0
LINE
5
1F0
100
AcDbEntity
8
SK2
62
256
6
ByLayer
370
25
48
1
60
0
100
AcDbLine
10
-35.571716
20
-3.174997
30
0
11
-37.273194
21
-3.175003
31
0
39
0
210
0
220
0
230
1
0
LINE
5
1F1
100
AcDbEntity
8
SK2
62
256
6
ByLayer
370
25
48
1
60
0
100
AcDbLine
10
-37.273194
20
-3.175003
30
0
11
-36.422455
21
0
31
0
39
0
210
0
220
0
230
1
0
LINE
5
1F2
100
AcDbEntity
8
SK2
62
256
6
ByLayer
370
25
48
1
60
0
100
AcDbLine
10
-36.422455
20
0
30
0
11
-36.422455
21
0
31
0
39
0
210
0
220
0
230
1
0
LINE
5
1F3
100
AcDbEntity
8
SK2
62
256
6
ByLayer
370
25
48
1
60
0
100
AcDbLine
10
-36.422455
20
-20
30
0
11
-37.273194
21
-16.825003
31
0
39
0
210
0
220
0
230
1
0
LINE
5
1F4
100
AcDbEntity
8
SK2
62
256
6
ByLayer
370
25
48
1
60
0
100
AcDbLine
10
-37.273194
20
-16.825003
30
0
11
-35.571716
21
-16.824997
31
0
39
0
210
0
220
0
230
1
0
LINE
5
1F5
100
AcDbEntity
8
SK2
62
256
6
ByLayer
370
25
48
1
60
0
100
AcDbLine
10
-35.571716
20
-16.824997
30
0
11
-36.422455
21
-20
31
0
39
0
210
0
220
0
230
1
0
LINE
5
1F6
100
AcDbEntity
8
SK2
62
256
6
ByLayer
370
25
48
1
60
0
100
AcDbLine
10
-36.422455
20
-20
30
0
11
-36.422455
21
-20
31
0
39
0
210
0
220
0
230
1
0
MTEXT
5
1F7
100
AcDbEntity
8
SK2
62
256
6
ByLayer
370
13
48
1
60
0
100
AcDbMText
10
-36.146731
20
-10.211388
30
0
210
0
220
0
230
1
1
\W0.6551;\T0.85;20
40
3.175
41
0
44
0.963855
50
90
71
7
72
5
7
iso-1
0
ENDBLK
5
1EA
100
AcDbEntity
8
0
100
AcDbBlockEnd
0
BLOCK
5
1FA
100
AcDbEntity
8
0
100
AcDbBlockBegin
2
DimnDraft3D33
70
0
10
0
20
0
30
0
3
DimnDraft3D33
0
LINE
5
1FC
100
AcDbEntity
8
SK2
62
256
6
ByLayer
370
25
48
1
60
0
100
AcDbLine
10
-20
20
0.9125
30
0
11
-20
21
18.519854
31
0
39
0
210
0
220
0
230
1
0
LINE
5
1FD
100
AcDbEntity
8
SK2
62
256
6
ByLayer
370
25
48
1
60
0
100
AcDbLine
10
20
20
0.9125
30
0
11
20
21
18.519854
31
0
39
0
210
0
220
0
230
1
0
LINE
5
1FE
100
AcDbEntity
8
SK2
62
256
6
ByLayer
370
25
48
1
60
0
100
AcDbLine
10
-20
20
15.344854
30
0
11
20
21
15.344854
31
0
39
0
210
0
220
0
230
1
0
LINE
5
1FF
100
AcDbEntity
8
SK2
62
256
6
ByLayer
370
25
48
1
60
0
100
AcDbLine
10
-20
20
15.344854
30
0
11
-16.825003
21
16.195592
31
0
39
0
210
0
220
0
230
1
0
LINE
5
200
100
AcDbEntity
8
SK2
62
256
6
ByLayer
370
25
48
1
60
0
100
AcDbLine
10
-16.825003
20
16.195592
30
0
11
-16.824997
21
14.494115
31
0
39
0
210
0
220
0
230
1
0
LINE
5
201
100
AcDbEntity
8
SK2
62
256
6
ByLayer
370
25
48
1
60
0
100
AcDbLine
10
-16.824997
20
14.494115
30
0
11
-20
21
15.344854
31
0
39
0
210
0
220
0
230
1
0
LINE
5
202
100
AcDbEntity
8
SK2
62
256
6
ByLayer
370
25
48
1
60
0
100
AcDbLine
10
-20
20
15.344854
30
0
11
-20
21
15.344854
31
0
39
0
210
0
220
0
230
1
0
LINE
5
203
100
AcDbEntity
8
SK2
62
256
6
ByLayer
370
25
48
1
60
0
100
AcDbLine
10
20
20
15.344854
30
0
11
16.825003
21
14.494115
31
0
39
0
210
0
220
0
230
1
0
LINE
5
204
100
AcDbEntity
8
SK2
62
256
6
ByLayer
370
25
48
1
60
0
100
AcDbLine
10
16.825003
20
14.494115
30
0
11
16.824997
21
16.195592
31
0
39
0
210
0
220
0
230
1
0
LINE
5
205
100
AcDbEntity
8
SK2
62
256
6
ByLayer
370
25
48
1
60
0
100
AcDbLine
10
16.824997
20
16.195592
30
0
11
20
21
15.344854
31
0
39
0
210
0
220
0
230
1
0
LINE
5
206
100
AcDbEntity
8
SK2
62
256
6
ByLayer
370
25
48
1
60
0
100
AcDbLine
10
20
20
15.344854
30
0
11
20
21
15.344854
31
0
39
0
210
0
220
0
230
1
0
MTEXT
5
207
100
AcDbEntity
8
SK2
62
256
6
ByLayer
370
13
48
1
60
0
100
AcDbMText
10
3.970421
20
15.86288
30
0
210
0
220
0
230
1
1
\W0.7208;\T0.85;40
40
3.175
41
0
44
0.963855
50
0
71
7
72
5
7
iso-1
0
MTEXT
5
208
100
AcDbEntity
8
SK2
62
256
6
ByLayer
370
13
48
1
60
0
100
AcDbMText
10
-3.148524
20
15.86288
30
0
210
0
220
0
230
1
1
\W4.0089;\T0.85;%%c
40
3.175
41
0
44
0.963855
50
0
71
7
72
5
7
iso-1
0
ENDBLK
5
1FB
100
AcDbEntity
8
0
100
AcDbBlockEnd
0
BLOCK
5
20B
100
AcDbEntity
8
0
100
AcDbBlockBegin
2
DimnDraft3D44
70
0
10
0
20
0
30
0
3
DimnDraft3D44
0
LINE
5
20D
100
AcDbEntity
8
2L
62
256
6
ByLayer
370
25
48
1
60
0
100
AcDbLine
10
-27.632476
20
-19.917984
30
0
11
-61.627484
21
-18.136381
31
0
39
0
210
0
220
0
230
1
0
LINE
5
20E
100
AcDbEntity
8
2L
62
256
6
ByLayer
370
25
48
1
60
0
100
AcDbLine
10
0
20
-43.5875
30
0
11
0
21
-83.078199
31
0
39
0
210
0
220
0
230
1
0
LINE
5
20F
100
AcDbEntity
8
2L
62
256
6
ByLayer
370
25
48
1
60
0
100
AcDbLine
10
-58.456835
20
-18.302548
30
0
11
-57.729907
21
-21.508158
31
0
39
0
210
0
220
0
230
1
0
LINE
5
210
100
AcDbEntity
8
2L
62
256
6
ByLayer
370
25
48
1
60
0
100
AcDbLine
10
-57.729907
20
-21.508158
30
0
11
-59.430104
21
-21.442157
31
0
39
0
210
0
220
0
230
1
0
LINE
5
211
100
AcDbEntity
8
2L
62
256
6
ByLayer
370
25
48
1
60
0
100
AcDbLine
10
-59.430104
20
-21.442157
30
0
11
-58.456835
21
-18.302548
31
0
39
0
210
0
220
0
230
1
0
LINE
5
212
100
AcDbEntity
8
2L
62
256
6
ByLayer
370
25
48
1
60
0
100
AcDbLine
10
-58.456835
20
-18.302548
30
0
11
-58.456835
21
-18.302548
31
0
39
0
210
0
220
0
230
1
0
LINE
5
213
100
AcDbEntity
8
2L
62
256
6
ByLayer
370
25
48
1
60
0
100
AcDbLine
10
0
20
-79.903199
30
0
11
-3.186238
21
-80.710819
31
0
39
0
210
0
220
0
230
1
0
LINE
5
214
100
AcDbEntity
8
2L
62
256
6
ByLayer
370
25
48
1
60
0
100
AcDbLine
10
-3.186238
20
-80.710819
30
0
11
-3.163179
21
-79.009498
31
0
39
0
210
0
220
0
230
1
0
LINE
5
215
100
AcDbEntity
8
2L
62
256
6
ByLayer
370
25
48
1
60
0
100
AcDbLine
10
-3.163179
20
-79.009498
30
0
11
0
21
-79.903199
31
0
39
0
210
0
220
0
230
1
0
LINE
5
216
100
AcDbEntity
8
2L
62
256
6
ByLayer
370
25
48
1
60
0
100
AcDbLine
10
0
20
-79.903199
30
0
11
0
21
-79.903199
31
0
39
0
210
0
220
0
230
1
0
ARC
5
217
100
AcDbEntity
8
2L
62
256
6
ByLayer
370
25
48
1
60
0
100
AcDbCircle
39
0
10
0
20
-21.36614
30
0
40
58.537058
210
0
220
0
230
1
100
AcDbArc
50
177
51
270
0
MTEXT
5
218
100
AcDbEntity
8
2L
62
256
6
ByLayer
370
13
48
1
60
0
100
AcDbMText
10
-43.648222
20
-60.810173
30
0
210
0
220
0
230
1
1
\W2.2282;\T0.85;93%%d
40
3.175
41
0
44
0.963855
50
313.500032267199
71
7
72
5
7
iso-1
0
ENDBLK
5
20C
100
AcDbEntity
8
0
100
AcDbBlockEnd
0
ENDSEC
0
SECTION
2
ENTITIES
0
ARC
5
101
100
AcDbEntity
8
1
62
256
6
ByLayer
370
18
48
1
60
0
100
AcDbCircle
39
0
10
-0.7
20
-31.975
30
0
40
5.7
210
0
220
0
230
1
100
AcDbArc
50
270
51
0
0
ARC
5
102
100
AcDbEntity
8
1
62
256
6
ByLayer
370
18
48
1
60
0
100
AcDbCircle
39
0
10
15
20
-17.325
30
0
40
10
210
0
220
0
230
1
100
AcDbArc
50
124.479293
51
180
0
ELLIPSE
5
103
100
AcDbEntity
8
1
62
256
6
ByLayer
370
18
48
1
60
0
100
AcDbEllipse
10
-18.733868
20
-25.153376
30
0
11
0.0942047212373746
21
1.79753316255823
31
0
210
0
220
0
230
1
40
0.990268
41
0
42
6.28318530717959
0
ELLIPSE
5
104
100
AcDbEntity
8
1
62
256
6
ByLayer
370
18
48
1
60
0
100
AcDbEllipse
10
-18.733868
20
-25.153376
30
0
11
0.08774123063948
21
1.67420241501621
31
0
210
0
220
0
230
1
40
0.990268
41
1.09083078249538
42
2.13523778601059
0
ELLIPSE
5
105
100
AcDbEntity
8
1
62
256
6
ByLayer
370
18
48
1
60
0
100
AcDbEllipse
10
-18.733868
20
-25.153376
30
0
11
0.0877412305937551
21
1.67420241501666
31
0
210
0
220
0
230
1
40
0.990268
41
2.13523778598304
42
-3.09516887463661
0
ELLIPSE
5
106
100
AcDbEntity
8
1
62
256
6
ByLayer
370
18
48
1
60
0
100
AcDbEllipse
10
-18.733868
20
-25.153376
30
0
11
0.0877412306672802
21
1.67420241501379
31
0
210
0
220
0
230
1
40
0.990268
41
0.0464237789965814
42
1.09083078251217
0
ELLIPSE
5
107
100
AcDbEntity
8
1
62
256
6
ByLayer
370
18
48
1
60
0
100
AcDbEllipse
10
-20.409846
20
-25.145563
30
0
11
0.0359024660777691
21
0.685059860833706
31
0
210
0
220
0
230
1
40
0.990268
41
-2.31254901281895
42
-1.52855836919503
0
ELLIPSE
5
108
100
AcDbEntity
8
1
62
256
6
ByLayer
370
18
48
1
60
0
100
AcDbEllipse
10
-19.731355
20
-25.842746
30
0
11
0.0152820992238094
21
0.29159982414832
31
0
210
0
220
0
230
1
40
0.990268
41
0.829043640636403
42
2.82366121632783
0
ELLIPSE
5
109
100
AcDbEntity
8
1
62
256
6
ByLayer
370
18
48
1
60
0
100
AcDbEllipse
10
-19.716809
20
-24.461694
30
0
11
0.0152820992230002
21
0.29159982414833
31
0
210
0
220
0
230
1
40
0.990268
41
0.396080887327712
42
2.39702492787509
0
ELLIPSE
5
10A
100
AcDbEntity
8
1
62
256
6
ByLayer
370
18
48
1
60
0
100
AcDbEllipse
10
-20.409846
20
-25.145563
30
0
11
0.0359024659448523
21
0.685059860842654
31
0
210
0
220
0
230
1
40
0.990268
41
-1.5285583693914
42
-0.744567725769675
0
ELLIPSE
5
10B
100
AcDbEntity
8
1
62
256
6
ByLayer
370
18
48
1
60
0
100
AcDbEllipse
10
0
20
-29.42891
30
0
11
-19.9563496393579
21
19.9574177276399
31
0
210
0
220
0
230
1
40
0.066173
41
0.0660804415996096
42
0.248656001685639
0
ELLIPSE
5
10C
100
AcDbEntity
8
1
62
256
6
ByLayer
370
18
48
1
60
0
100
AcDbEllipse
10
0
20
-8.776933
30
0
11
19.9999718031259
21
1.73369231504485
31
0
210
0
220
0
230
1
40
0.019371
41
2.0201439455528
42
2.95733790046605
0
ELLIPSE
5
10D
100
AcDbEntity
8
1
62
256
6
ByLayer
370
18
48
1
60
0
100
AcDbEllipse
10
-18.696155
20
-25.155352
30
0
11
0.063143333646295
21
1.20484653367328
31
0
210
0
220
0
230
1
40
0.990268
41
2.59259447790636
42
2.7306597447227
0
ELLIPSE
5
10E
100
AcDbEntity
8
1
62
256
6
ByLayer
370
18
48
1
60
0
100
AcDbEllipse
10
-18.535819
20
-25.163755
30
0
11
0.0631432399754325
21
1.20484653457631
31
0
210
0
220
0
230
1
40
0.990268
41
2.59259440019981
42
2.73065966727224
0
ELLIPSE
5
10F
100
AcDbEntity
8
1
62
256
6
ByLayer
370
18
48
1
60
0
100
AcDbEllipse
10
-18.535819
20
-25.163755
30
0
11
0.0631433312200532
21
1.20484653368103
31
0
210
0
220
0
230
1
40
0.990268
41
1.61303428426493
42
2.5925944758901
0
ELLIPSE
5
110
100
AcDbEntity
8
1
62
256
6
ByLayer
370
18
48
1
60
0
100
AcDbEllipse
10
-19.483848
20
-26.78799
30
0
11
0.0359024636755434
21
0.685059860711203
31
0
210
0
220
0
230
1
40
0.990268
41
-0.358351506463819
42
-3.31552307254383E-09
0
ELLIPSE
5
111
100
AcDbEntity
8
1
62
256
6
ByLayer
370
18
48
1
60
0
100
AcDbEllipse
10
-19.460124
20
-23.518428
30
0
11
0.0359024660716087
21
0.685059860831225
31
0
210
0
220
0
230
1
40
0.990268
41
3.14159265358979
42
-2.5729653727195
0
ELLIPSE
5
112
100
AcDbEntity
8
1
62
256
6
ByLayer
370
18
48
1
60
0
100
AcDbEllipse
10
-18.535819
20
-25.163755
30
0
11
0.0631433311727439
21
1.20484653368713
31
0
210
0
220
0
230
1
40
0.990268
41
-0.222801900020218
42
0.568627280709451
0
ELLIPSE
5
113
100
AcDbEntity
8
1
62
256
6
ByLayer
370
18
48
1
60
0
100
AcDbEllipse
10
-19.460124
20
-23.518428
30
0
11
0.0359024659272991
21
0.685059860846004
31
0
210
0
220
0
230
1
40
0.990268
41
-2.57296537293106
42
-1.78897472931165
0
ELLIPSE
5
114
100
AcDbEntity
8
1
62
256
6
ByLayer
370
18
48
1
60
0
100
AcDbEllipse
10
-18.535819
20
-25.163755
30
0
11
0.0631433312102128
21
1.20484653368119
31
0
210
0
220
0
230
1
40
0.990268
41
0.568627280741429
42
1.61303428425669
0
ELLIPSE
5
115
100
AcDbEntity
8
1
62
256
6
ByLayer
370
18
48
1
60
0
100
AcDbEllipse
10
-18.535819
20
-25.163755
30
0
11
0.0631433312041643
21
1.20484653367561
31
0
210
0
220
0
230
1
40
0.990268
41
2.73065974270006
42
-2.83567239829998
0
ELLIPSE
5
116
100
AcDbEntity
8
1
62
256
6
ByLayer
370
18
48
1
60
0
100
AcDbEllipse
10
-19.483848
20
-26.78799
30
0
11
0.03590246592184
21
0.685059860843197
31
0
210
0
220
0
230
1
40
0.990268
41
-1.27122687930905
42
-0.601579585603567
0
ELLIPSE
5
117
100
AcDbEntity
8
1
62
256
6
ByLayer
370
18
48
1
60
0
100
AcDbEllipse
10
-18.695587
20
-25.155382
30
0
11
0.137381885131656
21
2.62140252873124
31
0
210
0
220
0
230
1
40
0.990268
41
3.14159265358979
42
-2.05076187109568
0
ELLIPSE
5
118
100
AcDbEntity
8
1
62
256
6
ByLayer
370
18
48
1
60
0
100
AcDbEllipse
10
-18.695587
20
-25.155382
30
0
11
0.137381885137415
21
2.62140252873077
31
0
210
0
220
0
230
1
40
0.990268
41
0
42
3.14159265358979
0
ELLIPSE
5
119
100
AcDbEntity
8
1
62
256
6
ByLayer
370
18
48
1
60
0
100
AcDbEllipse
10
-18.320601
20
-11.530205
30
0
11
-1.10465542381133
21
1.10388678022612
31
0
210
0
220
0
230
1
40
0.071757
41
-1.65037814143367
42
-0.0795818146383916
0
ELLIPSE
5
11A
100
AcDbEntity
8
1
62
256
6
ByLayer
370
18
48
1
60
0
100
AcDbEllipse
10
-18.733868
20
-25.153376
30
0
11
0.0877412306393934
21
1.67420241501598
31
0
210
0
220
0
230
1
40
0.990268
41
-2.05076187109454
42
-1.00635486757917
0
ELLIPSE
5
11B
100
AcDbEntity
8
1
62
256
6
ByLayer
370
18
48
1
60
0
100
AcDbEllipse
10
-18.733868
20
-25.153376
30
0
11
0.0877412306255061
21
1.67420241501742
31
0
210
0
220
0
230
1
40
0.990268
41
-3.09516887461795
42
-2.0507618711029
0
ELLIPSE
5
11C
100
AcDbEntity
8
1
62
256
6
ByLayer
370
18
48
1
60
0
100
AcDbEllipse
10
-18.733868
20
-25.153376
30
0
11
0.0877412306356674
21
1.67420241501617
31
0
210
0
220
0
230
1
40
0.990268
41
-1.00635486758146
42
0.0464237789778788
0
ELLIPSE
5
11D
100
AcDbEntity
8
1
62
256
6
ByLayer
370
18
48
1
60
0
100
AcDbEllipse
10
-12.648836
20
-29.560602
30
0
11
0.0976353168271536
21
1.86299282590322
31
0
210
0
220
0
230
1
40
0.990268
41
2.18166156499363
42
-2.49866953590342
0
ELLIPSE
5
11E
100
AcDbEntity
8
1
62
256
6
ByLayer
370
18
48
1
60
0
100
AcDbEllipse
10
-12.347618
20
-29.576388
30
0
11
0.0850459288800168
21
1.62277299397638
31
0
210
0
220
0
230
1
40
0.990268
41
2.18166156498373
42
3.14159265358979
0
ELLIPSE
5
11F
100
AcDbEntity
8
1
62
256
6
ByLayer
370
18
48
1
60
0
100
AcDbEllipse
10
-12.347618
20
-29.576388
30
0
11
0.0850459290822837
21
1.62277299395333
31
0
210
0
220
0
230
1
40
0.990268
41
3.14159265358979
42
-2.55454202893825
0
ELLIPSE
5
120
100
AcDbEntity
8
1
62
256
6
ByLayer
370
18
48
1
60
0
100
AcDbEllipse
10
-11.426334
20
-29.510294
30
0
11
0.0415547492534352
21
0.792911850595376
31
0
210
0
220
0
230
1
40
0.990268
41
-2.07892288535723
42
-1.0626697682414
0
ELLIPSE
5
121
100
AcDbEntity
8
1
62
256
6
ByLayer
370
18
48
1
60
0
100
AcDbEllipse
10
-11.426334
20
-29.510294
30
0
11
0.0415547492361109
21
0.792911850597025
31
0
210
0
220
0
230
1
40
0.990268
41
3.14159265358979
42
-2.07892288537947
0
ELLIPSE
5
122
100
AcDbEntity
8
1
62
256
6
ByLayer
370
18
48
1
60
0
100
AcDbEllipse
10
-10.769084
20
-29.543498
30
0
11
0.0209343824961065
21
0.399451813901909
31
0
210
0
220
0
230
1
40
0.990268
41
-3.08552794691802
42
-0.959931088599618
0
ELLIPSE
5
123
100
AcDbEntity
8
1
62
256
6
ByLayer
370
18
48
1
60
0
100
AcDbEllipse
10
9.899495
20
-7.725916
30
0
11
5.24999259829332
21
0.455094232696714
31
0
210
0
220
0
230
1
40
0.019371
41
3.13991346055094
42
-2.15815941991785
0
ELLIPSE
5
124
100
AcDbEntity
8
1
62
256
6
ByLayer
370
18
48
1
60
0
100
AcDbEllipse
10
0
20
-8.776933
30
0
11
19.9999718031271
21
1.73369231504529
31
0
210
0
220
0
230
1
40
0.019371
41
0.513638459180331
42
1.11809032195954
0
ELLIPSE
5
125
100
AcDbEntity
8
1
62
256
6
ByLayer
370
18
48
1
60
0
100
AcDbEllipse
10
9.899496
20
-7.725916
30
0
11
5.2499910656176
21
0.455094100389356
31
0
210
0
220
0
230
1
40
0.019371
41
-0.0283389094753789
42
-0.00167919328535287
0
ELLIPSE
5
126
100
AcDbEntity
8
1
62
256
6
ByLayer
370
18
48
1
60
0
100
AcDbEllipse
10
-10.874574
20
-29.53921
30
0
11
0.0160433410513161
21
0.306125183545096
31
0
210
0
220
0
230
1
40
0.990268
41
-2.07892288535564
42
-1.06266976824002
0
ELLIPSE
5
127
100
AcDbEntity
8
1
62
256
6
ByLayer
370
18
48
1
60
0
100
AcDbEllipse
10
-11.426334
20
-29.510294
30
0
11
0.0415547229761819
21
0.792911851231577
31
0
210
0
220
0
230
1
40
0.990268
41
-1.06266980134149
42
-0.959931121624441
0
ELLIPSE
5
128
100
AcDbEntity
8
1
62
256
6
ByLayer
370
18
48
1
60
0
100
AcDbEllipse
10
-16.506863
20
-21.296142
30
0
11
0.0415547493419211
21
0.792911850593977
31
0
210
0
220
0
230
1
40
0.990268
41
-0.959931088488751
42
1.05839558558548E-10
0
ELLIPSE
5
129
100
AcDbEntity
8
1
62
256
6
ByLayer
370
18
48
1
60
0
100
AcDbEllipse
10
-26.088706
20
-20.793979
30
0
11
0.0415547492580229
21
0.79291185059506
31
0
210
0
220
0
230
1
40
0.990268
41
0
42
2.18166156499435
0
ELLIPSE
5
12A
100
AcDbEntity
8
1
62
256
6
ByLayer
370
18
48
1
60
0
100
AcDbEllipse
10
-21.008177
20
-29.00813
30
0
11
0.0415547493066619
21
0.792911850594467
31
0
210
0
220
0
230
1
40
0.990268
41
2.18166156505621
42
3.14159265358979
0
ELLIPSE
5
12B
100
AcDbEntity
8
1
62
256
6
ByLayer
370
18
48
1
60
0
100
AcDbEllipse
10
-18.006086
20
-17.350772
30
0
11
0.209343824970727
21
3.99451813901848
31
0
210
0
220
0
230
1
40
0.990268
41
-2.53404166182118
42
-0.733546931262153
0
ELLIPSE
5
12C
100
AcDbEntity
8
1
62
256
6
ByLayer
370
18
48
1
60
0
100
AcDbEllipse
10
-24.863871
20
-29.990941
30
0
11
0.209343825219263
21
3.99451813898653
31
0
210
0
220
0
230
1
40
0.990268
41
-1.92726103803305
42
-1.47332835702157
0
ELLIPSE
5
12D
100
AcDbEntity
8
1
62
256
6
ByLayer
370
18
48
1
60
0
100
AcDbEllipse
10
-10.269576
20
-29.850888
30
0
11
-0.9996644319123
21
1.55421885720615
31
0
210
0
220
0
230
1
40
0.024304
41
-0.473128054669555
42
-0.339019478345093
0
ELLIPSE
5
12E
100
AcDbEntity
8
1
62
256
6
ByLayer
370
18
48
1
60
0
100
AcDbEllipse
10
-9.916116
20
-29.869412
30
0
11
0.0784845451098738
21
1.49794615974462
31
0
210
0
220
0
230
1
40
0.990268
41
0.455621088026364
42
0.495034827605409
0
ELLIPSE
5
12F
100
AcDbEntity
8
1
62
256
6
ByLayer
370
18
48
1
60
0
100
AcDbEllipse
10
-18.696155
20
-25.155352
30
0
11
0.0631433029263495
21
1.20484653399714
31
0
210
0
220
0
230
1
40
0.990268
41
-0.548998201161189
42
-0.410932934262125
0
ELLIPSE
5
130
100
AcDbEntity
8
1
62
256
6
ByLayer
370
18
48
1
60
0
100
AcDbEllipse
10
-18.544661
20
-26.548198
30
0
11
0.015282099326727
21
0.291599824145662
31
0
210
0
220
0
230
1
40
0.990268
41
1.87036577472864
42
2.80383266237651
0
ELLIPSE
5
131
100
AcDbEntity
8
1
62
256
6
ByLayer
370
18
48
1
60
0
100
AcDbEllipse
10
-18.594435
20
-25.160683
30
0
11
0.154122364636284
21
2.9408300105953
31
0
210
0
220
0
230
1
40
0.990268
41
-2.53072741724161
42
-2.28550287169407
0
ELLIPSE
5
132
100
AcDbEntity
8
1
62
256
6
ByLayer
370
18
48
1
60
0
100
AcDbEllipse
10
-18.594435
20
-25.160683
30
0
11
0.154122370080448
21
2.94083001014414
31
0
210
0
220
0
230
1
40
0.990268
41
-0.856089784408419
42
-2.53072741539182
0
ELLIPSE
5
133
100
AcDbEntity
8
1
62
256
6
ByLayer
370
18
48
1
60
0
100
AcDbEllipse
10
-18.75752
20
-25.152136
30
0
11
0.160741131722041
21
3.06711616929992
31
0
210
0
220
0
230
1
40
0.990268
41
-2.62081456355184
42
-2.53072729025537
0
ELLIPSE
5
134
100
AcDbEntity
8
1
62
256
6
ByLayer
370
18
48
1
60
0
100
AcDbEllipse
10
-18.75752
20
-25.152136
30
0
11
0.160740749030371
21
3.06711620353529
31
0
210
0
220
0
230
1
40
0.990268
41
-0.520777965144298
42
-2.62081468844544
0
ELLIPSE
5
135
100
AcDbEntity
8
1
62
256
6
ByLayer
370
18
48
1
60
0
100
AcDbEllipse
10
-18.75752
20
-25.152136
30
0
11
0.160740749029986
21
3.06711620353532
31
0
210
0
220
0
230
1
40
0.990268
41
-2.53072741539189
42
-0.520777965144427
0
ELLIPSE
5
136
100
AcDbEntity
8
1
62
256
6
ByLayer
370
18
48
1
60
0
100
AcDbEllipse
10
-10.36951
20
-29.564439
30
0
11
0.0209343824970947
21
0.39945181390184
31
0
210
0
220
0
230
1
40
0.990268
41
3.14159265358979
42
-0.959931088597103
0
ELLIPSE
5
137
100
AcDbEntity
8
1
62
256
6
ByLayer
370
18
48
1
60
0
100
AcDbEllipse
10
-10.861197
20
-29.819882
30
0
11
0.0785039347149425
21
1.49794430208969
31
0
210
0
220
0
230
1
40
0.990268
41
2.32492675967148E-10
42
0.290435097413495
0
ELLIPSE
5
138
100
AcDbEntity
8
1
62
256
6
ByLayer
370
18
48
1
60
0
100
AcDbEllipse
10
-10.861197
20
-29.819882
30
0
11
0.0785039343645695
21
1.49794430213185
31
0
210
0
220
0
230
1
40
0.990268
41
3.14159265358979
42
0
0
ELLIPSE
5
139
100
AcDbEntity
8
1
62
256
6
ByLayer
370
18
48
1
60
0
100
AcDbEllipse
10
-10.861197
20
-29.819882
30
0
11
0.0785039341856304
21
1.49794430213041
31
0
210
0
220
0
230
1
40
0.990268
41
2.65760407034672
42
3.14159265347205
0
ELLIPSE
5
13A
100
AcDbEntity
8
1
62
256
6
ByLayer
370
18
48
1
60
0
100
AcDbEllipse
10
-9.916116
20
-29.869412
30
0
11
0.0785039344114567
21
1.49794430213065
31
0
210
0
220
0
230
1
40
0.990268
41
1.91335461317833
42
2.48440701390193
0
ELLIPSE
5
13B
100
AcDbEntity
8
1
62
256
6
ByLayer
370
18
48
1
60
0
100
AcDbEllipse
10
-18.695587
20
-25.155382
30
0
11
0.137381885135255
21
2.62140252873084
31
0
210
0
220
0
230
1
40
0.990268
41
-2.0507618710943
42
0
0
ELLIPSE
5
13C
100
AcDbEntity
8
1
62
256
6
ByLayer
370
18
48
1
60
0
100
AcDbEllipse
10
-18.539293
20
-25.163573
30
0
11
0.137381885137054
21
2.62140252873078
31
0
210
0
220
0
230
1
40
0.990268
41
-2.0507618710936
42
0
0
ELLIPSE
5
13D
100
AcDbEntity
8
1
62
256
6
ByLayer
370
18
48
1
60
0
100
AcDbEllipse
10
-18.539293
20
-25.163573
30
0
11
0.137381885124247
21
2.62140252873201
31
0
210
0
220
0
230
1
40
0.990268
41
3.14159265358979
42
-2.05076187109857
0
ELLIPSE
5
13E
100
AcDbEntity
8
1
62
256
6
ByLayer
370
18
48
1
60
0
100
AcDbEllipse
10
-18.535819
20
-25.163755
30
0
11
0.0631433312610873
21
1.20484653367707
31
0
210
0
220
0
230
1
40
0.990268
41
-2.45607550981554
42
-1.82843144461317
0
ELLIPSE
5
13F
100
AcDbEntity
8
1
62
256
6
ByLayer
370
18
48
1
60
0
100
AcDbEllipse
10
-11.703756
20
-29.610131
30
0
11
0.0850459287931479
21
1.62277299397786
31
0
210
0
220
0
230
1
40
0.990268
41
2.18166156492986
42
2.93989485738886
0
ELLIPSE
5
140
100
AcDbEntity
8
1
62
256
6
ByLayer
370
18
48
1
60
0
100
AcDbEllipse
10
-9.825778
20
-29.874146
30
0
11
0.0785039269480819
21
1.49794430285435
31
0
210
0
220
0
230
1
40
0.990268
41
0.356514183287915
42
0.545146458621961
0
ELLIPSE
5
141
100
AcDbEntity
8
1
62
256
6
ByLayer
370
18
48
1
60
0
100
AcDbEllipse
10
-18.615758
20
-25.159566
30
0
11
0.157007868728733
21
2.99588860426372
31
0
210
0
220
0
230
1
40
0.990268
41
-0.500173615391899
42
-2.64141903863335
0
ELLIPSE
5
142
100
AcDbEntity
8
1
62
256
6
ByLayer
370
18
48
1
60
0
100
AcDbEllipse
10
-9.899495
20
-9.441537
30
0
11
5.24999259831739
21
0.455094232699039
31
0
210
0
220
0
230
1
40
0.019371
41
3.13991346055109
42
-0.00167919303875517
0
ELLIPSE
5
143
100
AcDbEntity
8
1
62
256
6
ByLayer
370
18
48
1
60
0
100
AcDbEllipse
10
-9.899495
20
-9.441537
30
0
11
5.24999259831747
21
0.455094232699047
31
0
210
0
220
0
230
1
40
0.019371
41
0.219855985980037
42
3.13991346055106
0
ELLIPSE
5
144
100
AcDbEntity
8
1
62
256
6
ByLayer
370
18
48
1
60
0
100
AcDbEllipse
10
-9.899495
20
-9.441537
30
0
11
5.249992598049
21
0.455094232674864
31
0
210
0
220
0
230
1
40
0.019371
41
-0.00167919303877143
42
0.219855985985673
0
ELLIPSE
5
145
100
AcDbEntity
8
1
62
256
6
ByLayer
370
18
48
1
60
0
100
AcDbEllipse
10
9.899495
20
-7.725916
30
0
11
5.24999259831743
21
0.455094232699043
31
0
210
0
220
0
230
1
40
0.019371
41
-0.00167919303872035
42
3.13991346055108
0
ELLIPSE
5
146
100
AcDbEntity
8
1
62
256
6
ByLayer
370
18
48
1
60
0
100
AcDbEllipse
10
-9.825778
20
-29.874146
30
0
11
0.0785039343214366
21
1.49794430213303
31
0
210
0
220
0
230
1
40
0.990268
41
1.9000886081271
42
2.78507846532352
0
ELLIPSE
5
147
100
AcDbEntity
8
1
62
256
6
ByLayer
370
18
48
1
60
0
100
AcDbEllipse
10
-18.535819
20
-25.163755
30
0
11
0.0631433311144591
21
1.20484653368371
31
0
210
0
220
0
230
1
40
0.990268
41
-1.22610884000777
42
-0.604705603042181
0
ELLIPSE
5
148
100
AcDbEntity
8
1
62
256
6
ByLayer
370
18
48
1
60
0
100
AcDbEllipse
10
-17.587789
20
-23.53952
30
0
11
0.0359024657162057
21
0.685059860899724
31
0
210
0
220
0
230
1
40
0.990268
41
3.14159265320127
42
-2.83029686336559
0
ELLIPSE
5
149
100
AcDbEntity
8
1
62
256
6
ByLayer
370
18
48
1
60
0
100
AcDbEllipse
10
-18.526976
20
-23.779312
30
0
11
0.0152820991945086
21
0.291599824150545
31
0
210
0
220
0
230
1
40
0.990268
41
0.36357011389104
42
1.35261792426122
0
POINT
5
6C
100
AcDbEntity
8
80
62
256
6
ByLayer
370
18
48
0.05
60
0
100
AcDbPoint
10
0
20
0
30
0
39
0
210
0
220
0
230
1
50
360
0
POINT
5
6E
100
AcDbEntity
8
81
62
256
6
ByLayer
370
18
48
0.05
60
0
100
AcDbPoint
10
-27
20
-20
30
0
39
0
210
0
220
0
230
1
50
360
0
POINT
5
70
100
AcDbEntity
8
1
62
256
6
ByLayer
370
18
48
1
60
0
100
AcDbPoint
10
18.999075
20
0.325
30
0
39
0
210
0
220
0
230
1
50
360
0
POINT
5
72
100
AcDbEntity
8
1
62
256
6
ByLayer
370
18
48
1
60
0
100
AcDbPoint
10
-19
20
0.325
30
0
39
0
210
0
220
0
230
1
50
360
0
SPLINE
5
14A
100
AcDbEntity
8
1
62
256
6
ByLayer
370
18
48
1
60
0
100
AcDbSpline
70
4
71
3
72
11
73
7
40
0
40
0
40
0
40
0
40
0.284186472106435
40
0.569985996508082
40
0.828961317192136
40
1
40
1
40
1
40
1
41
1
10
-20.1168398650169
20
-25.6250032645696
30
0
41
1
10
-20.1442460635278
20
-25.6493825434745
30
0
41
1
10
-20.1875091831431
20
-25.7044301292369
30
0
41
1
10
-20.2210751640074
20
-25.8073399262306
30
0
41
1
10
-20.2139993272428
20
-25.9029287679805
30
0
41
1
10
-20.1927159649328
20
-25.9551321256642
30
0
41
1
10
-20.1815518441629
20
-25.9755702920705
30
0
0
SPLINE
5
14B
100
AcDbEntity
8
1
62
256
6
ByLayer
370
18
48
1
60
0
100
AcDbSpline
70
4
71
3
72
12
73
8
40
0
40
0
40
0
40
0
40
0.0836664693986214
40
0.377494478412206
40
0.67525073611434
40
0.99209384999798
40
1
40
1
40
1
40
1
41
1
10
-20.1815518441629
20
-25.9755702920705
30
0
41
1
10
-20.1774309325568
20
-25.982961976801
30
0
41
1
10
-20.1575544937807
20
-26.015208346769
30
0
41
1
10
-20.1096619170275
20
-26.0657580989173
30
0
41
1
10
-20.0287605545169
20
-26.110155372744
30
0
41
1
10
-19.9676537995593
20
-26.1226478051089
30
0
41
1
10
-19.9380055694415
20
-26.1243100142149
30
0
41
1
10
-19.9335116496723
20
-26.1245520414725
30
0
0
SPLINE
5
14C
100
AcDbEntity
8
1
62
256
6
ByLayer
370
18
48
1
60
0
100
AcDbSpline
70
4
71
3
72
12
73
8
40
0
40
0
40
0
40
0
40
0.0633880296714052
40
0.286000988160513
40
0.511590094520426
40
0.751639968867287
40
1
40
1
40
1
40
1
41
1
10
-20.1639374358502
20
-24.3032451371915
30
0
41
1
10
-20.1681996662408
20
-24.3105629252345
30
0
41
1
10
-20.1857851239724
20
-24.3440547623375
30
0
41
1
10
-20.2044388078913
20
-24.410392003504
30
0
41
1
10
-20.2002470868442
20
-24.5006781351497
30
0
41
1
10
-20.1671576717152
20
-24.5870481041669
30
0
41
1
10
-20.1298849286981
20
-24.6345726287422
30
0
41
1
10
-20.1066365164664
20
-24.6562896897687
30
0
0
SPLINE
5
14D
100
AcDbEntity
8
1
62
256
6
ByLayer
370
18
48
1
60
0
100
AcDbSpline
70
4
71
3
72
11
73
7
40
0
40
0
40
0
40
0
40
0.133871108074442
40
0.479686249810453
40
0.793044314612324
40
1
40
1
40
1
40
1
41
1
10
-19.8883590776192
20
-24.1603026973419
30
0
41
1
10
-19.9025756407219
20
-24.1594989482195
30
0
41
1
10
-19.9530511337612
20
-24.1601665009931
30
0
41
1
10
-20.038023764035
20
-24.1815654063515
30
0
41
1
10
-20.1177816594656
20
-24.2379758767555
30
0
41
1
10
-20.1520314997231
20
-24.2832041150486
30
0
41
1
10
-20.1639374358502
20
-24.3032451371915
30
0
0
SPLINE
5
14E
100
AcDbEntity
8
1
62
256
6
ByLayer
370
18
48
1
60
0
100
AcDbSpline
70
4
71
1
72
4
73
2
40
0
40
0
40
1
40
1
41
1
10
-19.6599204994536
20
-0.343278579257489
30
0
41
1
10
-18.9990748130008
20
0.325000000000001
30
0
0
SPLINE
5
14F
100
AcDbEntity
8
1
62
256
6
ByLayer
370
18
48
1
60
0
100
AcDbSpline
70
4
71
3
72
12
73
8
40
0
40
0
40
0
40
0
40
0.125893772189404
40
0.328957873657398
40
0.594497485960803
40
0.956614590203038
40
1
40
1
40
1
40
1
41
1
10
-19.7527669961612
20
-0.445661689723821
30
0
41
1
10
-19.7592530103136
20
-0.446416458799166
30
0
41
1
10
-19.7534439941095
20
-0.44089984712264
30
0
41
1
10
-19.7445587981259
20
-0.430847903304305
30
0
41
1
10
-19.7153160315759
20
-0.399923391600748
30
0
41
1
10
-19.6829364599954
20
-0.366697475980517
30
0
41
1
10
-19.6626221808212
20
-0.346025427596972
30
0
41
1
10
-19.6594663301786
20
-0.342816898991546
30
0
0
SPLINE
5
150
100
AcDbEntity
8
1
62
256
6
ByLayer
370
18
48
1
60
0
100
AcDbSpline
70
4
71
1
72
4
73
2
40
0
40
0
40
1
40
1
41
1
10
-19.5586932485776
20
-0.343278579257489
30
0
41
1
10
-18.9249133089164
20
0.325000000000001
30
0
0
SPLINE
5
151
100
AcDbEntity
8
1
62
256
6
ByLayer
370
18
48
1
60
0
100
AcDbSpline
70
4
71
3
72
12
73
8
40
0
40
0
40
0
40
0
40
0.14464042572786
40
0.352361667813465
40
0.565852704162112
40
0.894603471281626
40
1
40
1
40
1
40
1
41
1
10
-19.6391292272392
20
-0.445335149430371
30
0
41
1
10
-19.6443154090601
20
-0.446302488983675
30
0
41
1
10
-19.6438267557458
20
-0.441201023879558
30
0
41
1
10
-19.6359911383619
20
-0.430347769426538
30
0
41
1
10
-19.6134218967746
20
-0.402742143350651
30
0
41
1
10
-19.5849460593207
20
-0.371248518681521
30
0
41
1
10
-19.5639710331277
20
-0.34886072257112
30
0
41
1
10
-19.5586932485771
20
-0.343278579256898
30
0
0
SPLINE
5
152
100
AcDbEntity
8
1
62
256
6
ByLayer
370
18
48
1
60
0
100
AcDbSpline
70
4
71
2
72
6
73
3
40
0
40
0
40
0
40
1
40
1
40
1
41
1
10
-19.3726289843786
20
-26.1505142808475
30
0
41
1
10
-19.4934936964888
20
-26.1001767253825
30
0
41
1
10
-19.6175641278401
20
-26.0940409312209
30
0
0
SPLINE
5
153
100
AcDbEntity
8
1
62
256
6
ByLayer
370
18
48
1
60
0
100
AcDbSpline
70
4
71
1
72
4
73
2
40
0
40
0
40
1
40
1
41
1
10
-19.340953677083
20
-0.343278579257489
30
0
41
1
10
-18.7307192534083
20
0.325000000000001
30
0
0
SPLINE
5
154
100
AcDbEntity
8
1
62
256
6
ByLayer
370
18
48
1
60
0
100
AcDbSpline
70
4
71
3
72
12
73
8
40
0
40
0
40
0
40
0
40
0.122848843627691
40
0.336149978943553
40
0.543025025044005
40
0.841058332127265
40
1
40
1
40
1
40
1
41
1
10
-19.4093546521209
20
-0.445272892664304
30
0
41
1
10
-19.4139102150483
20
-0.445348195726602
30
0
41
1
10
-19.4196218642982
20
-0.443835635119089
30
0
41
1
10
-19.4130159911149
20
-0.43253968495686
30
0
41
1
10
-19.3957302191996
20
-0.406866852291447
30
0
41
1
10
-19.369509751375
20
-0.3751350435751
30
0
41
1
10
-19.3486988936523
20
-0.351759257963127
30
0
41
1
10
-19.340953677083
20
-0.343278579257491
30
0
0
SPLINE
5
155
100
AcDbEntity
8
1
62
256
6
ByLayer
370
18
48
1
60
0
100
AcDbSpline
70
4
71
3
72
10
73
6
40
0
40
0
40
0
40
0
40
0.494848865875523
40
0.898966292198751
40
1
40
1
40
1
40
1
41
1
10
-19.0077398033957
20
-26.6102191632952
30
0
41
1
10
-19.0192091461987
20
-26.5388978947326
30
0
41
1
10
-19.0627066372318
20
-26.4187945008753
30
0
41
1
10
-19.1575463827173
20
-26.2962935203972
30
0
41
1
10
-19.2180383571979
20
-26.2449044885611
30
0
41
1
10
-19.2306512600996
20
-26.2349155326502
30
0
0
SPLINE
5
156
100
AcDbEntity
8
1
62
256
6
ByLayer
370
18
48
1
60
0
100
AcDbSpline
70
4
71
3
72
11
73
7
40
0
40
0
40
0
40
0
40
0.282400928180183
40
0.566618863982858
40
0.824053620759868
40
1
40
1
40
1
40
1
41
1
10
-19.0077398033956
20
-26.6102191632952
30
0
41
1
10
-19.0018938428159
20
-26.6442135423381
30
0
41
1
10
-18.9786967005853
20
-26.7057910710178
30
0
41
1
10
-18.9098872492188
20
-26.7823657542901
30
0
41
1
10
-18.8247832147572
20
-26.8223773632423
30
0
41
1
10
-18.7686187178371
20
-26.8294792428471
30
0
41
1
10
-18.7445763456478
20
-26.8298066273827
30
0
0
SPLINE
5
157
100
AcDbEntity
8
1
62
256
6
ByLayer
370
18
48
1
60
0
100
AcDbSpline
70
4
71
3
72
12
73
8
40
0
40
0
40
0
40
0
40
0.180802035645047
40
0.393839994977959
40
0.599041873272802
40
0.895446603021737
40
1
40
1
40
1
40
1
41
1
10
-19.0606936268193
20
-0.445269833443752
30
0
41
1
10
-19.0652046532468
20
-0.445188986867208
30
0
41
1
10
-19.0707783781358
20
-0.443292432717166
30
0
41
1
10
-19.0661111039543
20
-0.427665952035787
30
0
41
1
10
-19.0492546948184
20
-0.399742013122194
30
0
41
1
10
-19.0255261196715
20
-0.369614119570053
30
0
41
1
10
-19.0076021495111
20
-0.348830089576856
30
0
41
1
10
-19.0026970897857
20
-0.343278579255585
30
0
0
SPLINE
5
158
100
AcDbEntity
8
1
62
256
6
ByLayer
370
18
48
1
60
0
100
AcDbSpline
70
4
71
1
72
4
73
2
40
0
40
0
40
1
40
1
41
1
10
-19.0026970897866
20
-0.343278579257489
30
0
41
1
10
-18.4126951788705
20
0.325000000000001
30
0
0
SPLINE
5
159
100
AcDbEntity
8
1
62
256
6
ByLayer
370
18
48
1
60
0
100
AcDbSpline
70
4
71
3
72
12
73
8
40
0
40
0
40
0
40
0
40
0.0573009716925573
40
0.28003106492665
40
0.505395285878045
40
0.74494374065059
40
1
40
1
40
1
40
1
41
1
10
-18.7231604813818
20
-23.4769449557639
30
0
41
1
10
-18.7307504860245
20
-23.4769090078654
30
0
41
1
10
-18.7674305613023
20
-23.4781398133181
30
0
41
1
10
-18.8323862232209
20
-23.4935763051713
30
0
41
1
10
-18.9062926312799
20
-23.539370569357
30
0
41
1
10
-18.9621874932915
20
-23.6078503678803
30
0
41
1
10
-18.9825713201525
20
-23.6616081138671
30
0
41
1
10
-18.9884928190414
20
-23.6918345766777
30
0
0
SPLINE
5
15A
100
AcDbEntity
8
1
62
256
6
ByLayer
370
18
48
1
60
0
100
AcDbSpline
70
4
71
3
72
13
73
9
40
0
40
0
40
0
40
0
40
0.0806066853748333
40
0.283821665544052
40
0.488228118219369
40
0.667147385187992
40
0.903652470286029
40
1
40
1
40
1
40
1
41
1
10
-19.6701160649886
20
-24.1943634233706
30
0
41
1
10
-19.6449030404447
20
-24.1958066940685
30
0
41
1
10
-19.5563389515489
20
-24.1959963983467
30
0
41
1
10
-19.3995150915456
20
-24.1685030259143
30
0
41
1
10
-19.2272269498646
20
-24.0799821343577
30
0
41
1
10
-19.0883966308228
20
-23.9443388467947
30
0
41
1
10
-19.0181749651697
20
-23.8096667482546
30
0
41
1
10
-18.9937251650339
20
-23.7187317639112
30
0
41
1
10
-18.9884928190415
20
-23.6918345766772
30
0
0
SPLINE
5
15B
100
AcDbEntity
8
1
62
256
6
ByLayer
370
18
48
1
60
0
100
AcDbSpline
70
4
71
3
72
12
73
8
40
0
40
0
40
0
40
0
40
0.211806285218188
40
0.426370147777586
40
0.627327987084685
40
0.911199310430047
40
1
40
1
40
1
40
1
41
1
10
-18.5822787769219
20
-0.445278577788856
30
0
41
1
10
-18.5880511318393
20
-0.44532914377731
30
0
41
1
10
-18.5955106549007
20
-0.441803952828576
30
0
41
1
10
-18.5942685614686
20
-0.425067727289651
30
0
41
1
10
-18.5792697899163
20
-0.396479847318955
30
0
41
1
10
-18.557622552608
20
-0.36743447657642
30
0
41
1
10
-18.5413818961241
20
-0.347997063402582
30
0
41
1
10
-18.5373273217389
20
-0.343278579256492
30
0
0
SPLINE
5
15C
100
AcDbEntity
8
1
62
256
6
ByLayer
370
18
48
1
60
0
100
AcDbSpline
70
4
71
1
72
4
73
2
40
0
40
0
40
1
40
1
41
1
10
-18.5373273217393
20
-0.343278579257489
30
0
41
1
10
-17.9642657448057
20
0.325000000000001
30
0
0
SPLINE
5
15D
100
AcDbEntity
8
1
62
256
6
ByLayer
370
18
48
1
60
0
100
AcDbSpline
70
4
71
3
72
13
73
9
40
0
40
0
40
0
40
0
40
0.0329714944599703
40
0.246121471858244
40
0.460255918279617
40
0.655137633639714
40
0.923874807749682
40
1
40
1
40
1
40
1
41
1
10
-17.9663441405676
20
-0.445277088599863
30
0
41
1
10
-17.9708439913984
20
-0.445203626999619
30
0
41
1
10
-17.975352338591
20
-0.445087175904052
30
0
41
1
10
-17.985451102585
20
-0.440355507223613
30
0
41
1
10
-17.9861189268182
20
-0.422419538668469
30
0
41
1
10
-17.972981463754
20
-0.393428352388137
30
0
41
1
10
-17.9531562033176
20
-0.365510265445401
30
0
41
1
10
-17.9383693228934
20
-0.347346082980048
30
0
41
1
10
-17.9349522380298
20
-0.343278579256916
30
0
0
SPLINE
5
15E
100
AcDbEntity
8
1
62
256
6
ByLayer
370
18
48
1
60
0
100
AcDbSpline
70
4
71
1
72
4
73
2
40
0
40
0
40
1
40
1
41
1
10
-17.93495223803
20
-0.343278579257489
30
0
41
1
10
-17.3753372269432
20
0.325000000000001
30
0
0
SPLINE
5
15F
100
AcDbEntity
8
1
62
256
6
ByLayer
370
18
48
1
60
0
100
AcDbSpline
70
4
71
1
72
4
73
2
40
0
40
0
40
1
40
1
41
1
10
-17.6143748485084
20
-26.137860166145
30
0
41
1
10
-17.7478041550329
20
-26.1149989375207
30
0
0
SPLINE
5
160
100
AcDbEntity
8
1
62
256
6
ByLayer
370
18
48
1
60
0
100
AcDbSpline
70
4
71
1
72
4
73
2
40
0
40
0
40
1
40
1
41
1
10
-17.6143748485084
20
-26.137860166145
30
0
41
1
10
-17.5576279965648
20
-26.1475887420513
30
0
0
SPLINE
5
161
100
AcDbEntity
8
1
62
256
6
ByLayer
370
18
48
1
60
0
100
AcDbSpline
70
4
71
1
72
4
73
2
40
0
40
0
40
1
40
1
41
1
10
-17.5137196427579
20
-24.1832739920298
30
0
41
1
10
-17.5968464736651
20
-24.1929710154673
30
0
0
SPLINE
5
162
100
AcDbEntity
8
1
62
256
6
ByLayer
370
18
48
1
60
0
100
AcDbSpline
70
4
71
2
72
6
73
3
40
0
40
0
40
0
40
1
40
1
40
1
41
1
10
-17.7921859794233
20
-24.2157496071365
30
0
41
1
10
-17.6889765064331
20
-24.2203281721744
30
0
41
1
10
-17.5968464736649
20
-24.1929710154673
30
0
0
SPLINE
5
163
100
AcDbEntity
8
1
62
256
6
ByLayer
370
18
48
1
60
0
100
AcDbSpline
70
4
71
3
72
11
73
7
40
0
40
0
40
0
40
0
40
0.133871108074452
40
0.479686249810456
40
0.793044314612321
40
1
40
1
40
1
40
1
41
1
10
-17.5576279965648
20
-26.1475887420513
30
0
41
1
10
-17.5451371241073
20
-26.1483020515591
30
0
41
1
10
-17.5005175934445
20
-26.1473276008018
30
0
41
1
10
-17.4237094592629
20
-26.1255008123343
30
0
41
1
10
-17.3490752857047
20
-26.0688218190453
30
0
41
1
10
-17.3156879723451
20
-26.023548377633
30
0
41
1
10
-17.3037993911794
20
-26.003506445955
30
0
0
SPLINE
5
164
100
AcDbEntity
8
1
62
256
6
ByLayer
370
18
48
1
60
0
100
AcDbSpline
70
4
71
3
72
12
73
8
40
0
40
0
40
0
40
0
40
0.0633880296714205
40
0.286000988160513
40
0.51159009452043
40
0.751639968867296
40
1
40
1
40
1
40
1
41
1
10
-17.3037993911794
20
-26.003506445955
30
0
41
1
10
-17.2995364809205
20
-25.9961886935424
30
0
41
1
10
-17.2817362704768
20
-25.9627081111522
30
0
41
1
10
-17.260900477973
20
-25.8964852294508
30
0
41
1
10
-17.2587970521502
20
-25.8065290124728
30
0
41
1
10
-17.2823947637999
20
-25.7206564825565
30
0
41
1
10
-17.3119126183388
20
-25.673538374465
30
0
41
1
10
-17.330817768394
20
-25.652048934164
30
0
0
SPLINE
5
165
100
AcDbEntity
8
1
62
256
6
ByLayer
370
18
48
1
60
0
100
AcDbSpline
70
4
71
3
72
12
73
8
40
0
40
0
40
0
40
0
40
0.0836664693986139
40
0.377494478412209
40
0.675250736114352
40
0.992093849997981
40
1
40
1
40
1
40
1
41
1
10
-17.2861849828667
20
-24.331181291076
30
0
41
1
10
-17.2903052145977
20
-24.3237896419762
30
0
41
1
10
-17.3099667886869
20
-24.2915545325893
30
0
41
1
10
-17.3556788482254
20
-24.241119056506
30
0
41
1
10
-17.4302780285528
20
-24.1970520660523
30
0
41
1
10
-17.4851335658374
20
-24.184887246123
30
0
41
1
10
-17.5111331917973
20
-24.1834173091163
30
0
41
1
10
-17.5156270507255
20
-24.1831742575174
30
0
0
SPLINE
5
166
100
AcDbEntity
8
1
62
256
6
ByLayer
370
18
48
1
60
0
100
AcDbSpline
70
4
71
3
72
11
73
7
40
0
40
0
40
0
40
0
40
0.284186472106442
40
0.569985996508082
40
0.828961317192136
40
1
40
1
40
1
40
1
41
1
10
-17.3206144198435
20
-24.683335359363
30
0
41
1
10
-17.2982171225192
20
-24.6586935750704
30
0
41
1
10
-17.2638726105471
20
-24.603178584887
30
0
41
1
10
-17.2406642124838
20
-24.49972596998
30
0
41
1
10
-17.2528565425171
20
-24.4038689841802
30
0
41
1
10
-17.2750035072111
20
-24.3516203670134
30
0
41
1
10
-17.2861849828667
20
-24.331181291076
30
0
0
SPLINE
5
167
100
AcDbEntity
8
1
62
256
6
ByLayer
370
18
48
1
60
0
100
AcDbSpline
70
4
71
1
72
4
73
2
40
0
40
0
40
1
40
1
41
1
10
-17.1811675775406
20
-0.343278579257489
30
0
41
1
10
-16.6309904620861
20
0.325000000000001
30
0
0
SPLINE
5
168
100
AcDbEntity
8
1
62
256
6
ByLayer
370
18
48
1
60
0
100
AcDbSpline
70
4
71
3
72
13
73
9
40
0
40
0
40
0
40
0
40
0.0725389561299051
40
0.282680251094681
40
0.494082831480854
40
0.681208669575999
40
0.932107707459112
40
1
40
1
40
1
40
1
41
1
10
-17.1976557611125
20
-0.445265751623984
30
0
41
1
10
-17.2021563671386
20
-0.445271375138269
30
0
41
1
10
-17.2112835613887
20
-0.444663865666179
30
0
41
1
10
-17.2244257733822
20
-0.438639345456733
30
0
41
1
10
-17.2272672931153
20
-0.419805231488423
30
0
41
1
10
-17.2159538180705
20
-0.390720195017948
30
0
41
1
10
-17.1977599436425
20
-0.363942825772066
30
0
41
1
10
-17.1841955781061
20
-0.346940535849655
30
0
41
1
10
-17.1811675775405
20
-0.343278579257019
30
0
0
SPLINE
5
169
100
AcDbEntity
8
1
62
256
6
ByLayer
370
18
48
1
60
0
100
AcDbSpline
70
4
71
3
72
13
73
9
40
0
40
0
40
0
40
0
40
0.165264141808308
40
0.358433741563098
40
0.552754844125638
40
0.727546993264322
40
0.965108281587303
40
1
40
1
40
1
40
1
41
1
10
-16.2562377321302
20
-0.445272339247191
30
0
41
1
10
-16.2638563716007
20
-0.445517980673968
30
0
41
1
10
-16.2779203083254
20
-0.443720511192804
30
0
41
1
10
-16.293210045122
20
-0.43390976984668
30
0
41
1
10
-16.2959851239126
20
-0.413818252537001
30
0
41
1
10
-16.285084671901
20
-0.384563741316723
30
0
41
1
10
-16.2683671159154
20
-0.360024855441096
30
0
41
1
10
-16.2571218777652
20
-0.345980578687327
30
0
41
1
10
-16.2542788662344
20
-0.342491939961444
30
0
0
SPLINE
5
16A
100
AcDbEntity
8
1
62
256
6
ByLayer
370
18
48
1
60
0
100
AcDbSpline
70
4
71
1
72
4
73
2
40
0
40
0
40
1
40
1
41
1
10
-16.2549231580666
20
-0.343278579257489
30
0
41
1
10
-15.709148409446
20
0.325000000000001
30
0
0
SPLINE
5
16B
100
AcDbEntity
8
1
62
256
6
ByLayer
370
18
48
1
60
0
100
AcDbSpline
70
4
71
3
72
13
73
9
40
0
40
0
40
0
40
0
40
0.150525840510815
40
0.343364095638586
40
0.537863161945525
40
0.707003143518776
40
0.904731927639398
40
1
40
1
40
1
40
1
41
1
10
-15.1081772198388
20
-0.445271247476533
30
0
41
1
10
-15.1160980823245
20
-0.445493692840281
30
0
41
1
10
-15.1322794347929
20
-0.444088440188079
30
0
41
1
10
-15.1528187255912
20
-0.436110132222313
30
0
41
1
10
-15.1621800135638
20
-0.4176818927962
30
0
41
1
10
-15.1566073928192
20
-0.390595362704036
30
0
41
1
10
-15.1413967685293
20
-0.364832614366482
30
0
41
1
10
-15.1290007126091
20
-0.348617981250285
30
0
41
1
10
-15.1245672474105
20
-0.343278579219997
30
0
0
SPLINE
5
16C
100
AcDbEntity
8
1
62
256
6
ByLayer
370
18
48
1
60
0
100
AcDbSpline
70
4
71
1
72
4
73
2
40
0
40
0
40
1
40
1
41
1
10
-15.1245672474212
20
-0.343278579257489
30
0
41
1
10
-14.576173837808
20
0.325000000000001
30
0
0
SPLINE
5
16D
100
AcDbEntity
8
1
62
256
6
ByLayer
370
18
48
1
60
0
100
AcDbSpline
70
4
71
3
72
14
73
10
40
0
40
0
40
0
40
0
40
0.0531313461954424
40
0.256331172994825
40
0.461193202993263
40
0.605560350396049
40
0.750149291682394
40
0.928995953489828
40
1
40
1
40
1
40
1
41
1
10
-13.7024990215559
20
-0.445271363159742
30
0
41
1
10
-13.7069990872222
20
-0.445288730893285
30
0
41
1
10
-13.721002688731
20
-0.445010047584162
30
0
41
1
10
-13.745474683603
20
-0.44167402861516
30
0
41
1
10
-13.7668375822114
20
-0.429061720763564
30
0
41
1
10
-13.7737418193114
20
-0.409011655860025
30
0
41
1
10
-13.7683685078244
20
-0.384392261981455
30
0
41
1
10
-13.754400312124
20
-0.36147090625592
30
0
41
1
10
-13.7432489949022
20
-0.3473187937658
30
0
41
1
10
-13.7398159364959
20
-0.34327857924706
30
0
0
SPLINE
5
16E
100
AcDbEntity
8
1
62
256
6
ByLayer
370
18
48
1
60
0
100
AcDbSpline
70
4
71
1
72
4
73
2
40
0
40
0
40
1
40
1
41
1
10
-13.7398159364994
20
-0.343278579257489
30
0
41
1
10
-13.177721493111
20
0.325000000000001
30
0
0
SPLINE
5
16F
100
AcDbEntity
8
1
62
256
6
ByLayer
370
18
48
1
60
0
100
AcDbSpline
70
4
71
3
72
14
73
10
40
0
40
0
40
0
40
0
40
0.0693297437338359
40
0.349159083995475
40
0.501630594764383
40
0.628670092958835
40
0.756286511172859
40
0.873418636771651
40
1
40
1
40
1
40
1
41
1
10
-11.9489131226792
20
-0.445277056416185
30
0
41
1
10
-11.9536607259623
20
-0.44532000569297
30
0
41
1
10
-11.976999980011
20
-0.444823622309286
30
0
41
1
10
-12.0087312373348
20
-0.440611074888158
30
0
41
1
10
-12.0344003316684
20
-0.425940270076248
30
0
41
1
10
-12.0442155975082
20
-0.408709318865324
30
0
41
1
10
-12.042433387761
20
-0.38791843073013
30
0
41
1
10
-12.0309384980411
20
-0.365276948015738
30
0
41
1
10
-12.019924482852
20
-0.350820716076496
30
0
41
1
10
-12.0130158376653
20
-0.343278579257488
30
0
0
SPLINE
5
170
100
AcDbEntity
8
1
62
256
6
ByLayer
370
18
48
1
60
0
100
AcDbSpline
70
4
71
1
72
4
73
2
40
0
40
0
40
1
40
1
41
1
10
-12.0130158376653
20
-0.343278579257489
30
0
41
1
10
-11.416647658135
20
0.325000000000001
30
0
0
SPLINE
5
171
100
AcDbEntity
8
1
62
256
6
ByLayer
370
18
48
1
60
0
100
AcDbSpline
70
4
71
1
72
4
73
2
40
0
40
0
40
1
40
1
41
1
10
-11.5283068617297
20
-30.9741220663702
30
0
41
1
10
-11.6209141965237
20
-31.1096081447311
30
0
0
SPLINE
5
172
100
AcDbEntity
8
1
62
256
6
ByLayer
370
18
48
1
60
0
100
AcDbSpline
70
4
71
3
72
14
73
10
40
0
40
0
40
0
40
0
40
0.396216813030473
40
0.551959900380036
40
0.655774236634808
40
0.742512754001434
40
0.829319436540402
40
0.945404531786378
40
1
40
1
40
1
40
1
41
1
10
-9.65514361465894
20
-0.445265694039052
30
0
41
1
10
-9.69099032506779
20
-0.447659318073447
30
0
41
1
10
-9.73336800127919
20
-0.442603761686203
30
0
41
1
10
-9.77660396265472
20
-0.426163735092135
30
0
41
1
10
-9.79157686133129
20
-0.410995308861833
30
0
41
1
10
-9.79550685586631
20
-0.394612814701966
30
0
41
1
10
-9.79022608949932
20
-0.375013708023396
30
0
41
1
10
-9.77787859235868
20
-0.357517420064894
30
0
41
1
10
-9.76784870513436
20
-0.346694849041276
30
0
41
1
10
-9.76435133855477
20
-0.343278579223044
30
0
0
SPLINE
5
173
100
AcDbEntity
8
1
62
256
6
ByLayer
370
18
48
1
60
0
100
AcDbSpline
70
4
71
1
72
4
73
2
40
0
40
0
40
1
40
1
41
1
10
-9.76435133857411
20
-0.343278579257489
30
0
41
1
10
-9.08445616148814
20
0.325000000000001
30
0
0
SPLINE
5
174
100
AcDbEntity
8
1
62
256
6
ByLayer
370
18
48
1
60
0
100
AcDbSpline
70
4
71
3
72
13
73
9
40
0
40
0
40
0
40
0
40
0.495007406069554
40
0.646058807279754
40
0.846661626289997
40
0.915204513999166
40
0.984433183737011
40
1
40
1
40
1
40
1
41
1
10
-7.83836717690616
20
-6
30
0
41
1
10
-8.01331528528418
20
-5.99258105417693
30
0
41
1
10
-8.23136401296491
20
-6.02398926806963
30
0
41
1
10
-8.50268143974258
20
-6.12489631953046
30
0
41
1
10
-8.62893847716366
20
-6.20613531503568
30
0
41
1
10
-8.69947646212533
20
-6.3066495507236
30
0
41
1
10
-8.71644162241377
20
-6.36265986983248
30
0
41
1
10
-8.71777896612733
20
-6.3941545744595
30
0
41
1
10
-8.71779788708134
20
-6.4
30
0
0
SPLINE
5
175
100
AcDbEntity
8
1
62
256
6
ByLayer
370
18
48
1
60
0
100
AcDbSpline
70
4
71
1
72
4
73
2
40
0
40
0
40
1
40
1
41
1
10
-6.47090137540591
20
-0.343278579257489
30
0
41
1
10
-5.49680304813625
20
0.325000000000001
30
0
0
SPLINE
5
176
100
AcDbEntity
8
1
62
256
6
ByLayer
370
18
48
1
60
0
100
AcDbSpline
70
4
71
3
72
15
73
11
40
0
40
0
40
0
40
0
40
0.31011527059761
40
0.610221677739292
40
0.710051383188418
40
0.767792600649594
40
0.812758571087616
40
0.857627274258515
40
0.91278995561483
40
1
40
1
40
1
40
1
41
1
10
-6.26037776387808
20
-0.445258147376142
30
0
41
1
10
-6.29797844797247
20
-0.446530077755681
30
0
41
1
10
-6.36836090431281
20
-0.443038668418438
30
0
41
1
10
-6.44985384578738
20
-0.433642082004464
30
0
41
1
10
-6.49215036517103
20
-0.414580036472101
30
0
41
1
10
-6.50460791124358
20
-0.401382802075477
30
0
41
1
10
-6.50757779351813
20
-0.38913866273184
30
0
41
1
10
-6.50399385808109
20
-0.376065865796579
30
0
41
1
10
-6.49197586781443
20
-0.359994334627627
30
0
41
1
10
-6.47991639136432
20
-0.349313195931175
30
0
41
1
10
-6.4709013754068
20
-0.343278579257735
30
0
0
SPLINE
5
177
100
AcDbEntity
8
1
62
256
6
ByLayer
370
18
48
1
60
0
100
AcDbSpline
70
4
71
1
72
4
73
2
40
0
40
0
40
1
40
1
41
1
10
5.49680304814575
20
0.325000000000001
30
0
41
1
10
6.47090137540592
20
-0.343278579257489
30
0
0
SPLINE
5
178
100
AcDbEntity
8
1
62
256
6
ByLayer
370
18
48
1
60
0
100
AcDbSpline
70
4
71
3
72
15
73
11
40
0
40
0
40
0
40
0
40
0.140134304691455
40
0.280406395587152
40
0.495284103400427
40
0.710182265870366
40
0.8141465867339
40
0.920795113769254
40
0.964549515214462
40
1
40
1
40
1
40
1
41
1
10
6.99745543480036
20
-8.06276904861572
30
0
41
1
10
7.11112959802142
20
-8.05566964048053
30
0
41
1
10
7.3425153064342
20
-8.05648342507357
30
0
41
1
10
7.76775505269556
20
-8.117160795075
30
0
41
1
10
8.26963965974533
20
-8.24644364239885
30
0
41
1
10
8.73881972964905
20
-8.43015560413204
30
0
41
1
10
9.09982349466368
20
-8.61730898378249
30
0
41
1
10
9.30308555735293
20
-8.75674993742611
30
0
41
1
10
9.4229308136827
20
-8.89405780080879
30
0
41
1
10
9.4524466526984
20
-8.96455799322772
30
0
41
1
10
9.46241674710028
20
-8.9982256114865
30
0
0
SPLINE
5
179
100
AcDbEntity
8
1
62
256
6
ByLayer
370
18
48
1
60
0
100
AcDbSpline
70
4
71
1
72
4
73
2
40
0
40
0
40
1
40
1
41
1
10
9.08445616148815
20
0.325000000000001
30
0
41
1
10
9.76435133857411
20
-0.343278579257489
30
0
0
SPLINE
5
17A
100
AcDbEntity
8
1
62
256
6
ByLayer
370
18
48
1
60
0
100
AcDbSpline
70
4
71
1
72
4
73
2
40
0
40
0
40
1
40
1
41
1
10
11.416647658135
20
0.325000000000001
30
0
41
1
10
12.0130158376653
20
-0.343278579257489
30
0
0
SPLINE
5
17B
100
AcDbEntity
8
1
62
256
6
ByLayer
370
18
48
1
60
0
100
AcDbSpline
70
4
71
1
72
4
73
2
40
0
40
0
40
1
40
1
41
1
10
13.177721493111
20
0.325000000000001
30
0
41
1
10
13.7398159364994
20
-0.343278579257489
30
0
0
SPLINE
5
17C
100
AcDbEntity
8
1
62
256
6
ByLayer
370
18
48
1
60
0
100
AcDbSpline
70
4
71
1
72
4
73
2
40
0
40
0
40
1
40
1
41
1
10
14.576173837808
20
0.325000000000001
30
0
41
1
10
15.1245672474212
20
-0.343278579257489
30
0
0
SPLINE
5
17D
100
AcDbEntity
8
1
62
256
6
ByLayer
370
18
48
1
60
0
100
AcDbSpline
70
4
71
1
72
4
73
2
40
0
40
0
40
1
40
1
41
1
10
15.709148409446
20
0.325000000000001
30
0
41
1
10
16.2549231580666
20
-0.343278579257489
30
0
0
SPLINE
5
17E
100
AcDbEntity
8
1
62
256
6
ByLayer
370
18
48
1
60
0
100
AcDbSpline
70
4
71
1
72
4
73
2
40
0
40
0
40
1
40
1
41
1
10
16.6309904620861
20
0.325000000000001
30
0
41
1
10
17.1811675775406
20
-0.343278579257489
30
0
0
SPLINE
5
17F
100
AcDbEntity
8
1
62
256
6
ByLayer
370
18
48
1
60
0
100
AcDbSpline
70
4
71
1
72
4
73
2
40
0
40
0
40
1
40
1
41
1
10
17.3753372269432
20
0.325000000000001
30
0
41
1
10
17.93495223803
20
-0.343278579257489
30
0
0
SPLINE
5
180
100
AcDbEntity
8
1
62
256
6
ByLayer
370
18
48
1
60
0
100
AcDbSpline
70
4
71
1
72
4
73
2
40
0
40
0
40
1
40
1
41
1
10
17.9642657448057
20
0.325000000000001
30
0
41
1
10
18.5373273217393
20
-0.343278579257489
30
0
0
SPLINE
5
181
100
AcDbEntity
8
1
62
256
6
ByLayer
370
18
48
1
60
0
100
AcDbSpline
70
4
71
1
72
4
73
2
40
0
40
0
40
1
40
1
41
1
10
18.4126951788705
20
0.325000000000001
30
0
41
1
10
19.0026970897866
20
-0.343278579257489
30
0
0
SPLINE
5
182
100
AcDbEntity
8
1
62
256
6
ByLayer
370
18
48
1
60
0
100
AcDbSpline
70
4
71
1
72
4
73
2
40
0
40
0
40
1
40
1
41
1
10
18.7307192534083
20
0.325000000000001
30
0
41
1
10
19.340953677083
20
-0.343278579257489
30
0
0
SPLINE
5
183
100
AcDbEntity
8
1
62
256
6
ByLayer
370
18
48
1
60
0
100
AcDbSpline
70
4
71
1
72
4
73
2
40
0
40
0
40
1
40
1
41
1
10
18.9249133089164
20
0.325000000000001
30
0
41
1
10
19.5586932485776
20
-0.343278579257489
30
0
0
SPLINE
5
184
100
AcDbEntity
8
1
62
256
6
ByLayer
370
18
48
1
60
0
100
AcDbSpline
70
4
71
1
72
4
73
2
40
0
40
0
40
1
40
1
41
1
10
18.9990748130008
20
0.325000000000001
30
0
41
1
10
19.6599204994536
20
-0.343278579257489
30
0
0
SPLINE
5
185
100
AcDbEntity
8
1
62
256
6
ByLayer
370
18
48
1
60
0
100
AcDbSpline
70
4
71
1
72
4
73
2
40
0
40
0
40
1
40
1
41
1
10
18.408216543415
20
-0.34327857925749
30
0
41
1
10
17.536457559895
20
0.325000000000001
30
0
0
SPLINE
5
186
100
AcDbEntity
8
1
62
256
6
ByLayer
370
18
48
1
60
0
100
AcDbSpline
70
4
71
3
72
11
73
7
40
0
40
0
40
0
40
0
40
0.181024173720449
40
0.479311993593017
40
0.920117292357535
40
1
40
1
40
1
40
1
41
1
10
18.5822039742274
20
-0.445278449568786
30
0
41
1
10
18.5759807093297
20
-0.444867724348169
30
0
41
1
10
18.5570632822934
20
-0.440658780706675
30
0
41
1
10
18.50416897711
20
-0.412919556463235
30
0
41
1
10
18.4492867238291
20
-0.374820664990342
30
0
41
1
10
18.413719487323
20
-0.347563754346214
30
0
41
1
10
18.408216543415
20
-0.343278579257491
30
0
0
SPLINE
5
187
100
AcDbEntity
8
1
62
256
6
ByLayer
370
18
48
1
60
0
100
AcDbSpline
70
4
71
3
72
11
73
7
40
0
40
0
40
0
40
0
40
0.290765544590103
40
0.523685084644051
40
0.758079576935399
40
1
40
1
40
1
40
1
41
1
10
18.5373273217393
20
-0.343278579257516
30
0
41
1
10
18.5512817343647
20
-0.359343431903506
30
0
41
1
10
18.5718589878302
20
-0.385681414111162
30
0
41
1
10
18.5924392092314
20
-0.419638401458347
30
0
41
1
10
18.5965303289394
20
-0.439720660842259
30
0
41
1
10
18.5891509262954
20
-0.444944156933012
30
0
41
1
10
18.5832182180264
20
-0.445285693903682
30
0
0
SPLINE
5
188
100
AcDbEntity
8
1
62
256
6
ByLayer
370
18
48
1
60
0
100
AcDbSpline
70
4
71
3
72
10
73
6
40
0
40
0
40
0
40
0
40
0.580284568404661
40
0.838666441712379
40
1
40
1
40
1
40
1
41
1
10
-14.8237109429722
20
-0.343278579257488
30
0
41
1
10
-14.884008359038
20
-0.377090302260523
30
0
41
1
10
-14.9662710725392
20
-0.413659739154465
30
0
41
1
10
-15.0607808447926
20
-0.441180671861755
30
0
41
1
10
-15.0953823881381
20
-0.444797017676921
30
0
41
1
10
-15.1081772198388
20
-0.445271247476534
30
0
0
SPLINE
5
189
100
AcDbEntity
8
1
62
256
6
ByLayer
370
18
48
1
60
0
100
AcDbSpline
70
4
71
1
72
4
73
2
40
0
40
0
40
1
40
1
41
1
10
-13.5564502636199
20
0.325
30
0
41
1
10
-14.8237109429722
20
-0.34327857925749
30
0
0
SPLINE
5
18A
100
AcDbEntity
8
1
62
256
6
ByLayer
370
18
48
1
60
0
100
AcDbSpline
70
4
71
1
72
4
73
2
40
0
40
0
40
1
40
1
41
1
10
-19.5180034570805
20
-0.34327857925749
30
0
41
1
10
-18.7906850260974
20
0.325
30
0
0
SPLINE
5
18B
100
AcDbEntity
8
1
62
256
6
ByLayer
370
18
48
1
60
0
100
AcDbSpline
70
4
71
3
72
11
73
7
40
0
40
0
40
0
40
0
40
0.0893532849154146
40
0.312536811546259
40
0.588029227875297
40
1
40
1
40
1
40
1
41
1
10
-19.643638268025
20
-0.445379802544891
30
0
41
1
10
-19.6391760526662
20
-0.444748925331597
30
0
41
1
10
-19.6350250534546
20
-0.442980447655277
30
0
41
1
10
-19.6196046838483
20
-0.432326848076072
30
0
41
1
10
-19.5790061678723
20
-0.39876728036635
30
0
41
1
10
-19.5427218373032
20
-0.36626800284757
30
0
41
1
10
-19.5180034570805
20
-0.343278579257499
30
0
0
SPLINE
5
18C
100
AcDbEntity
8
1
62
256
6
ByLayer
370
18
48
1
60
0
100
AcDbSpline
70
4
71
1
72
4
73
2
40
0
40
0
40
1
40
1
41
1
10
-19.2723234562802
20
-0.34327857925749
30
0
41
1
10
-18.5041169405622
20
0.325
30
0
0
SPLINE
5
18D
100
AcDbEntity
8
1
62
256
6
ByLayer
370
18
48
1
60
0
100
AcDbSpline
70
4
71
3
72
11
73
7
40
0
40
0
40
0
40
0
40
0.0818679769310894
40
0.310027015829217
40
0.600633153042297
40
1
40
1
40
1
40
1
41
1
10
-19.4119329814777
20
-0.445301698703732
30
0
41
1
10
-19.4074667496257
20
-0.444746495681001
30
0
41
1
10
-19.4030422106519
20
-0.443850261945688
30
0
41
1
10
-19.3825135481715
20
-0.432216406879365
30
0
41
1
10
-19.3366531978227
20
-0.398232877365644
30
0
41
1
10
-19.2974655686201
20
-0.365506942621374
30
0
41
1
10
-19.2723234562802
20
-0.343278579257498
30
0
0
SPLINE
5
18E
100
AcDbEntity
8
1
62
256
6
ByLayer
370
18
48
1
60
0
100
AcDbSpline
70
4
71
1
72
4
73
2
40
0
40
0
40
1
40
1
41
1
10
9.46241674710028
20
-8.9982256114865
30
0
41
1
10
9.33891637372676
20
-9.08169167285726
30
0
0
SPLINE
5
18F
100
AcDbEntity
8
1
62
256
6
ByLayer
370
18
48
1
60
0
100
AcDbSpline
70
4
71
3
72
14
73
10
40
0
40
0
40
0
40
0
40
0.128068076589166
40
0.280593652006279
40
0.43309268805536
40
0.578405551850722
40
0.72376664772946
40
0.861845329325258
40
1
40
1
40
1
40
1
41
1
10
14.1284425725234
20
-7.36305301908255
30
0
41
1
10
13.9838092119953
20
-7.37436046020913
30
0
41
1
10
13.6429391726403
20
-7.41292803702822
30
0
41
1
10
13.0253802884589
20
-7.51378809345699
30
0
41
1
10
12.3130354519973
20
-7.68243955998847
30
0
41
1
10
11.5684481797963
20
-7.92192028576309
30
0
41
1
10
10.835733706357
20
-8.22134653118778
30
0
41
1
10
10.1255658428804
20
-8.58220663646564
30
0
41
1
10
9.68085136786749
20
-8.85331555341954
30
0
41
1
10
9.46241674710028
20
-8.9982256114865
30
0
0
SPLINE
5
190
100
AcDbEntity
8
1
62
256
6
ByLayer
370
18
48
1
60
0
100
AcDbSpline
70
4
71
3
72
10
73
6
40
0
40
0
40
0
40
0
40
0.568025568657174
40
0.835557018455672
40
1
40
1
40
1
40
1
41
1
10
-16.9794705811172
20
-0.343278579257493
30
0
41
1
10
-17.027899449872
20
-0.376394461537536
30
0
41
1
10
-17.0927886150655
20
-0.413055431958306
30
0
41
1
10
-17.1651104474448
20
-0.44133373311996
30
0
41
1
10
-17.189782555176
20
-0.444891231229692
30
0
41
1
10
-17.1985207267192
20
-0.445277610226231
30
0
0
SPLINE
5
191
100
AcDbEntity
8
1
62
256
6
ByLayer
370
18
48
1
60
0
100
AcDbSpline
70
4
71
1
72
4
73
2
40
0
40
0
40
1
40
1
41
1
10
-15.9578301704837
20
0.325
30
0
41
1
10
-16.9794705811172
20
-0.34327857925749
30
0
0
SPLINE
5
192
100
AcDbEntity
8
1
62
256
6
ByLayer
370
18
48
1
60
0
100
AcDbSpline
70
4
71
3
72
11
73
7
40
0
40
0
40
0
40
0
40
0.282400928180172
40
0.566618863982857
40
0.824053620759876
40
1
40
1
40
1
40
1
41
1
10
-18.4292310539044
20
-23.6981447960024
30
0
41
1
10
-18.4401210216391
20
-23.6638860717457
30
0
41
1
10
-18.4723179845637
20
-23.6018368824495
30
0
41
1
10
-18.5516278868661
20
-23.5247118938622
30
0
41
1
10
-18.6420222583517
20
-23.4844230300949
30
0
41
1
10
-18.6990984488326
20
-23.4772733706552
30
0
41
1
10
-18.7231604813818
20
-23.4769449557639
30
0
0
SPLINE
5
193
100
AcDbEntity
8
1
62
256
6
ByLayer
370
18
48
1
60
0
100
AcDbSpline
70
4
71
3
72
10
73
6
40
0
40
0
40
0
40
0
40
0.101033707801239
40
0.505151134124469
40
1
40
1
40
1
40
1
41
1
10
-18.1616585492308
20
-24.0757890129919
30
0
41
1
10
-18.1747872112299
20
-24.065773027292
30
0
41
1
10
-18.238389069674
20
-24.0142210133436
30
0
41
1
10
-18.3465680995568
20
-23.891020950593
30
0
41
1
10
-18.4066174071739
20
-23.7700501127854
30
0
41
1
10
-18.4292310539044
20
-23.6981447960024
30
0
0
SPLINE
5
194
100
AcDbEntity
8
1
62
256
6
ByLayer
370
18
48
1
60
0
100
AcDbSpline
70
4
71
2
72
6
73
3
40
0
40
0
40
0
40
1
40
1
40
1
41
1
10
-17.7921859794233
20
-24.2157496071365
30
0
41
1
10
-17.9034714209461
20
-24.2102838459
30
0
41
1
10
-18.0196808249517
20
-24.1601902647946
30
0
0
SPLINE
5
195
100
AcDbEntity
8
1
62
256
6
ByLayer
370
18
48
1
60
0
100
AcDbSpline
70
4
71
3
72
15
73
11
40
0
40
0
40
0
40
0
40
0.31011527059762
40
0.610221677739302
40
0.710051383188428
40
0.767792600649604
40
0.812758571087626
40
0.857627274258525
40
0.91278995561484
40
1
40
1
40
1
40
1
41
1
10
6.26037776387807
20
-0.445258147376142
30
0
41
1
10
6.29797844797246
20
-0.446530077755681
30
0
41
1
10
6.36836090431281
20
-0.443038668418438
30
0
41
1
10
6.44985384578737
20
-0.433642082004464
30
0
41
1
10
6.49215036517103
20
-0.414580036472101
30
0
41
1
10
6.50460791124358
20
-0.401382802075477
30
0
41
1
10
6.50757779351813
20
-0.38913866273184
30
0
41
1
10
6.50399385808109
20
-0.376065865796579
30
0
41
1
10
6.49197586781444
20
-0.359994334627628
30
0
41
1
10
6.47991639136431
20
-0.349313195931177
30
0
41
1
10
6.4709013754068
20
-0.343278579257739
30
0
0
SPLINE
5
196
100
AcDbEntity
8
1
62
256
6
ByLayer
370
18
48
1
60
0
100
AcDbSpline
70
4
71
3
72
10
73
6
40
0
40
0
40
0
40
0
40
0.644090700284633
40
0.884725118926883
40
1
40
1
40
1
40
1
41
1
10
5.34998840487793
20
-0.343278579257491
30
0
41
1
10
5.54780485202435
20
-0.379560963882626
30
0
41
1
10
5.81697662953769
20
-0.415241370729049
30
0
41
1
10
6.12052139920057
20
-0.443649719905638
30
0
41
1
10
6.22627311448512
20
-0.44531831185817
30
0
41
1
10
6.26037776387808
20
-0.445258147376142
30
0
0
SPLINE
5
197
100
AcDbEntity
8
1
62
256
6
ByLayer
370
18
48
1
60
0
100
AcDbSpline
70
4
71
3
72
13
73
9
40
0
40
0
40
0
40
0
40
0.207438039460519
40
0.416274474974626
40
0.629718048959345
40
0.737283553742757
40
0.844850323786196
40
1
40
1
40
1
40
1
41
1
10
-5.34998840487793
20
-0.34327857925749
30
0
41
1
10
-4.61831987097275
20
-0.214505649867319
30
0
41
1
10
-3.14355578497432
20
-0.0093632726892045
30
0
41
1
10
-0.886004580706263
20
0.142590593077835
30
0
41
1
10
1.01860707860908
20
0.126728631207391
30
0
41
1
10
2.55327635307179
20
0.0266272122474297
30
0
41
1
10
3.87392140567374
20
-0.109554434618212
30
0
41
1
10
4.80340082885366
20
-0.247350709853288
30
0
41
1
10
5.34998840487793
20
-0.343278579257494
30
0
0
SPLINE
5
198
100
AcDbEntity
8
1
62
256
6
ByLayer
370
18
48
1
60
0
100
AcDbSpline
70
4
71
3
72
10
73
6
40
0
40
0
40
0
40
0
40
0.115274881073119
40
0.35590929971537
40
1
40
1
40
1
40
1
41
1
10
-6.26037776387808
20
-0.445258147376142
30
0
41
1
10
-6.22627311448512
20
-0.44531831185817
30
0
41
1
10
-6.12052139920057
20
-0.443649719905638
30
0
41
1
10
-5.8169766295377
20
-0.415241370729049
30
0
41
1
10
-5.54780485202436
20
-0.379560963882626
30
0
41
1
10
-5.34998840487793
20
-0.343278579257491
30
0
0
SPLINE
5
199
100
AcDbEntity
8
1
62
256
6
ByLayer
370
18
48
1
60
0
100
AcDbSpline
70
4
71
3
72
9
73
5
40
0
40
0
40
0
40
0
40
0.566706596635994
40
1
40
1
40
1
40
1
41
1
10
19.7560480647569
20
-0.445278578826644
30
0
41
1
10
19.7475051765651
20
-0.43401173673808
30
0
41
1
10
19.715289739629
20
-0.399876657014696
30
0
41
1
10
19.6839911778003
20
-0.367688841006116
30
0
41
1
10
19.6599204994536
20
-0.343278579257502
30
0
0
SPLINE
5
19A
100
AcDbEntity
8
1
62
256
6
ByLayer
370
18
48
1
60
0
100
AcDbSpline
70
4
71
3
72
11
73
7
40
0
40
0
40
0
40
0
40
0.36478039493624
40
0.653644702385625
40
0.854033116366959
40
1
40
1
40
1
40
1
41
1
10
19.6464364834369
20
-0.343278579257492
30
0
41
1
10
19.667162165224
20
-0.363451325624316
30
0
41
1
10
19.6998578095013
20
-0.394897040453731
30
0
41
1
10
19.7355756042465
20
-0.428323983480815
30
0
41
1
10
19.7504243933846
20
-0.441416352287147
30
0
41
1
10
19.7538275277597
20
-0.444419476871508
30
0
41
1
10
19.7581489341464
20
-0.445719310952037
30
0
0
SPLINE
5
19B
100
AcDbEntity
8
1
62
256
6
ByLayer
370
18
48
1
60
0
100
AcDbSpline
70
4
71
1
72
4
73
2
40
0
40
0
40
1
40
1
41
1
10
18.9546127301509
20
0.325000000000001
30
0
41
1
10
19.6464364834369
20
-0.343278579257491
30
0
0
SPLINE
5
19C
100
AcDbEntity
8
1
62
256
6
ByLayer
370
18
48
1
60
0
100
AcDbSpline
70
4
71
2
72
6
73
3
40
0
40
0
40
0
40
1
40
1
40
1
41
1
10
-13.3683356695468
20
-0.343278579257488
30
0
41
1
10
-13.551409608069
20
-0.43571631744088
30
0
41
1
10
-13.7031910539864
20
-0.445276855443502
30
0
0
SPLINE
5
19D
100
AcDbEntity
8
1
62
256
6
ByLayer
370
18
48
1
60
0
100
AcDbSpline
70
4
71
1
72
4
73
2
40
0
40
0
40
1
40
1
41
1
10
-11.8991530686011
20
0.325000000000001
30
0
41
1
10
-13.3683356695468
20
-0.34327857925749
30
0
0
SPLINE
5
19E
100
AcDbEntity
8
1
62
256
6
ByLayer
370
18
48
1
60
0
100
AcDbSpline
70
4
71
1
72
4
73
2
40
0
40
0
40
1
40
1
41
1
10
-17.7716749003053
20
-0.34327857925749
30
0
41
1
10
-16.8327016176845
20
0.325
30
0
0
SPLINE
5
19F
100
AcDbEntity
8
1
62
256
6
ByLayer
370
18
48
1
60
0
100
AcDbSpline
70
4
71
3
72
10
73
6
40
0
40
0
40
0
40
0
40
0.19285510146424
40
0.468535766349845
40
1
40
1
40
1
40
1
41
1
10
-17.9665597439123
20
-0.445278424962078
30
0
41
1
10
-17.9581672895366
20
-0.44478778320157
30
0
41
1
10
-17.9355091691614
20
-0.440438905835429
30
0
41
1
10
-17.8703663660249
20
-0.410021226714186
30
0
41
1
10
-17.813287955515
20
-0.373973465716144
30
0
41
1
10
-17.7716749003053
20
-0.343278579257493
30
0
0
SPLINE
5
1A0
100
AcDbEntity
8
1
62
256
6
ByLayer
370
18
48
1
60
0
100
AcDbSpline
70
4
71
3
72
13
73
9
40
0
40
0
40
0
40
0
40
0.267868941076472
40
0.466539172751508
40
0.583325179656729
40
0.715553862160663
40
0.858941328401847
40
1
40
1
40
1
40
1
41
1
10
11.9478941621985
20
-0.445272647621934
30
0
41
1
10
11.9672404567428
20
-0.446113621374669
30
0
41
1
10
11.9966050620044
20
-0.443027740381849
30
0
41
1
10
12.027901261412
20
-0.431483890535661
30
0
41
1
10
12.0421392326278
20
-0.414771598735632
30
0
41
1
10
12.0445651561464
20
-0.394325580498088
30
0
41
1
10
12.0334741648147
20
-0.368697627890028
30
0
41
1
10
12.0208777205064
20
-0.351792765470528
30
0
41
1
10
12.0130158376655
20
-0.343278579257617
30
0
0
SPLINE
5
1A1
100
AcDbEntity
8
1
62
256
6
ByLayer
370
18
48
1
60
0
100
AcDbSpline
70
4
71
3
72
10
73
6
40
0
40
0
40
0
40
0
40
0.499506426364316
40
0.944931213001634
40
1
40
1
40
1
40
1
41
1
10
11.54046753934
20
-0.34327857925749
30
0
41
1
10
11.611227076177
20
-0.372440600569549
30
0
41
1
10
11.7410587274259
20
-0.414620981690954
30
0
41
1
10
11.8790493140595
20
-0.443365595487265
30
0
41
1
10
11.9411096869194
20
-0.445177815964118
30
0
41
1
10
11.9478941621985
20
-0.445272647621934
30
0
0
SPLINE
5
1A2
100
AcDbEntity
8
1
62
256
6
ByLayer
370
18
48
1
60
0
100
AcDbSpline
70
4
71
1
72
4
73
2
40
0
40
0
40
1
40
1
41
1
10
9.74178339679136
20
0.325000000000001
30
0
41
1
10
11.54046753934
20
-0.343278579257493
30
0
0
SPLINE
5
1A3
100
AcDbEntity
8
1
62
256
6
ByLayer
370
18
48
1
60
0
100
AcDbSpline
70
4
71
3
72
13
73
9
40
0
40
0
40
0
40
0
40
0.0825492608582666
40
0.285183838663634
40
0.438479595656672
40
0.613612434990087
40
0.787724436443206
40
1
40
1
40
1
40
1
41
1
10
-20.1066365164664
20
-24.6562896897687
30
0
41
1
10
-20.0853241862242
20
-24.6761683416871
30
0
41
1
10
-20.0167857869933
20
-24.7490544326926
30
0
41
1
10
-19.9327657957745
20
-24.8859440939778
30
0
41
1
10
-19.88394158943
20
-25.0803230234822
30
0
41
1
10
-19.8952103742302
20
-25.2741918482192
30
0
41
1
10
-19.9739052433623
20
-25.4688544251637
30
0
41
1
10
-20.0589620999712
20
-25.5744542383078
30
0
41
1
10
-20.1168398650169
20
-25.6250032645696
30
0
0
SPLINE
5
1A4
100
AcDbEntity
8
1
62
256
6
ByLayer
370
18
48
1
60
0
100
AcDbSpline
70
4
71
3
72
11
73
7
40
0
40
0
40
0
40
0
40
0.170904180728468
40
0.38726718559858
40
0.644531291046006
40
1
40
1
40
1
40
1
41
1
10
19.6395107572592
20
-0.445384525196796
30
0
41
1
10
19.6448284332411
20
-0.446307661563934
30
0
41
1
10
19.6433666982969
20
-0.440587386493559
30
0
41
1
10
19.6330343945095
20
-0.426310156823503
30
0
41
1
10
19.6046280164231
20
-0.392723374427414
30
0
41
1
10
19.5773714244807
20
-0.362954091454938
30
0
41
1
10
19.5586932485776
20
-0.343278579257504
30
0
0
SPLINE
5
1A5
100
AcDbEntity
8
1
62
256
6
ByLayer
370
18
48
1
60
0
100
AcDbSpline
70
4
71
3
72
11
73
7
40
0
40
0
40
0
40
0
40
0.122271356582091
40
0.494737822682219
40
0.763062609364787
40
1
40
1
40
1
40
1
41
1
10
19.5180034570802
20
-0.343278579257342
30
0
41
1
10
19.5250146659593
20
-0.349779082349362
30
0
41
1
10
19.5526651402778
20
-0.375167016941426
30
0
41
1
10
19.5930694322719
20
-0.410865346764998
30
0
41
1
10
19.6266640075729
20
-0.437570660098176
30
0
41
1
10
19.6379662543434
20
-0.444717081837913
30
0
41
1
10
19.6424463867563
20
-0.445384465760509
30
0
0
SPLINE
5
1A6
100
AcDbEntity
8
1
62
256
6
ByLayer
370
18
48
1
60
0
100
AcDbSpline
70
4
71
1
72
4
73
2
40
0
40
0
40
1
40
1
41
1
10
18.7906850260974
20
0.325000000000001
30
0
41
1
10
19.5180034570805
20
-0.343278579257489
30
0
0
SPLINE
5
1A7
100
AcDbEntity
8
1
62
256
6
ByLayer
370
18
48
1
60
0
100
AcDbSpline
70
4
71
1
72
4
73
2
40
0
40
0
40
1
40
1
41
1
10
16.9794705811172
20
-0.34327857925749
30
0
41
1
10
15.9578301704837
20
0.325000000000001
30
0
0
SPLINE
5
1A8
100
AcDbEntity
8
1
62
256
6
ByLayer
370
18
48
1
60
0
100
AcDbSpline
70
4
71
3
72
11
73
7
40
0
40
0
40
0
40
0
40
0.0822848866376942
40
0.373494860945842
40
0.834964888510729
40
1
40
1
40
1
40
1
41
1
10
17.1985059617918
20
-0.445279751538916
30
0
41
1
10
17.1940072332319
20
-0.445162337797465
30
0
41
1
10
17.1738897308959
20
-0.443457663809864
30
0
41
1
10
17.1160615913482
20
-0.424022535927704
30
0
41
1
10
17.0431620131851
20
-0.384500073989134
30
0
41
1
10
16.9928897833176
20
-0.352279331621753
30
0
41
1
10
16.9794705811172
20
-0.343278579257525
30
0
0
SPLINE
5
1A9
100
AcDbEntity
8
1
62
256
6
ByLayer
370
18
48
1
60
0
100
AcDbSpline
70
4
71
3
72
12
73
8
40
0
40
0
40
0
40
0
40
0.244779800333914
40
0.453497524176793
40
0.663345002408949
40
0.849372719721781
40
1
40
1
40
1
40
1
41
1
10
17.1811675775407
20
-0.34327857925753
30
0
41
1
10
17.1926663294972
20
-0.356965916918557
30
0
41
1
10
17.2097795686244
20
-0.380601599408349
30
0
41
1
10
17.2257698660344
20
-0.412711255836416
30
0
41
1
10
17.2265627857405
20
-0.434019983862976
30
0
41
1
10
17.2153129530243
20
-0.443727074202701
30
0
41
1
10
17.2042930790608
20
-0.445425492208068
30
0
41
1
10
17.1983885503146
20
-0.445276765686925
30
0
0
SPLINE
5
1AA
100
AcDbEntity
8
1
62
256
6
ByLayer
370
18
48
1
60
0
100
AcDbSpline
70
4
71
3
72
10
73
6
40
0
40
0
40
0
40
0
40
0.711984173220715
40
0.95340907373709
40
1
40
1
40
1
40
1
41
1
10
-9.11879287402913
20
-0.343278579257491
30
0
41
1
10
-9.2506026171077
20
-0.386271508809642
30
0
41
1
10
-9.42187471846173
20
-0.424541293588028
30
0
41
1
10
-9.59855317809598
20
-0.444158287705441
30
0
41
1
10
-9.64729286440649
20
-0.445186470532632
30
0
41
1
10
-9.65514361465894
20
-0.445265694039052
30
0
0
SPLINE
5
1AB
100
AcDbEntity
8
1
62
256
6
ByLayer
370
18
48
1
60
0
100
AcDbSpline
70
4
71
2
72
6
73
3
40
0
40
0
40
0
40
1
40
1
40
1
41
1
10
-6.61172018086064
20
0.325000000000001
30
0
41
1
10
-7.88173052791113
20
0.0372097028531946
30
0
41
1
10
-9.11879287402913
20
-0.34327857925749
30
0
0
SPLINE
5
1AC
100
AcDbEntity
8
1
62
256
6
ByLayer
370
18
48
1
60
0
100
AcDbSpline
70
4
71
3
72
13
73
9
40
0
40
0
40
0
40
0
40
0.269284327026875
40
0.537823721484313
40
0.760554143984595
40
0.872941493575135
40
0.943174324210448
40
1
40
1
40
1
40
1
41
1
10
7.83836717690616
20
-6
30
0
41
1
10
7.93164011992938
20
-5.99833393878528
30
0
41
1
10
8.11502484266072
20
-6.01105047251048
30
0
41
1
10
8.36971959477676
20
-6.06710431598983
30
0
41
1
10
8.56075310013786
20
-6.15496461500184
30
0
41
1
10
8.66685305263447
20
-6.25310391942657
30
0
41
1
10
8.70999991347303
20
-6.33146397197819
30
0
41
1
10
8.71714473485522
20
-6.37800818796202
30
0
41
1
10
8.71779788708136
20
-6.4
30
0
0
SPLINE
5
1AD
100
AcDbEntity
8
1
62
256
6
ByLayer
370
18
48
1
60
0
100
AcDbSpline
70
4
71
3
72
13
73
9
40
0
40
0
40
0
40
0
40
0.129029768058373
40
0.361982818425175
40
0.502856900543865
40
0.659520901801213
40
0.831045863732353
40
1
40
1
40
1
40
1
41
1
10
13.7024163152615
20
-0.44527247993629
30
0
41
1
10
13.7101529863137
20
-0.44544532805759
30
0
41
1
10
13.730370490845
20
-0.444325624175567
30
0
41
1
10
13.7550923272346
20
-0.437888042990469
30
0
41
1
10
13.7707416975138
20
-0.421961934475897
30
0
41
1
10
13.773709358311
20
-0.400701213888404
30
0
41
1
10
13.7620998397517
20
-0.372478775083741
30
0
41
1
10
13.748412227179
20
-0.353182194222444
30
0
41
1
10
13.7398159364995
20
-0.343278579257581
30
0
0
SPLINE
5
1AE
100
AcDbEntity
8
1
62
256
6
ByLayer
370
18
48
1
60
0
100
AcDbSpline
70
4
71
3
72
10
73
6
40
0
40
0
40
0
40
0
40
0.341232837326061
40
0.828679534232929
40
1
40
1
40
1
40
1
41
1
10
13.3683356695468
20
-0.343278579257491
30
0
41
1
10
13.4082636506738
20
-0.362577520261411
30
0
41
1
10
13.5031347444044
20
-0.402532531626229
30
0
41
1
10
13.6191190534705
20
-0.438706059453576
30
0
41
1
10
13.6855155928781
20
-0.444614048458169
30
0
41
1
10
13.7024163152615
20
-0.44527247993629
30
0
0
SPLINE
5
1AF
100
AcDbEntity
8
1
62
256
6
ByLayer
370
18
48
1
60
0
100
AcDbSpline
70
4
71
1
72
4
73
2
40
0
40
0
40
1
40
1
41
1
10
11.8991530686011
20
0.325000000000001
30
0
41
1
10
13.3683356695468
20
-0.34327857925749
30
0
0
SPLINE
5
1B0
100
AcDbEntity
8
1
62
256
6
ByLayer
370
18
48
1
60
0
100
AcDbSpline
70
4
71
1
72
4
73
2
40
0
40
0
40
1
40
1
41
1
10
19.2723234562802
20
-0.343278579257491
30
0
41
1
10
18.5041169405622
20
0.325000000000001
30
0
0
SPLINE
5
1B1
100
AcDbEntity
8
1
62
256
6
ByLayer
370
18
48
1
60
0
100
AcDbSpline
70
4
71
3
72
10
73
6
40
0
40
0
40
0
40
0
40
0.466602141129788
40
0.846744914282844
40
1
40
1
40
1
40
1
41
1
10
19.4113552248758
20
-0.4452785577493
30
0
41
1
10
19.3951646174866
20
-0.440028138996717
30
0
41
1
10
19.3584484081592
20
-0.415265967954135
30
0
41
1
10
19.3131815910777
20
-0.378705087398385
30
0
41
1
10
19.2816433297453
20
-0.351481485306911
30
0
41
1
10
19.2723234562796
20
-0.34327857925738
30
0
0
SPLINE
5
1B2
100
AcDbEntity
8
1
62
256
6
ByLayer
370
18
48
1
60
0
100
AcDbSpline
70
4
71
3
72
11
73
7
40
0
40
0
40
0
40
0
40
0.334203165014145
40
0.584693294016828
40
0.797901593721801
40
1
40
1
40
1
40
1
41
1
10
19.340953677083
20
-0.343278579257507
30
0
41
1
10
19.357886224579
20
-0.361727935515885
30
0
41
1
10
19.3826807297043
20
-0.390417253390709
30
0
41
1
10
19.4078808585394
20
-0.423809182723096
30
0
41
1
10
19.4176972608764
20
-0.441188913817456
30
0
41
1
10
19.4150307487173
20
-0.445469142418878
30
0
41
1
10
19.410506281985
20
-0.445294195688747
30
0
0
SPLINE
5
1B3
100
AcDbEntity
8
1
62
256
6
ByLayer
370
18
48
1
60
0
100
AcDbSpline
70
4
71
3
72
11
73
7
40
0
40
0
40
0
40
0
40
0.472554338454981
40
0.751071005135413
40
0.972275030172286
40
1
40
1
40
1
40
1
41
1
10
-18.9048259409171
20
-0.343278579257494
30
0
41
1
10
-18.9368156971248
20
-0.370085318645786
30
0
41
1
10
-18.9821653406094
20
-0.404710097932022
30
0
41
1
10
-19.0336334711206
20
-0.437159158864346
30
0
41
1
10
-19.0524855684153
20
-0.444704543593233
30
0
41
1
10
-19.0569860634524
20
-0.445031870618462
30
0
41
1
10
-19.0614787898554
20
-0.445295466209651
30
0
0
SPLINE
5
1B4
100
AcDbEntity
8
1
62
256
6
ByLayer
370
18
48
1
60
0
100
AcDbSpline
70
4
71
1
72
4
73
2
40
0
40
0
40
1
40
1
41
1
10
-18.0890807878676
20
0.325
30
0
41
1
10
-18.9048259409171
20
-0.34327857925749
30
0
0
SPLINE
5
1B5
100
AcDbEntity
8
1
62
256
6
ByLayer
370
18
48
1
60
0
100
AcDbSpline
70
4
71
1
72
4
73
2
40
0
40
0
40
1
40
1
41
1
10
-16.008510663641
20
-0.34327857925749
30
0
41
1
10
-14.8816949219503
20
0.325
30
0
0
SPLINE
5
1B6
100
AcDbEntity
8
1
62
256
6
ByLayer
370
18
48
1
60
0
100
AcDbSpline
70
4
71
3
72
10
73
6
40
0
40
0
40
0
40
0
40
0.136482189792044
40
0.386762816519977
40
1
40
1
40
1
40
1
41
1
10
-16.2562377321302
20
-0.445272339247191
30
0
41
1
10
-16.2474409921285
20
-0.444948835383614
30
0
41
1
10
-16.2212884059939
20
-0.442097786540308
30
0
41
1
10
-16.1404284310049
20
-0.416331913505684
30
0
41
1
10
-16.0660286492502
20
-0.379336285524727
30
0
41
1
10
-16.008510663641
20
-0.34327857925749
30
0
0
SPLINE
5
1B7
100
AcDbEntity
8
1
62
256
6
ByLayer
370
18
48
1
60
0
100
AcDbSpline
70
4
71
1
72
4
73
2
40
0
40
0
40
1
40
1
41
1
10
17.7716749003053
20
-0.34327857925749
30
0
41
1
10
16.8327016176845
20
0.325000000000001
30
0
0
SPLINE
5
1B8
100
AcDbEntity
8
1
62
256
6
ByLayer
370
18
48
1
60
0
100
AcDbSpline
70
4
71
3
72
11
73
7
40
0
40
0
40
0
40
0
40
0.133068213654033
40
0.429485520191773
40
0.880916308473794
40
1
40
1
40
1
40
1
41
1
10
17.9663915368705
20
-0.445277651197063
30
0
41
1
10
17.9607299320629
20
-0.445033883102328
30
0
41
1
10
17.9408489875055
20
-0.442099807542714
30
0
41
1
10
17.8854800737444
20
-0.418332440063977
30
0
41
1
10
17.8225526302389
20
-0.379357715437434
30
0
41
1
10
17.7805402874376
20
-0.349713896671254
30
0
41
1
10
17.7716749003053
20
-0.343278579257495
30
0
0
SPLINE
5
1B9
100
AcDbEntity
8
1
62
256
6
ByLayer
370
18
48
1
60
0
100
AcDbSpline
70
4
71
3
72
12
73
8
40
0
40
0
40
0
40
0
40
0.267974014480414
40
0.489564449436731
40
0.712449036195335
40
0.907929953647236
40
1
40
1
40
1
40
1
41
1
10
17.93495223803
20
-0.343278579257525
30
0
41
1
10
17.9476227165312
20
-0.35816014262881
30
0
41
1
10
17.9663844926868
20
-0.383201493506502
30
0
41
1
10
17.9845140184206
20
-0.416341109053705
30
0
41
1
10
17.9868081190549
20
-0.437126486793405
30
0
41
1
10
17.9775920618257
20
-0.444409843111252
30
0
41
1
10
17.9701344149668
20
-0.445276347214079
30
0
41
1
10
17.965633180246
20
-0.445265537750835
30
0
0
SPLINE
5
1BA
100
AcDbEntity
8
1
62
256
6
ByLayer
370
18
48
1
60
0
100
AcDbSpline
70
4
71
1
72
4
73
2
40
0
40
0
40
1
40
1
41
1
10
-18.408216543415
20
-0.34327857925749
30
0
41
1
10
-17.536457559895
20
0.325
30
0
0
SPLINE
5
1BB
100
AcDbEntity
8
1
62
256
6
ByLayer
370
18
48
1
60
0
100
AcDbSpline
70
4
71
3
72
11
73
7
40
0
40
0
40
0
40
0
40
0.0016982214449153
40
0.221444448091118
40
0.499970007759344
40
1
40
1
40
1
40
1
41
1
10
-18.5832730352185
20
-0.445279581231233
30
0
41
1
10
-18.5787734403242
20
-0.445191839521715
30
0
41
1
10
-18.574264340222
20
-0.445144898953142
30
0
41
1
10
-18.5535589487743
20
-0.439080715727114
30
0
41
1
10
-18.4953438498346
20
-0.407389915040916
30
0
41
1
10
-18.4445026451893
20
-0.371904905793194
30
0
41
1
10
-18.408216543415
20
-0.343278579257496
30
0
0
SPLINE
5
1BC
100
AcDbEntity
8
1
62
256
6
ByLayer
370
18
48
1
60
0
100
AcDbSpline
70
4
71
1
72
4
73
2
40
0
40
0
40
1
40
1
41
1
10
18.9048259409171
20
-0.34327857925749
30
0
41
1
10
18.0890807878676
20
0.325000000000001
30
0
0
SPLINE
5
1BD
100
AcDbEntity
8
1
62
256
6
ByLayer
370
18
48
1
60
0
100
AcDbSpline
70
4
71
3
72
12
73
8
40
0
40
0
40
0
40
0
40
0.0075008248747318
40
0.189388674565651
40
0.472774757652165
40
0.881491176974967
40
1
40
1
40
1
40
1
41
1
10
19.0626359671475
20
-0.445286566759958
30
0
41
1
10
19.0581398071572
20
-0.445087727541329
30
0
41
1
10
19.0536525281787
20
-0.444694851161169
30
0
41
1
10
19.0396190503336
20
-0.440123064539765
30
0
41
1
10
18.9958101452315
20
-0.41421526364712
30
0
41
1
10
18.9459033340874
20
-0.376850745848033
30
0
41
1
10
18.9124701072047
20
-0.349626859814749
30
0
41
1
10
18.9048259409171
20
-0.343278579257498
30
0
0
SPLINE
5
1BE
100
AcDbEntity
8
1
62
256
6
ByLayer
370
18
48
1
60
0
100
AcDbSpline
70
4
71
3
72
11
73
7
40
0
40
0
40
0
40
0
40
0.31280877743376
40
0.555315581411978
40
0.799487312494138
40
1
40
1
40
1
40
1
41
1
10
19.0026970897867
20
-0.343278579257512
30
0
41
1
10
19.0180647195954
20
-0.360528591171679
30
0
41
1
10
19.0406348913393
20
-0.388076870400522
30
0
41
1
10
19.0640134608805
20
-0.42265888001201
30
0
41
1
10
19.0699909131271
20
-0.44166838207968
30
0
41
1
10
19.0648782497129
20
-0.445547149810434
30
0
41
1
10
19.0603013607836
20
-0.445274455809895
30
0
0
SPLINE
5
1BF
100
AcDbEntity
8
1
62
256
6
ByLayer
370
18
48
1
60
0
100
AcDbSpline
70
4
71
2
72
6
73
3
40
0
40
0
40
0
40
1
40
1
40
1
41
1
10
-19.8401243836352
20
-26.1153929438302
30
0
41
1
10
-19.7328002770932
20
-26.0888320747879
30
0
41
1
10
-19.6175641278401
20
-26.0940409312209
30
0
0
SPLINE
5
1C0
100
AcDbEntity
8
1
62
256
6
ByLayer
370
18
48
1
60
0
100
AcDbSpline
70
4
71
1
72
4
73
2
40
0
40
0
40
1
40
1
41
1
10
-19.935375049576
20
-26.1244545839972
30
0
41
1
10
-19.8401243836349
20
-26.1153929438302
30
0
0
SPLINE
5
1C1
100
AcDbEntity
8
1
62
256
6
ByLayer
370
18
48
1
60
0
100
AcDbSpline
70
4
71
1
72
4
73
2
40
0
40
0
40
1
40
1
41
1
10
16.008510663641
20
-0.34327857925749
30
0
41
1
10
14.8816949219503
20
0.325000000000001
30
0
0
SPLINE
5
1C2
100
AcDbEntity
8
1
62
256
6
ByLayer
370
18
48
1
60
0
100
AcDbSpline
70
4
71
3
72
11
73
7
40
0
40
0
40
0
40
0
40
0.060471520598549
40
0.362833791299759
40
0.86385561759178
40
1
40
1
40
1
40
1
41
1
10
16.2570398812324
20
-0.445282567028272
30
0
41
1
10
16.2525406830073
20
-0.445190006153568
30
0
41
1
10
16.2293187477691
20
-0.443911549010895
30
0
41
1
10
16.1608362533735
20
-0.424684989732746
30
0
41
1
10
16.0773558548656
20
-0.383955337211134
30
0
41
1
10
16.0207119015102
20
-0.350734310444419
30
0
41
1
10
16.008510663641
20
-0.343278579257523
30
0
0
SPLINE
5
1C3
100
AcDbEntity
8
1
62
256
6
ByLayer
370
18
48
1
60
0
100
AcDbSpline
70
4
71
3
72
12
73
8
40
0
40
0
40
0
40
0
40
0.221017710060505
40
0.445221815289682
40
0.640283466943449
40
0.815181123865739
40
1
40
1
40
1
40
1
41
1
10
16.2549231580666
20
-0.343278579257542
30
0
41
1
10
16.2653939407295
20
-0.355780802243353
30
0
41
1
10
16.2821081652447
20
-0.379419167562666
30
0
41
1
10
16.2962272487878
20
-0.411710899670392
30
0
41
1
10
16.2934457406884
20
-0.432943813173602
30
0
41
1
10
16.2789787859909
20
-0.443412393295545
30
0
41
1
10
16.2652063265165
20
-0.445528471921724
30
0
41
1
10
16.256703780519
20
-0.445276461883389
30
0
0
SPLINE
5
1C4
100
AcDbEntity
8
1
62
256
6
ByLayer
370
18
48
1
60
0
100
AcDbSpline
70
4
71
2
72
6
73
3
40
0
40
0
40
0
40
1
40
1
40
1
41
1
10
9.11879287402913
20
-0.343278579257492
30
0
41
1
10
7.88172906724866
20
0.0372120069985997
30
0
41
1
10
6.61172018086064
20
0.325000000000001
30
0
0
SPLINE
5
1C5
100
AcDbEntity
8
1
62
256
6
ByLayer
370
18
48
1
60
0
100
AcDbSpline
70
4
71
2
72
6
73
3
40
0
40
0
40
0
40
1
40
1
40
1
41
1
10
9.65254729666256
20
-0.445244632529133
30
0
41
1
10
9.39490209321676
20
-0.4335184614326
30
0
41
1
10
9.11879287402913
20
-0.343278579257493
30
0
0
SPLINE
5
1C6
100
AcDbEntity
8
1
62
256
6
ByLayer
370
18
48
1
60
0
100
AcDbSpline
70
4
71
3
72
14
73
10
40
0
40
0
40
0
40
0
40
0.130050724876586
40
0.222080484290175
40
0.314623370986934
40
0.398688185332049
40
0.539816298851118
40
0.809196525808342
40
1
40
1
40
1
40
1
41
1
10
9.76435133857445
20
-0.343278579257685
30
0
41
1
10
9.77330031682767
20
-0.351707238390716
30
0
41
1
10
9.78502380812436
20
-0.366228526536238
30
0
41
1
10
9.79493295867861
20
-0.388148903898652
30
0
41
1
10
9.79401706043497
20
-0.405307877986722
30
0
41
1
10
9.78320986943704
20
-0.421172828385211
30
0
41
1
10
9.75380586371243
20
-0.437182348205412
30
0
41
1
10
9.70671247825486
20
-0.444198076057501
30
0
41
1
10
9.66898873573359
20
-0.445712592659901
30
0
41
1
10
9.65254729666256
20
-0.445244632529133
30
0
0
SPLINE
5
1C7
100
AcDbEntity
8
1
62
256
6
ByLayer
370
18
48
1
60
0
100
AcDbSpline
70
4
71
1
72
4
73
2
40
0
40
0
40
1
40
1
41
1
10
-11.54046753934
20
-0.34327857925749
30
0
41
1
10
-9.74178339679136
20
0.325000000000001
30
0
0
SPLINE
5
1C8
100
AcDbEntity
8
1
62
256
6
ByLayer
370
18
48
1
60
0
100
AcDbSpline
70
4
71
3
72
10
73
6
40
0
40
0
40
0
40
0
40
0.16399272788153
40
0.581119255916551
40
1
40
1
40
1
40
1
41
1
10
-11.9489131226792
20
-0.445277056416185
30
0
41
1
10
-11.9283755400227
20
-0.444707457334752
30
0
41
1
10
-11.8544885982318
20
-0.439702028594874
30
0
41
1
10
-11.7155254099057
20
-0.407305102837414
30
0
41
1
10
-11.5996586649314
20
-0.367646124442615
30
0
41
1
10
-11.54046753934
20
-0.343278579257488
30
0
0
SPLINE
5
1C9
100
AcDbEntity
8
1
62
256
6
ByLayer
370
18
48
1
60
0
100
AcDbSpline
70
4
71
1
72
4
73
2
40
0
40
0
40
1
40
1
41
1
10
-19.6464364834369
20
-0.34327857925749
30
0
41
1
10
-18.9546127301509
20
0.325
30
0
0
SPLINE
5
1CA
100
AcDbEntity
8
1
62
256
6
ByLayer
370
18
48
1
60
0
100
AcDbSpline
70
4
71
3
72
11
73
7
40
0
40
0
40
0
40
0
40
0.0968562848673469
40
0.315278319977772
40
0.576957486652427
40
1
40
1
40
1
40
1
41
1
10
-19.7589698125192
20
-0.445598443761075
30
0
41
1
10
-19.7544540992695
20
-0.44502131157686
30
0
41
1
10
-19.7510614884456
20
-0.441934543660186
30
0
41
1
10
-19.7401359385698
20
-0.432476270943624
30
0
41
1
10
-19.7044744058551
20
-0.399314608633815
30
0
41
1
10
-19.670796621246
20
-0.366991559256316
30
0
41
1
10
-19.6464364834369
20
-0.343278579257502
30
0
0
SPLINE
5
1CB
100
AcDbEntity
8
1
62
256
6
ByLayer
370
18
48
1
60
0
100
AcDbSpline
70
4
71
1
72
4
73
2
40
0
40
0
40
1
40
1
41
1
10
-19.823079436352
20
-24.1704784577877
30
0
41
1
10
-19.8883590776192
20
-24.1603026973419
30
0
0
SPLINE
5
1CC
100
AcDbEntity
8
1
62
256
6
ByLayer
370
18
48
1
60
0
100
AcDbSpline
70
4
71
1
72
4
73
2
40
0
40
0
40
1
40
1
41
1
10
-19.6701160649886
20
-24.1943634233706
30
0
41
1
10
-19.823079436352
20
-24.1704784577877
30
0
0
SPLINE
5
1CD
100
AcDbEntity
8
1
62
256
6
ByLayer
370
18
48
1
60
0
100
AcDbSpline
70
4
71
3
72
13
73
9
40
0
40
0
40
0
40
0
40
0.0825492608582684
40
0.285183838663637
40
0.438479595656673
40
0.61361243499009
40
0.787724436443208
40
1
40
1
40
1
40
1
41
1
10
-17.330817768394
20
-25.652048934164
30
0
41
1
10
-17.3480806021585
20
-25.6323825073631
30
0
41
1
10
-17.4034232393563
20
-25.5601879769418
30
0
41
1
10
-17.4695637279456
20
-25.4242353406841
30
0
41
1
10
-17.5069564726478
20
-25.2304555086983
30
0
41
1
10
-17.4977927021613
20
-25.0364763648358
30
0
41
1
10
-17.4361108001279
20
-24.8409221760666
30
0
41
1
10
-17.3674570027437
20
-24.7344627150151
30
0
41
1
10
-17.3206144198435
20
-24.683335359363
30
0
0
SPLINE
5
1CE
100
AcDbEntity
8
1
62
256
6
ByLayer
370
18
48
1
60
0
100
AcDbSpline
70
4
71
3
72
13
73
9
40
0
40
0
40
0
40
0
40
0.0963475297139742
40
0.332852614812007
40
0.51177188178063
40
0.716178334455949
40
0.91939331462517
40
1
40
1
40
1
40
1
41
1
10
-18.448961465819
20
-26.6165040472554
30
0
41
1
10
-18.4396796192445
20
-26.5898190853542
30
0
41
1
10
-18.4020336534884
20
-26.499575682746
30
0
41
1
10
-18.313936130324
20
-26.3658404182008
30
0
41
1
10
-18.1636619459616
20
-26.2307968782056
30
0
41
1
10
-17.993527862425
20
-26.1421630972453
30
0
41
1
10
-17.8492283318175
20
-26.1140133525223
30
0
41
1
10
-17.7700924116759
20
-26.1137089474134
30
0
41
1
10
-17.7478041550329
20
-26.1149989375206
30
0
0
SPLINE
5
1CF
100
AcDbEntity
8
1
62
256
6
ByLayer
370
18
48
1
60
0
100
AcDbSpline
70
4
71
3
72
12
73
8
40
0
40
0
40
0
40
0
40
0.0573009716925485
40
0.280031064926637
40
0.505395285878044
40
0.744943740650582
40
1
40
1
40
1
40
1
41
1
10
-18.7445763456478
20
-26.8298066273827
30
0
41
1
10
-18.7369858395473
20
-26.8298426015615
30
0
41
1
10
-18.7001156486423
20
-26.8286217596465
30
0
41
1
10
-18.6330766620403
20
-26.8132944502135
30
0
41
1
10
-18.552964654289
20
-26.7678254077269
30
0
41
1
10
-18.4875679363211
20
-26.6998435803733
30
0
41
1
10
-18.4593484870317
20
-26.6464964819573
30
0
41
1
10
-18.448961465819
20
-26.6165040472549
30
0
0
SPLINE
5
1D0
100
AcDbEntity
8
1
62
256
6
ByLayer
370
18
48
1
60
0
100
AcDbSpline
70
4
71
3
72
13
73
9
40
0
40
0
40
0
40
0
40
0.00563757751014
40
0.263299326751241
40
0.42439431006934
40
0.603018629562755
40
0.802949847214909
40
1
40
1
40
1
40
1
41
1
10
15.1074742208399
20
-0.445276530149983
30
0
41
1
10
15.111974654325
20
-0.445273020249478
30
0
41
1
10
15.1230605526025
20
-0.44524232894363
30
0
41
1
10
15.1423606773934
20
-0.442270778710984
30
0
41
1
10
15.1586912211568
20
-0.427956518581543
30
0
41
1
10
15.1617880420809
20
-0.406480497719692
30
0
41
1
10
15.1491338544769
20
-0.376048390698254
30
0
41
1
10
15.1340490649261
20
-0.354509339231626
30
0
41
1
10
15.1245672474213
20
-0.343278579257558
30
0
0
SPLINE
5
1D1
100
AcDbEntity
8
1
62
256
6
ByLayer
370
18
48
1
60
0
100
AcDbSpline
70
4
71
3
72
10
73
6
40
0
40
0
40
0
40
0
40
0.224387768543126
40
0.723389705222499
40
1
40
1
40
1
40
1
41
1
10
14.8237109429757
20
-0.343278579267313
30
0
41
1
10
14.8464755087282
20
-0.35578543638534
30
0
41
1
10
14.9187271297532
20
-0.392435077215135
30
0
41
1
10
15.0205039516619
20
-0.433933666852962
30
0
41
1
10
15.0868273258237
20
-0.443846649876812
30
0
41
1
10
15.1095827087057
20
-0.445278565292449
30
0
0
SPLINE
5
1D2
100
AcDbEntity
8
1
62
256
6
ByLayer
370
18
48
1
60
0
100
AcDbSpline
70
4
71
1
72
4
73
2
40
0
40
0
40
1
40
1
41
1
10
13.5564502636199
20
0.325000000000001
30
0
41
1
10
14.8237109429722
20
-0.34327857925749
30
0
0
INSERT
5
1E7
100
AcDbEntity
8
2L
62
256
6
ByLayer
370
25
48
1
60
0
100
AcDbBlockReference
2
DimnDraft3D11
10
0
20
0
30
0
41
1
42
1
43
1
50
0
210
0
220
0
230
1
0
INSERT
5
1F8
100
AcDbEntity
8
SK2
62
256
6
ByLayer
370
25
48
1
60
0
100
AcDbBlockReference
2
DimnDraft3D22
10
0
20
0
30
0
41
1
42
1
43
1
50
0
210
0
220
0
230
1
0
INSERT
5
209
100
AcDbEntity
8
SK2
62
256
6
ByLayer
370
25
48
1
60
0
100
AcDbBlockReference
2
DimnDraft3D33
10
0
20
0
30
0
41
1
42
1
43
1
50
0
210
0
220
0
230
1
0
INSERT
5
219
100
AcDbEntity
8
2L
62
256
6
ByLayer
370
25
48
1
60
0
100
AcDbBlockReference
2
DimnDraft3D44
10
0
20
0
30
0
41
1
42
1
43
1
50
0
210
0
220
0
230
1
0
LINE
5
73
100
AcDbEntity
8
1
62
256
6
ByLayer
370
18
48
1
60
0
100
AcDbLine
10
-20
20
-0.675
30
0
11
20
21
-0.675
31
0
39
0
210
0
220
0
230
1
0
LINE
5
74
100
AcDbEntity
8
1
62
256
6
ByLayer
370
18
48
1
60
0
100
AcDbLine
10
-19
20
0.325
30
0
11
-20
21
-0.675
31
0
39
0
210
0
220
0
230
1
0
LINE
5
75
100
AcDbEntity
8
1
62
256
6
ByLayer
370
18
48
1
60
0
100
AcDbLine
10
-20
20
-0.675
30
0
11
-20
21
-9.60225
31
0
39
0
210
0
220
0
230
1
0
LINE
5
76
100
AcDbEntity
8
1
62
256
6
ByLayer
370
18
48
1
60
0
100
AcDbLine
10
-19.933931
20
-25.634589
30
0
11
-20.11684
21
-25.625003
31
0
39
0
210
0
220
0
230
1
0
LINE
5
77
100
AcDbEntity
8
1
62
256
6
ByLayer
370
18
48
1
60
0
100
AcDbLine
10
-19.923728
20
-24.665876
30
0
11
-20.106637
21
-24.65629
31
0
39
0
210
0
220
0
230
1
0
LINE
5
78
100
AcDbEntity
8
1
62
256
6
ByLayer
370
18
48
1
60
0
100
AcDbLine
10
-19.667587
20
-10.410297
30
0
11
-19.415464
21
-10.42351
31
0
39
0
210
0
220
0
230
1
0
LINE
5
79
100
AcDbEntity
8
1
62
256
6
ByLayer
370
18
48
1
60
0
100
AcDbLine
10
-19.646436
20
-0.343279
30
0
11
-19.65992
21
-0.343279
31
0
39
0
210
0
220
0
230
1
0
LINE
5
7A
100
AcDbEntity
8
1
62
256
6
ByLayer
370
18
48
1
60
0
100
AcDbLine
10
-19.518003
20
-0.343279
30
0
11
-19.558693
21
-0.343279
31
0
39
0
210
0
220
0
230
1
0
LINE
5
7B
100
AcDbEntity
8
1
62
256
6
ByLayer
370
18
48
1
60
0
100
AcDbLine
10
-19.212293
20
-26.158917
30
0
11
-19.372629
21
-26.150514
31
0
39
0
210
0
220
0
230
1
0
LINE
5
7C
100
AcDbEntity
8
1
62
256
6
ByLayer
370
18
48
1
60
0
100
AcDbLine
10
-19.272323
20
-0.343279
30
0
11
-19.340954
21
-0.343279
31
0
39
0
210
0
220
0
230
1
0
LINE
5
7D
100
AcDbEntity
8
1
62
256
6
ByLayer
370
18
48
1
60
0
100
AcDbLine
10
-19.230651
20
-26.234916
30
0
11
-19.070315
21
-26.243318
31
0
39
0
210
0
220
0
230
1
0
LINE
5
7E
100
AcDbEntity
8
1
62
256
6
ByLayer
370
18
48
1
60
0
100
AcDbLine
10
-18.825073
20
-26.619792
30
0
11
-19.00774
21
-26.610219
31
0
39
0
210
0
220
0
230
1
0
LINE
5
7F
100
AcDbEntity
8
1
62
256
6
ByLayer
370
18
48
1
60
0
100
AcDbLine
10
-18.904826
20
-0.343279
30
0
11
-19.002697
21
-0.343279
31
0
39
0
210
0
220
0
230
1
0
LINE
5
80
100
AcDbEntity
8
1
62
256
6
ByLayer
370
18
48
1
60
0
100
AcDbLine
10
-18.805584
20
-23.70142
30
0
11
-18.988493
21
-23.691835
31
0
39
0
210
0
220
0
230
1
0
LINE
5
81
100
AcDbEntity
8
1
62
256
6
ByLayer
370
18
48
1
60
0
100
AcDbLine
10
-18.832969
20
-27.776785
30
0
11
-18.676675
21
-27.784976
31
0
39
0
210
0
220
0
230
1
0
LINE
5
82
100
AcDbEntity
8
1
62
256
6
ByLayer
370
18
48
1
60
0
100
AcDbLine
10
-18.408217
20
-0.343279
30
0
11
-18.537327
21
-0.343279
31
0
39
0
210
0
220
0
230
1
0
LINE
5
83
100
AcDbEntity
8
1
62
256
6
ByLayer
370
18
48
1
60
0
100
AcDbLine
10
-18.153823
20
-11.538945
30
0
11
9.338916
21
-9.081692
31
0
39
0
210
0
220
0
230
1
0
LINE
5
84
100
AcDbEntity
8
1
62
256
6
ByLayer
370
18
48
1
60
0
100
AcDbLine
10
-18.153823
20
-11.538945
30
0
11
-15.202247
21
-14.52242
31
0
39
0
210
0
220
0
230
1
0
LINE
5
85
100
AcDbEntity
8
1
62
256
6
ByLayer
370
18
48
1
60
0
100
AcDbLine
10
-17.771675
20
-0.343279
30
0
11
-17.934952
21
-0.343279
31
0
39
0
210
0
220
0
230
1
0
LINE
5
86
100
AcDbEntity
8
1
62
256
6
ByLayer
370
18
48
1
60
0
100
AcDbLine
10
-17.50866
20
-26.1434
30
0
11
-17.614375
21
-26.13786
31
0
39
0
210
0
220
0
230
1
0
LINE
5
87
100
AcDbEntity
8
1
62
256
6
ByLayer
370
18
48
1
60
0
100
AcDbLine
10
-17.41418
20
-24.202544
30
0
11
-17.596846
21
-24.192971
31
0
39
0
210
0
220
0
230
1
0
LINE
5
88
100
AcDbEntity
8
1
62
256
6
ByLayer
370
18
48
1
60
0
100
AcDbLine
10
-16.979471
20
-0.343279
30
0
11
-17.181168
21
-0.343279
31
0
39
0
210
0
220
0
230
1
0
LINE
5
89
100
AcDbEntity
8
1
62
256
6
ByLayer
370
18
48
1
60
0
100
AcDbLine
10
-16.008511
20
-0.343279
30
0
11
-16.254923
21
-0.343279
31
0
39
0
210
0
220
0
230
1
0
LINE
5
8A
100
AcDbEntity
8
1
62
256
6
ByLayer
370
18
48
1
60
0
100
AcDbLine
10
-14.823711
20
-0.343279
30
0
11
-15.124567
21
-0.343279
31
0
39
0
210
0
220
0
230
1
0
LINE
5
8B
100
AcDbEntity
8
1
62
256
6
ByLayer
370
18
48
1
60
0
100
AcDbLine
10
-14.21606
20
-30.549971
30
0
11
-13.71276
21
-30.438185
31
0
39
0
210
0
220
0
230
1
0
LINE
5
8C
100
AcDbEntity
8
1
62
256
6
ByLayer
370
18
48
1
60
0
100
AcDbLine
10
-14.21606
20
-30.549971
30
0
11
-14.465865
21
-30.146088
31
0
39
0
210
0
220
0
230
1
0
LINE
5
8D
100
AcDbEntity
8
1
62
256
6
ByLayer
370
18
48
1
60
0
100
AcDbLine
10
-13.368336
20
-0.343279
30
0
11
-13.739816
21
-0.343279
31
0
39
0
210
0
220
0
230
1
0
LINE
5
8E
100
AcDbEntity
8
1
62
256
6
ByLayer
370
18
48
1
60
0
100
AcDbLine
10
-13.068898
20
-30.471928
30
0
11
-13.71276
21
-30.438185
31
0
39
0
210
0
220
0
230
1
0
LINE
5
8F
100
AcDbEntity
8
1
62
256
6
ByLayer
370
18
48
1
60
0
100
AcDbLine
10
-13.71276
20
-30.438185
30
0
11
-13.874247
21
-30.177094
31
0
39
0
210
0
220
0
230
1
0
LINE
5
90
100
AcDbEntity
8
1
62
256
6
ByLayer
370
18
48
1
60
0
100
AcDbLine
10
-11.540468
20
-0.343279
30
0
11
-12.013016
21
-0.343279
31
0
39
0
210
0
220
0
230
1
0
LINE
5
91
100
AcDbEntity
8
1
62
256
6
ByLayer
370
18
48
1
60
0
100
AcDbLine
10
-11.528307
20
-30.974122
30
0
11
-10.884445
21
-31.007865
31
0
39
0
210
0
220
0
230
1
0
LINE
5
92
100
AcDbEntity
8
1
62
256
6
ByLayer
370
18
48
1
60
0
100
AcDbLine
10
-10.760561
20
-29.932029
30
0
11
-10.617534
21
-29.702033
31
0
39
0
210
0
220
0
230
1
0
LINE
5
93
100
AcDbEntity
8
1
62
256
6
ByLayer
370
18
48
1
60
0
100
AcDbLine
10
-10.433049
20
-29.331364
30
0
11
-10.033475
21
-29.352305
31
0
39
0
210
0
220
0
230
1
0
LINE
5
94
100
AcDbEntity
8
1
62
256
6
ByLayer
370
18
48
1
60
0
100
AcDbLine
10
-10.433049
20
-29.331364
30
0
11
-10.968638
21
-28.46543
31
0
39
0
210
0
220
0
230
1
0
LINE
5
95
100
AcDbEntity
8
1
62
256
6
ByLayer
370
18
48
1
60
0
100
AcDbLine
10
-9.118793
20
-0.343279
30
0
11
-9.764351
21
-0.343279
31
0
39
0
210
0
220
0
230
1
0
LINE
5
96
100
AcDbEntity
8
1
62
256
6
ByLayer
370
18
48
1
60
0
100
AcDbLine
10
-8.717798
20
-9.181045
30
0
11
-8.717798
21
-6.4
31
0
39
0
210
0
220
0
230
1
0
LINE
5
97
100
AcDbEntity
8
1
62
256
6
ByLayer
370
18
48
1
60
0
100
AcDbLine
10
-8.717798
20
-6.4
30
0
11
8.717798
21
-6.4
31
0
39
0
210
0
220
0
230
1
0
LINE
5
98
100
AcDbEntity
8
1
62
256
6
ByLayer
370
18
48
1
60
0
100
AcDbLine
10
-5.349988
20
-0.343279
30
0
11
-6.470901
21
-0.343279
31
0
39
0
210
0
220
0
230
1
0
LINE
5
99
100
AcDbEntity
8
SK1
62
256
6
ByLayer
370
18
48
1
60
0
100
AcDbLine
10
0
20
3.225
30
0
11
-3
21
3.225
31
0
39
0
210
0
220
0
230
1
0
LINE
5
9B
100
AcDbEntity
8
SK1
62
256
6
ByLayer
370
18
48
1
60
0
100
AcDbLine
10
-3
20
3.225
30
0
11
-3
21
0.325
31
0
39
0
210
0
220
0
230
1
0
LINE
5
9C
100
AcDbEntity
8
SK1
62
256
6
ByLayer
370
18
48
1
60
0
100
AcDbLine
10
-2.65359
20
3.825
30
0
11
-3
21
3.225
31
0
39
0
210
0
220
0
230
1
0
LINE
5
9D
100
AcDbEntity
8
SK1
62
256
6
ByLayer
370
18
48
1
60
0
100
AcDbLine
10
3
20
3.225
30
0
11
0
21
3.225
31
0
39
0
210
0
220
0
230
1
0
LINE
5
9E
100
AcDbEntity
8
SK1
62
256
6
ByLayer
370
18
48
1
60
0
100
AcDbLine
10
3
20
3.225
30
0
11
2.65359
21
3.825
31
0
39
0
210
0
220
0
230
1
0
LINE
5
9F
100
AcDbEntity
8
SK1
62
256
6
ByLayer
370
18
48
1
60
0
100
AcDbLine
10
3
20
0.325
30
0
11
3
21
3.225
31
0
39
0
210
0
220
0
230
1
0
LINE
5
A0
100
AcDbEntity
8
1
62
256
6
ByLayer
370
18
48
1
60
0
100
AcDbLine
10
5.496803
20
0.325
30
0
11
-5.496803
21
0.325
31
0
39
0
210
0
220
0
230
1
0
LINE
5
A1
100
AcDbEntity
8
1
62
256
6
ByLayer
370
18
48
1
60
0
100
AcDbLine
10
5.496803
20
0.325
30
0
11
6.61172
21
0.325
31
0
39
0
210
0
220
0
230
1
0
LINE
5
A2
100
AcDbEntity
8
1
62
256
6
ByLayer
370
18
48
1
60
0
100
AcDbLine
10
-19.415464
20
-10.42351
30
0
11
6.997455
21
-8.062769
31
0
39
0
210
0
220
0
230
1
0
LINE
5
A3
100
AcDbEntity
8
1
62
256
6
ByLayer
370
18
48
1
60
0
100
AcDbLine
10
8.717798
20
-6.4
30
0
11
8.717798
21
-7.670216
31
0
39
0
210
0
220
0
230
1
0
LINE
5
A4
100
AcDbEntity
8
1
62
256
6
ByLayer
370
18
48
1
60
0
100
AcDbLine
10
8.717798
20
-7.670216
30
0
11
-8.717798
21
-9.181045
31
0
39
0
210
0
220
0
230
1
0
LINE
5
A5
100
AcDbEntity
8
1
62
256
6
ByLayer
370
18
48
1
60
0
100
AcDbLine
10
9.084456
20
0.325
30
0
11
9.741783
21
0.325
31
0
39
0
210
0
220
0
230
1
0
LINE
5
A6
100
AcDbEntity
8
1
62
256
6
ByLayer
370
18
48
1
60
0
100
AcDbLine
10
9.084456
20
0.325
30
0
11
6.61172
21
0.325
31
0
39
0
210
0
220
0
230
1
0
LINE
5
A7
100
AcDbEntity
8
1
62
256
6
ByLayer
370
18
48
1
60
0
100
AcDbLine
10
11.416648
20
0.325
30
0
11
11.899153
21
0.325
31
0
39
0
210
0
220
0
230
1
0
LINE
5
A8
100
AcDbEntity
8
1
62
256
6
ByLayer
370
18
48
1
60
0
100
AcDbLine
10
11.416648
20
0.325
30
0
11
9.741783
21
0.325
31
0
39
0
210
0
220
0
230
1
0
LINE
5
A9
100
AcDbEntity
8
1
62
256
6
ByLayer
370
18
48
1
60
0
100
AcDbLine
10
13.177721
20
0.325
30
0
11
13.55645
21
0.325
31
0
39
0
210
0
220
0
230
1
0
LINE
5
AA
100
AcDbEntity
8
1
62
256
6
ByLayer
370
18
48
1
60
0
100
AcDbLine
10
13.177721
20
0.325
30
0
11
11.899153
21
0.325
31
0
39
0
210
0
220
0
230
1
0
LINE
5
AB
100
AcDbEntity
8
1
62
256
6
ByLayer
370
18
48
1
60
0
100
AcDbLine
10
14.576174
20
0.325
30
0
11
14.881695
21
0.325
31
0
39
0
210
0
220
0
230
1
0
LINE
5
AC
100
AcDbEntity
8
1
62
256
6
ByLayer
370
18
48
1
60
0
100
AcDbLine
10
14.576174
20
0.325
30
0
11
13.55645
21
0.325
31
0
39
0
210
0
220
0
230
1
0
LINE
5
AD
100
AcDbEntity
8
1
62
256
6
ByLayer
370
18
48
1
60
0
100
AcDbLine
10
17.402724
20
-7.07659
30
0
11
15.147629
21
-7.273886
31
0
39
0
210
0
220
0
230
1
0
LINE
5
AE
100
AcDbEntity
8
1
62
256
6
ByLayer
370
18
48
1
60
0
100
AcDbLine
10
15.147629
20
-7.273886
30
0
11
14.128443
21
-7.363053
31
0
39
0
210
0
220
0
230
1
0
LINE
5
AF
100
AcDbEntity
8
1
62
256
6
ByLayer
370
18
48
1
60
0
100
AcDbLine
10
15.709148
20
0.325
30
0
11
15.95783
21
0.325
31
0
39
0
210
0
220
0
230
1
0
LINE
5
B0
100
AcDbEntity
8
1
62
256
6
ByLayer
370
18
48
1
60
0
100
AcDbLine
10
15.709148
20
0.325
30
0
11
14.881695
21
0.325
31
0
39
0
210
0
220
0
230
1
0
LINE
5
B1
100
AcDbEntity
8
1
62
256
6
ByLayer
370
18
48
1
60
0
100
AcDbLine
10
16.63099
20
0.325
30
0
11
15.95783
21
0.325
31
0
39
0
210
0
220
0
230
1
0
LINE
5
B2
100
AcDbEntity
8
1
62
256
6
ByLayer
370
18
48
1
60
0
100
AcDbLine
10
16.63099
20
0.325
30
0
11
16.832702
21
0.325
31
0
39
0
210
0
220
0
230
1
0
LINE
5
B3
100
AcDbEntity
8
1
62
256
6
ByLayer
370
18
48
1
60
0
100
AcDbLine
10
17.375337
20
0.325
30
0
11
17.536458
21
0.325
31
0
39
0
210
0
220
0
230
1
0
LINE
5
B4
100
AcDbEntity
8
1
62
256
6
ByLayer
370
18
48
1
60
0
100
AcDbLine
10
17.375337
20
0.325
30
0
11
16.832702
21
0.325
31
0
39
0
210
0
220
0
230
1
0
LINE
5
B5
100
AcDbEntity
8
1
62
256
6
ByLayer
370
18
48
1
60
0
100
AcDbLine
10
17.964266
20
0.325
30
0
11
18.089081
21
0.325
31
0
39
0
210
0
220
0
230
1
0
LINE
5
B6
100
AcDbEntity
8
1
62
256
6
ByLayer
370
18
48
1
60
0
100
AcDbLine
10
17.964266
20
0.325
30
0
11
17.536458
21
0.325
31
0
39
0
210
0
220
0
230
1
0
LINE
5
B7
100
AcDbEntity
8
1
62
256
6
ByLayer
370
18
48
1
60
0
100
AcDbLine
10
18.412695
20
0.325
30
0
11
18.089081
21
0.325
31
0
39
0
210
0
220
0
230
1
0
LINE
5
B8
100
AcDbEntity
8
1
62
256
6
ByLayer
370
18
48
1
60
0
100
AcDbLine
10
18.412695
20
0.325
30
0
11
18.504117
21
0.325
31
0
39
0
210
0
220
0
230
1
0
LINE
5
B9
100
AcDbEntity
8
1
62
256
6
ByLayer
370
18
48
1
60
0
100
AcDbLine
10
18.730719
20
0.325
30
0
11
18.790685
21
0.325
31
0
39
0
210
0
220
0
230
1
0
LINE
5
BA
100
AcDbEntity
8
1
62
256
6
ByLayer
370
18
48
1
60
0
100
AcDbLine
10
18.730719
20
0.325
30
0
11
18.504117
21
0.325
31
0
39
0
210
0
220
0
230
1
0
LINE
5
BB
100
AcDbEntity
8
1
62
256
6
ByLayer
370
18
48
1
60
0
100
AcDbLine
10
18.924913
20
0.325
30
0
11
18.790685
21
0.325
31
0
39
0
210
0
220
0
230
1
0
LINE
5
BC
100
AcDbEntity
8
1
62
256
6
ByLayer
370
18
48
1
60
0
100
AcDbLine
10
18.924913
20
0.325
30
0
11
18.954613
21
0.325
31
0
39
0
210
0
220
0
230
1
0
LINE
5
BD
100
AcDbEntity
8
1
62
256
6
ByLayer
370
18
48
1
60
0
100
AcDbLine
10
18.999075
20
0.325
30
0
11
18.954613
21
0.325
31
0
39
0
210
0
220
0
230
1
0
LINE
5
BE
100
AcDbEntity
8
1
62
256
6
ByLayer
370
18
48
1
60
0
100
AcDbLine
10
-10.720124
20
-29.16046
30
0
11
-10.601923
21
-29.404148
31
0
39
0
210
0
220
0
230
1
0
LINE
5
BF
100
AcDbEntity
8
1
62
256
6
ByLayer
370
18
48
1
60
0
100
AcDbLine
10
-15.839834
20
-20.875055
30
0
11
-10.759305
21
-29.089206
31
0
39
0
210
0
220
0
230
1
0
LINE
5
C0
100
AcDbEntity
8
1
62
256
6
ByLayer
370
18
48
1
60
0
100
AcDbLine
10
-26.047151
20
-20.001067
30
0
11
-16.465308
21
-20.50323
31
0
39
0
210
0
220
0
230
1
0
LINE
5
C1
100
AcDbEntity
8
1
62
256
6
ByLayer
370
18
48
1
60
0
100
AcDbLine
10
-21.675206
20
-29.429218
30
0
11
-26.755735
21
-21.215066
31
0
39
0
210
0
220
0
230
1
0
LINE
5
C2
100
AcDbEntity
8
1
62
256
6
ByLayer
370
18
48
1
60
0
100
AcDbLine
10
-11.467889
20
-30.303205
30
0
11
-21.049732
21
-29.801042
31
0
39
0
210
0
220
0
230
1
0
LINE
5
C3
100
AcDbEntity
8
1
62
256
6
ByLayer
370
18
48
1
60
0
100
AcDbLine
10
-15.868109
20
-20.83247
30
0
11
-15.919855
21
-20.748808
31
0
39
0
210
0
220
0
230
1
0
LINE
5
C4
100
AcDbEntity
8
1
62
256
6
ByLayer
370
18
48
1
60
0
100
AcDbLine
10
18.408217
20
-0.343279
30
0
11
18.537327
21
-0.343279
31
0
39
0
210
0
220
0
230
1
0
LINE
5
C5
100
AcDbEntity
8
1
62
256
6
ByLayer
370
18
48
1
60
0
100
AcDbLine
10
-13.177721
20
0.325
30
0
11
-13.55645
21
0.325
31
0
39
0
210
0
220
0
230
1
0
LINE
5
C6
100
AcDbEntity
8
1
62
256
6
ByLayer
370
18
48
1
60
0
100
AcDbLine
10
-11.899153
20
0.325
30
0
11
-13.177721
21
0.325
31
0
39
0
210
0
220
0
230
1
0
LINE
5
C7
100
AcDbEntity
8
1
62
256
6
ByLayer
370
18
48
1
60
0
100
AcDbLine
10
-18.730719
20
0.325
30
0
11
-18.504117
21
0.325
31
0
39
0
210
0
220
0
230
1
0
LINE
5
C8
100
AcDbEntity
8
1
62
256
6
ByLayer
370
18
48
1
60
0
100
AcDbLine
10
-18.790685
20
0.325
30
0
11
-18.730719
21
0.325
31
0
39
0
210
0
220
0
230
1
0
LINE
5
C9
100
AcDbEntity
8
1
62
256
6
ByLayer
370
18
48
1
60
0
100
AcDbLine
10
-18.412695
20
0.325
30
0
11
-18.089081
21
0.325
31
0
39
0
210
0
220
0
230
1
0
LINE
5
CA
100
AcDbEntity
8
1
62
256
6
ByLayer
370
18
48
1
60
0
100
AcDbLine
10
-18.504117
20
0.325
30
0
11
-18.412695
21
0.325
31
0
39
0
210
0
220
0
230
1
0
LINE
5
CB
100
AcDbEntity
8
1
62
256
6
ByLayer
370
18
48
1
60
0
100
AcDbLine
10
-17.45961
20
-37.675
30
0
11
-21.229946
21
-31.579156
31
0
39
0
210
0
220
0
230
1
0
LINE
5
CC
100
AcDbEntity
8
1
62
256
6
ByLayer
370
18
48
1
60
0
100
AcDbLine
10
-0.7
20
-37.675
30
0
11
-17.45961
21
-37.675
31
0
39
0
210
0
220
0
230
1
0
LINE
5
CD
100
AcDbEntity
8
1
62
256
6
ByLayer
370
18
48
1
60
0
100
AcDbLine
10
5
20
-17.325
30
0
11
5
21
-31.975
31
0
39
0
210
0
220
0
230
1
0
LINE
5
CE
100
AcDbEntity
8
1
62
256
6
ByLayer
370
18
48
1
60
0
100
AcDbLine
10
-10.49835
20
-28.490076
30
0
11
-11.142212
21
-28.456333
31
0
39
0
210
0
220
0
230
1
0
LINE
5
CF
100
AcDbEntity
8
1
62
256
6
ByLayer
370
18
48
1
60
0
100
AcDbLine
10
-15.709148
20
0.325
30
0
11
-15.95783
21
0.325
31
0
39
0
210
0
220
0
230
1
0
LINE
5
D0
100
AcDbEntity
8
1
62
256
6
ByLayer
370
18
48
1
60
0
100
AcDbLine
10
-14.881695
20
0.325
30
0
11
-15.709148
21
0.325
31
0
39
0
210
0
220
0
230
1
0
LINE
5
D1
100
AcDbEntity
8
1
62
256
6
ByLayer
370
18
48
1
60
0
100
AcDbLine
10
-19.496026
20
-24.203488
30
0
11
-19.66961
21
-24.194391
31
0
39
0
210
0
220
0
230
1
0
LINE
5
D2
100
AcDbEntity
8
1
62
256
6
ByLayer
370
18
48
1
60
0
100
AcDbLine
10
6.470901
20
-0.343279
30
0
11
5.349988
21
-0.343279
31
0
39
0
210
0
220
0
230
1
0
LINE
5
D3
100
AcDbEntity
8
1
62
256
6
ByLayer
370
18
48
1
60
0
100
AcDbLine
10
19.65992
20
-0.343279
30
0
11
19.646436
21
-0.343279
31
0
39
0
210
0
220
0
230
1
0
LINE
5
D4
100
AcDbEntity
8
1
62
256
6
ByLayer
370
18
48
1
60
0
100
AcDbLine
10
-11.416648
20
0.325
30
0
11
-11.899153
21
0.325
31
0
39
0
210
0
220
0
230
1
0
LINE
5
D5
100
AcDbEntity
8
1
62
256
6
ByLayer
370
18
48
1
60
0
100
AcDbLine
10
-9.741783
20
0.325
30
0
11
-11.416648
21
0.325
31
0
39
0
210
0
220
0
230
1
0
LINE
5
D6
100
AcDbEntity
8
1
62
256
6
ByLayer
370
18
48
1
60
0
100
AcDbLine
10
-16.63099
20
0.325
30
0
11
-15.95783
21
0.325
31
0
39
0
210
0
220
0
230
1
0
LINE
5
D7
100
AcDbEntity
8
1
62
256
6
ByLayer
370
18
48
1
60
0
100
AcDbLine
10
-16.832702
20
0.325
30
0
11
-16.63099
21
0.325
31
0
39
0
210
0
220
0
230
1
0
LINE
5
D8
100
AcDbEntity
8
1
62
256
6
ByLayer
370
18
48
1
60
0
100
AcDbLine
10
12.013016
20
-0.343279
30
0
11
11.540468
21
-0.343279
31
0
39
0
210
0
220
0
230
1
0
LINE
5
D9
100
AcDbEntity
8
1
62
256
6
ByLayer
370
18
48
1
60
0
100
AcDbLine
10
19.558693
20
-0.343279
30
0
11
19.518003
21
-0.343279
31
0
39
0
210
0
220
0
230
1
0
LINE
5
DA
100
AcDbEntity
8
1
62
256
6
ByLayer
370
18
48
1
60
0
100
AcDbLine
10
20
20
-0.675
30
0
11
19
21
0.325
31
0
39
0
210
0
220
0
230
1
0
LINE
5
DB
100
AcDbEntity
8
1
62
256
6
ByLayer
370
18
48
1
60
0
100
AcDbLine
10
20
20
-6.849358
30
0
11
20
21
-0.675
31
0
39
0
210
0
220
0
230
1
0
LINE
5
DC
100
AcDbEntity
8
1
62
256
6
ByLayer
370
18
48
1
60
0
100
AcDbLine
10
17.402724
20
-7.07659
30
0
11
20
21
-6.849358
31
0
39
0
210
0
220
0
230
1
0
LINE
5
DD
100
AcDbEntity
8
1
62
256
6
ByLayer
370
18
48
1
60
0
100
AcDbLine
10
16.979471
20
-0.343279
30
0
11
17.181168
21
-0.343279
31
0
39
0
210
0
220
0
230
1
0
LINE
5
DE
100
AcDbEntity
8
1
62
256
6
ByLayer
370
18
48
1
60
0
100
AcDbLine
10
-5.496803
20
0.325
30
0
11
-6.61172
21
0.325
31
0
39
0
210
0
220
0
230
1
0
LINE
5
DF
100
AcDbEntity
8
1
62
256
6
ByLayer
370
18
48
1
60
0
100
AcDbLine
10
-7.838367
20
-6
30
0
11
7.838367
21
-6
31
0
39
0
210
0
220
0
230
1
0
LINE
5
E0
100
AcDbEntity
8
1
62
256
6
ByLayer
370
18
48
1
60
0
100
AcDbLine
10
13.739816
20
-0.343279
30
0
11
13.368336
21
-0.343279
31
0
39
0
210
0
220
0
230
1
0
LINE
5
E1
100
AcDbEntity
8
1
62
256
6
ByLayer
370
18
48
1
60
0
100
AcDbLine
10
19.272323
20
-0.343279
30
0
11
19.340954
21
-0.343279
31
0
39
0
210
0
220
0
230
1
0
LINE
5
E2
100
AcDbEntity
8
1
62
256
6
ByLayer
370
18
48
1
60
0
100
AcDbLine
10
-10.390444
20
-29.963891
30
0
11
-10.768213
21
-29.944093
31
0
39
0
210
0
220
0
230
1
0
LINE
5
E3
100
AcDbEntity
8
1
62
256
6
ByLayer
370
18
48
1
60
0
100
AcDbLine
10
-10.569063
20
-28.48637
30
0
11
-10.033475
21
-29.352305
31
0
39
0
210
0
220
0
230
1
0
LINE
5
E4
100
AcDbEntity
8
1
62
256
6
ByLayer
370
18
48
1
60
0
100
AcDbLine
10
-17.964266
20
0.325
30
0
11
-18.089081
21
0.325
31
0
39
0
210
0
220
0
230
1
0
LINE
5
E5
100
AcDbEntity
8
1
62
256
6
ByLayer
370
18
48
1
60
0
100
AcDbLine
10
-17.536458
20
0.325
30
0
11
-17.964266
21
0.325
31
0
39
0
210
0
220
0
230
1
0
LINE
5
E6
100
AcDbEntity
8
1
62
256
6
ByLayer
370
18
48
1
60
0
100
AcDbLine
10
-14.576174
20
0.325
30
0
11
-13.55645
21
0.325
31
0
39
0
210
0
220
0
230
1
0
LINE
5
E7
100
AcDbEntity
8
1
62
256
6
ByLayer
370
18
48
1
60
0
100
AcDbLine
10
-14.881695
20
0.325
30
0
11
-14.576174
21
0.325
31
0
39
0
210
0
220
0
230
1
0
LINE
5
E8
100
AcDbEntity
8
1
62
256
6
ByLayer
370
18
48
1
60
0
100
AcDbLine
10
17.771675
20
-0.343279
30
0
11
17.934952
21
-0.343279
31
0
39
0
210
0
220
0
230
1
0
LINE
5
E9
100
AcDbEntity
8
1
62
256
6
ByLayer
370
18
48
1
60
0
100
AcDbLine
10
-17.375337
20
0.325
30
0
11
-16.832702
21
0.325
31
0
39
0
210
0
220
0
230
1
0
LINE
5
EA
100
AcDbEntity
8
1
62
256
6
ByLayer
370
18
48
1
60
0
100
AcDbLine
10
-17.536458
20
0.325
30
0
11
-17.375337
21
0.325
31
0
39
0
210
0
220
0
230
1
0
LINE
5
EB
100
AcDbEntity
8
1
62
256
6
ByLayer
370
18
48
1
60
0
100
AcDbLine
10
18.904826
20
-0.343279
30
0
11
19.002697
21
-0.343279
31
0
39
0
210
0
220
0
230
1
0
LINE
5
EC
100
AcDbEntity
8
1
62
256
6
ByLayer
370
18
48
1
60
0
100
AcDbLine
10
-17.749195
20
-26.114925
30
0
11
-17.575611
21
-26.124023
31
0
39
0
210
0
220
0
230
1
0
LINE
5
ED
100
AcDbEntity
8
1
62
256
6
ByLayer
370
18
48
1
60
0
100
AcDbLine
10
16.008511
20
-0.343279
30
0
11
16.254923
21
-0.343279
31
0
39
0
210
0
220
0
230
1
0
LINE
5
EE
100
AcDbEntity
8
1
62
256
6
ByLayer
370
18
48
1
60
0
100
AcDbLine
10
-18.401911
20
-22.542171
30
0
11
-18.558205
21
-22.53398
31
0
39
0
210
0
220
0
230
1
0
LINE
5
EF
100
AcDbEntity
8
1
62
256
6
ByLayer
370
18
48
1
60
0
100
AcDbLine
10
9.118793
20
-0.343279
30
0
11
9.764351
21
-0.343279
31
0
39
0
210
0
220
0
230
1
0
LINE
5
F0
100
AcDbEntity
8
1
62
256
6
ByLayer
370
18
48
1
60
0
100
AcDbLine
10
-9.084456
20
0.325
30
0
11
-6.61172
21
0.325
31
0
39
0
210
0
220
0
230
1
0
LINE
5
F1
100
AcDbEntity
8
1
62
256
6
ByLayer
370
18
48
1
60
0
100
AcDbLine
10
-9.741783
20
0.325
30
0
11
-9.084456
21
0.325
31
0
39
0
210
0
220
0
230
1
0
LINE
5
F2
100
AcDbEntity
8
1
62
256
6
ByLayer
370
18
48
1
60
0
100
AcDbLine
10
-18.924913
20
0.325
30
0
11
-18.790685
21
0.325
31
0
39
0
210
0
220
0
230
1
0
LINE
5
F3
100
AcDbEntity
8
1
62
256
6
ByLayer
370
18
48
1
60
0
100
AcDbLine
10
-18.954613
20
0.325
30
0
11
-18.924913
21
0.325
31
0
39
0
210
0
220
0
230
1
0
LINE
5
F4
100
AcDbEntity
8
1
62
256
6
ByLayer
370
18
48
1
60
0
100
AcDbLine
10
-13.230385
20
-30.210837
30
0
11
-13.068898
21
-30.471928
31
0
39
0
210
0
220
0
230
1
0
LINE
5
F5
100
AcDbEntity
8
1
62
256
6
ByLayer
370
18
48
1
60
0
100
AcDbLine
10
15.124567
20
-0.343279
30
0
11
14.823711
21
-0.343279
31
0
39
0
210
0
220
0
230
1
0
LINE
5
F6
100
AcDbEntity
8
1
62
256
6
ByLayer
370
18
48
1
60
0
100
AcDbLine
10
-18.999075
20
0.325
30
0
11
-18.954613
21
0.325
31
0
39
0
210
0
220
0
230
1
0
LINE
5
F7
100
AcDbEntity
8
1
62
256
6
ByLayer
370
18
48
1
60
0
100
AcDbLine
10
-17.623692
20
-24.22458
30
0
11
-17.793079
21
-24.215703
31
0
39
0
210
0
220
0
230
1
0
LINE
5
F8
100
AcDbEntity
8
1
62
256
6
ByLayer
370
18
48
1
60
0
100
AcDbLine
10
-19.617332
20
-26.094053
30
0
11
-19.447945
21
-26.10293
31
0
39
0
210
0
220
0
230
1
0
LINE
5
F9
100
AcDbEntity
8
SK1
62
256
6
ByLayer
370
18
48
1
60
0
100
AcDbLine
10
0
20
3.825
30
0
11
-2.65359
21
3.825
31
0
39
0
210
0
220
0
230
1
0
LINE
5
FA
100
AcDbEntity
8
SK1
62
256
6
ByLayer
370
18
48
1
60
0
100
AcDbLine
10
2.65359
20
3.825
30
0
11
0
21
3.825
31
0
39
0
210
0
220
0
230
1
0
LINE
5
FB
100
AcDbEntity
8
4
62
256
6
ByLayer
370
18
48
0.05
60
0
100
AcDbLine
10
0
20
0
30
0
11
0
21
-20
31
0
39
0
210
0
220
0
230
1
0
LINE
5
FD
100
AcDbEntity
8
SK4
62
256
6
ByLayer
370
18
48
0.05
60
0
100
AcDbLine
10
0
20
5
30
0
11
0
21
-42
31
0
39
0
210
0
220
0
230
1
0
LINE
5
FF
100
AcDbEntity
8
80
62
256
6
ByLayer
370
18
48
0.05
60
0
100
AcDbLine
10
0
20
0
30
0
11
0
21
2
31
0
39
0
210
0
220
0
230
1
0
LINE
5
100
100
AcDbEntity
8
81
62
256
6
ByLayer
370
18
48
0.05
60
0
100
AcDbLine
10
-27
20
-20
30
0
11
-27
21
-18
31
0
39
0
210
0
220
0
230
1
0
MTEXT
5
1D3
100
AcDbEntity
8
SK6
62
256
6
ByLayer
370
13
48
1
60
0
100
AcDbMText
10
-71.519771
20
-29.443237
30
0
210
0
220
0
230
1
1
\W0.7097;\T0.85;570-SDUCL-40-11X
40
3.175
41
0
44
0.963855
50
89.9999999999999
71
7
72
5
7
iso-1
0
ENDSEC
0
SECTION
2
OBJECTS
0
DICTIONARY
5
285
330
0
100
AcDbDictionary
280
0
281
1
3
ACAD_GROUP
350
286
3
ACAD_MLINESTYLE
350
287
0
DICTIONARY
5
286
330
0
100
AcDbDictionary
280
0
281
1
0
DICTIONARY
5
287
330
0
100
AcDbDictionary
280
0
281
1
3
Standard
350
18
0
MLINESTYLE
5
18
330
287
100
AcDbMlineStyle
2
Standard
70
0
3

62
256
51
90
52
90
71
2
49
-0.5
62
256
6
ByLayer
49
0.5
62
256
6
ByLayer
0
RASTERVARIABLES
5
272
330

100
AcDbRasterVariables
90
0
70
1
71
1
72
1
0
ENDSEC
0
EOF
