  0
SECTION
  2
HEADER
  9
$ACADVER
  1
AC1015
  9
$ACADMAINTVER
 70
    20
  9
$DWGCODEPAGE
  3
ANSI_1252
  9
$INSBASE
 10
0.0
 20
0.0
 30
0.0
  9
$EXTMIN
 10
-56.57216899999999
 20
-90.08118600000001
 30
0.0
  9
$EXTMAX
 10
102.155435
 20
16.62821175487501
 30
0.0
  9
$LIMMIN
 10
0.0
 20
0.0
  9
$LIMMAX
 10
12.0
 20
9.0
  9
$ORTHOMODE
 70
     0
  9
$REGENMODE
 70
     1
  9
$FILLMODE
 70
     1
  9
$QTEXTMODE
 70
     0
  9
$MIRRTEXT
 70
     1
  9
$LTSCALE
 40
1.0
  9
$ATTMODE
 70
     1
  9
$TEXTSIZE
 40
0.11811
  9
$TRACEWID
 40
0.3937
  9
$TEXTSTYLE
  7
SANDVIK_STYLE
  9
$CLAYER
  8
1
  9
$CELTYPE
  6
ByLayer
  9
$CECOLOR
 62
   256
  9
$CELTSCALE
 40
1.0
  9
$DISPSILH
 70
     0
  9
$DIMSCALE
 40
1.0
  9
$DIMASZ
 40
0.18
  9
$DIMEXO
 40
0.0625
  9
$DIMDLI
 40
0.38
  9
$DIMRND
 40
0.0
  9
$DIMDLE
 40
0.0
  9
$DIMEXE
 40
0.18
  9
$DIMTP
 40
0.0
  9
$DIMTM
 40
0.0
  9
$DIMTXT
 40
0.18
  9
$DIMCEN
 40
0.09
  9
$DIMTSZ
 40
0.0
  9
$DIMTOL
 70
     0
  9
$DIMLIM
 70
     0
  9
$DIMTIH
 70
     1
  9
$DIMTOH
 70
     1
  9
$DIMSE1
 70
     0
  9
$DIMSE2
 70
     0
  9
$DIMTAD
 70
     0
  9
$DIMZIN
 70
     0
  9
$DIMBLK
  1

  9
$DIMASO
 70
     1
  9
$DIMSHO
 70
     1
  9
$DIMPOST
  1

  9
$DIMAPOST
  1

  9
$DIMALT
 70
     0
  9
$DIMALTD
 70
     2
  9
$DIMALTF
 40
25.4
  9
$DIMLFAC
 40
1.0
  9
$DIMTOFL
 70
     0
  9
$DIMTVP
 40
0.0
  9
$DIMTIX
 70
     0
  9
$DIMSOXD
 70
     0
  9
$DIMSAH
 70
     0
  9
$DIMBLK1
  1

  9
$DIMBLK2
  1

  9
$DIMSTYLE
  2
STANDARD
  9
$DIMCLRD
 70
     0
  9
$DIMCLRE
 70
     0
  9
$DIMCLRT
 70
     0
  9
$DIMTFAC
 40
1.0
  9
$DIMGAP
 40
0.09
  9
$DIMJUST
 70
     0
  9
$DIMSD1
 70
     0
  9
$DIMSD2
 70
     0
  9
$DIMTOLJ
 70
     1
  9
$DIMTZIN
 70
     0
  9
$DIMALTZ
 70
     0
  9
$DIMALTTZ
 70
     0
  9
$DIMUPT
 70
     0
  9
$DIMDEC
 70
     4
  9
$DIMTDEC
 70
     4
  9
$DIMALTU
 70
     2
  9
$DIMALTTD
 70
     2
  9
$DIMTXSTY
  7
STANDARD
  9
$DIMAUNIT
 70
     0
  9
$DIMADEC
 70
     0
  9
$DIMALTRND
 40
0.0
  9
$DIMAZIN
 70
     0
  9
$DIMDSEP
 70
    46
  9
$DIMATFIT
 70
     3
  9
$DIMFRAC
 70
     0
  9
$DIMLDRBLK
  1

  9
$DIMLUNIT
 70
     2
  9
$DIMLWD
 70
    -2
  9
$DIMLWE
 70
    -2
  9
$DIMTMOVE
 70
     0
  9
$LUNITS
 70
     2
  9
$LUPREC
 70
     2
  9
$SKETCHINC
 40
0.0
  9
$FILLETRAD
 40
0.0
  9
$AUNITS
 70
     0
  9
$AUPREC
 70
     2
  9
$MENU
  1
acad
  9
$ELEVATION
 40
0.0
  9
$PELEVATION
 40
0.0
  9
$THICKNESS
 40
0.0
  9
$LIMCHECK
 70
     0
  9
$CHAMFERA
 40
0.0
  9
$CHAMFERB
 40
0.0
  9
$CHAMFERC
 40
0.0
  9
$CHAMFERD
 40
0.0
  9
$SKPOLY
 70
     0
  9
$TDCREATE
 40
2456818.356680220
  9
$TDUCREATE
 40
2456818.273346887
  9
$TDUPDATE
 40
2456818.356686574
  9
$TDUUPDATE
 40
2456818.273353241
  9
$TDINDWG
 40
0.0000072569
  9
$TDUSRTIMER
 40
0.0000072569
  9
$USRTIMER
 70
     1
  9
$ANGBASE
 50
0.0
  9
$ANGDIR
 70
     0
  9
$PDMODE
 70
     0
  9
$PDSIZE
 40
0.0
  9
$PLINEWID
 40
0.0
  9
$SPLFRAME
 70
     0
  9
$SPLINETYPE
 70
     6
  9
$SPLINESEGS
 70
     8
  9
$HANDSEED
  5
91D
  9
$SURFTAB1
 70
     6
  9
$SURFTAB2
 70
     6
  9
$SURFTYPE
 70
     6
  9
$SURFU
 70
     6
  9
$SURFV
 70
     6
  9
$UCSBASE
  2

  9
$UCSNAME
  2

  9
$UCSORG
 10
0.0
 20
0.0
 30
0.0
  9
$UCSXDIR
 10
1.0
 20
0.0
 30
0.0
  9
$UCSYDIR
 10
0.0
 20
1.0
 30
0.0
  9
$UCSORTHOREF
  2

  9
$UCSORTHOVIEW
 70
     0
  9
$UCSORGTOP
 10
0.0
 20
0.0
 30
0.0
  9
$UCSORGBOTTOM
 10
0.0
 20
0.0
 30
0.0
  9
$UCSORGLEFT
 10
0.0
 20
0.0
 30
0.0
  9
$UCSORGRIGHT
 10
0.0
 20
0.0
 30
0.0
  9
$UCSORGFRONT
 10
0.0
 20
0.0
 30
0.0
  9
$UCSORGBACK
 10
0.0
 20
0.0
 30
0.0
  9
$PUCSBASE
  2

  9
$PUCSNAME
  2

  9
$PUCSORG
 10
0.0
 20
0.0
 30
0.0
  9
$PUCSXDIR
 10
1.0
 20
0.0
 30
0.0
  9
$PUCSYDIR
 10
0.0
 20
1.0
 30
0.0
  9
$PUCSORTHOREF
  2

  9
$PUCSORTHOVIEW
 70
     0
  9
$PUCSORGTOP
 10
0.0
 20
0.0
 30
0.0
  9
$PUCSORGBOTTOM
 10
0.0
 20
0.0
 30
0.0
  9
$PUCSORGLEFT
 10
0.0
 20
0.0
 30
0.0
  9
$PUCSORGRIGHT
 10
0.0
 20
0.0
 30
0.0
  9
$PUCSORGFRONT
 10
0.0
 20
0.0
 30
0.0
  9
$PUCSORGBACK
 10
0.0
 20
0.0
 30
0.0
  9
$USERI1
 70
     0
  9
$USERI2
 70
     0
  9
$USERI3
 70
     0
  9
$USERI4
 70
     0
  9
$USERI5
 70
     0
  9
$USERR1
 40
0.0
  9
$USERR2
 40
0.0
  9
$USERR3
 40
0.0
  9
$USERR4
 40
0.0
  9
$USERR5
 40
0.0
  9
$WORLDVIEW
 70
     1
  9
$SHADEDGE
 70
     3
  9
$SHADEDIF
 70
    70
  9
$TILEMODE
 70
     1
  9
$MAXACTVP
 70
    16
  9
$PINSBASE
 10
0.0
 20
0.0
 30
0.0
  9
$PLIMCHECK
 70
     0
  9
$PEXTMIN
 10
1.000000000000000E+20
 20
1.000000000000000E+20
 30
1.000000000000000E+20
  9
$PEXTMAX
 10
-1.000000000000000E+20
 20
-1.000000000000000E+20
 30
-1.000000000000000E+20
  9
$PLIMMIN
 10
0.0
 20
0.0
  9
$PLIMMAX
 10
12.0
 20
9.0
  9
$UNITMODE
 70
     0
  9
$VISRETAIN
 70
     0
  9
$PLINEGEN
 70
     0
  9
$PSLTSCALE
 70
     1
  9
$TREEDEPTH
 70
  3020
  9
$CMLSTYLE
  2
Standard
  9
$CMLJUST
 70
     0
  9
$CMLSCALE
 40
1.0
  9
$PROXYGRAPHICS
 70
     1
  9
$MEASUREMENT
 70
     0
  9
$CELWEIGHT
370
    -1
  9
$ENDCAPS
280
     0
  9
$JOINSTYLE
280
     0
  9
$LWDISPLAY
290
     0
  9
$INSUNITS
 70
     0
  9
$HYPERLINKBASE
  1

  9
$STYLESHEET
  1

  9
$XEDIT
290
     1
  9
$CEPSNTYPE
380
     0
  9
$PSTYLEMODE
290
     1
  9
$FINGERPRINTGUID
  2
{1FCC41E1-BF2A-47D8-A91D-81553EE12A2C}
  9
$VERSIONGUID
  2
{0DB4EBF3-3B75-4106-A823-240A07DE052E}
  9
$EXTNAMES
290
     1
  9
$PSVPSCALE
 40
0.0
  9
$OLESTARTUP
290
     0
  0
ENDSEC
  0
SECTION
  2
CLASSES
  0
CLASS
  1
ACDBDICTIONARYWDFLT
  2
AcDbDictionaryWithDefault
  3
ObjectDBX Classes
 90
        0
280
     0
281
     0
  0
CLASS
  1
MATERIAL
  2
AcDbMaterial
  3
ObjectDBX Classes
 90
     1153
280
     0
281
     0
  0
CLASS
  1
VISUALSTYLE
  2
AcDbVisualStyle
  3
ObjectDBX Classes
 90
     4095
280
     0
281
     0
  0
CLASS
  1
SCALE
  2
AcDbScale
  3
ObjectDBX Classes
 90
     1153
280
     0
281
     0
  0
CLASS
  1
TABLESTYLE
  2
AcDbTableStyle
  3
ObjectDBX Classes
 90
     4095
280
     0
281
     0
  0
CLASS
  1
MLEADERSTYLE
  2
AcDbMLeaderStyle
  3
ACDB_MLEADERSTYLE_CLASS
 90
     4095
280
     0
281
     0
  0
CLASS
  1
ACDBSECTIONVIEWSTYLE
  2
AcDbSectionViewStyle
  3
ObjectDBX Classes
 90
     1025
280
     0
281
     0
  0
CLASS
  1
ACDBDETAILVIEWSTYLE
  2
AcDbDetailViewStyle
  3
ObjectDBX Classes
 90
     1025
280
     0
281
     0
  0
CLASS
  1
EXACXREFPANELOBJECT
  2
ExAcXREFPanelObject
  3
EXAC_ESW
 90
     1025
280
     0
281
     0
  0
CLASS
  1
NPOCOLLECTION
  2
AcDbImpNonPersistentObjectsCollection
  3
ObjectDBX Classes
 90
     1153
280
     0
281
     0
  0
CLASS
  1
DICTIONARYVAR
  2
AcDbDictionaryVar
  3
ObjectDBX Classes
 90
        0
280
     0
281
     0
  0
CLASS
  1
CELLSTYLEMAP
  2
AcDbCellStyleMap
  3
ObjectDBX Classes
 90
     1152
280
     0
281
     0
  0
CLASS
  1
ACDBPLACEHOLDER
  2
AcDbPlaceHolder
  3
ObjectDBX Classes
 90
        0
280
     0
281
     0
  0
CLASS
  1
LAYOUT
  2
AcDbLayout
  3
ObjectDBX Classes
 90
        0
280
     0
281
     0
  0
ENDSEC
  0
SECTION
  2
TABLES
  0
TABLE
  2
VPORT
  5
7E9
330
0
100
AcDbSymbolTable
 70
     1
  0
VPORT
  5
880
330
7E9
100
AcDbSymbolTableRecord
100
AcDbViewportTableRecord
  2
*Active
 70
     0
 10
0.0
 20
0.0
 11
1.0
 21
1.0
 12
22.79163299999998
 22
-36.7264871225625
 13
0.0
 23
0.0
 14
1.0
 24
1.0
 15
0.0
 25
0.0
 16
0.0
 26
0.0
 36
1.0
 17
0.0
 27
0.0
 37
0.0
 40
119.416949640623
 41
2.2
 42
50.0
 43
0.0
 44
0.0
 50
0.0
 51
0.0
 71
     0
 72
   100
 73
     1
 74
     1
 75
     0
 76
     0
 77
     0
 78
     0
281
     0
 65
     1
110
0.0
120
0.0
130
0.0
111
1.0
121
0.0
131
0.0
112
0.0
122
1.0
132
0.0
 79
     0
146
0.0
1001
ACAD_NAV_VCDISPLAY
1070
     3
  0
ENDTAB
  0
TABLE
  2
LTYPE
  5
7E6
330
0
100
AcDbSymbolTable
 70
     4
  0
LTYPE
  5
83B
330
7E6
100
AcDbSymbolTableRecord
100
AcDbLinetypeTableRecord
  2
ByBlock
 70
     0
  3

 72
    65
 73
     0
 40
0.0
  0
LTYPE
  5
83C
330
7E6
100
AcDbSymbolTableRecord
100
AcDbLinetypeTableRecord
  2
ByLayer
 70
     0
  3

 72
    65
 73
     0
 40
0.0
  0
LTYPE
  5
83D
330
7E6
100
AcDbSymbolTableRecord
100
AcDbLinetypeTableRecord
  2
CONTINUOUS
 70
     0
  3
Solid line
 72
    65
 73
     0
 40
0.0
  0
LTYPE
  5
849
330
7E6
100
AcDbSymbolTableRecord
100
AcDbLinetypeTableRecord
  2
PHANTOM2
 70
     0
  3
Phantom (.5x) ___ _ _ ___ _ _ ___ _ _ ___ _ _
 72
    65
 73
     6
 40
1.25
 49
0.625
 74
     0
 49
-0.125
 74
     0
 49
0.125
 74
     0
 49
-0.125
 74
     0
 49
0.125
 74
     0
 49
-0.125
 74
     0
  0
LTYPE
  5
857
330
7E6
100
AcDbSymbolTableRecord
100
AcDbLinetypeTableRecord
  2
CENTER
 70
     0
  3
____ _ ____ _ ____ _ ____ _ ____ _ ____ _ ____
 72
    65
 73
     4
 40
0.1992
 49
0.1245
 74
     0
 49
-0.0249
 74
     0
 49
0.0249
 74
     0
 49
-0.0249
 74
     0
  0
LTYPE
  5
858
330
7E6
100
AcDbSymbolTableRecord
100
AcDbLinetypeTableRecord
  2
DASHED
 70
     0
  3
__ __ __ __ __ __ __ __ __ __ __ __ __ __ __ __
 72
    65
 73
     2
 40
0.29881
 49
0.1992
 74
     0
 49
-0.099604
 74
     0
  0
ENDTAB
  0
TABLE
  2
LAYER
  5
7E3
330
0
100
AcDbSymbolTable
 70
    38
  0
LAYER
  5
835
102
{ACAD_XDICTIONARY
360
889
102
}
330
7E3
100
AcDbSymbolTableRecord
100
AcDbLayerTableRecord
  2
0
 70
     0
 62
     7
  6
CONTINUOUS
370
    -3
390
7F0
  0
LAYER
  5
855
102
{ACAD_XDICTIONARY
360
88B
102
}
330
7E3
100
AcDbSymbolTableRecord
100
AcDbLayerTableRecord
  2
1
 70
     0
 62
     4
  6
CONTINUOUS
370
    -3
390
7F0
  0
LAYER
  5
859
102
{ACAD_XDICTIONARY
360
88D
102
}
330
7E3
100
AcDbSymbolTableRecord
100
AcDbLayerTableRecord
  2
61
 70
     0
 62
     5
  6
CONTINUOUS
370
    -3
390
7F0
  0
LAYER
  5
85A
102
{ACAD_XDICTIONARY
360
88F
102
}
330
7E3
100
AcDbSymbolTableRecord
100
AcDbLayerTableRecord
  2
62
 70
     0
 62
    -5
  6
CONTINUOUS
370
    -3
390
7F0
  0
LAYER
  5
85B
102
{ACAD_XDICTIONARY
360
891
102
}
330
7E3
100
AcDbSymbolTableRecord
100
AcDbLayerTableRecord
  2
63
 70
     0
 62
    -5
  6
CONTINUOUS
370
    -3
390
7F0
  0
LAYER
  5
85C
102
{ACAD_XDICTIONARY
360
893
102
}
330
7E3
100
AcDbSymbolTableRecord
100
AcDbLayerTableRecord
  2
64
 70
     0
 62
    -5
  6
CONTINUOUS
370
    -3
390
7F0
  0
LAYER
  5
85D
102
{ACAD_XDICTIONARY
360
895
102
}
330
7E3
100
AcDbSymbolTableRecord
100
AcDbLayerTableRecord
  2
65
 70
     0
 62
    -5
  6
CONTINUOUS
370
    -3
390
7F0
  0
LAYER
  5
85E
102
{ACAD_XDICTIONARY
360
897
102
}
330
7E3
100
AcDbSymbolTableRecord
100
AcDbLayerTableRecord
  2
66
 70
     0
 62
    -5
  6
CONTINUOUS
370
    -3
390
7F0
  0
LAYER
  5
85F
102
{ACAD_XDICTIONARY
360
899
102
}
330
7E3
100
AcDbSymbolTableRecord
100
AcDbLayerTableRecord
  2
67
 70
     0
 62
    -5
  6
CONTINUOUS
370
    -3
390
7F0
  0
LAYER
  5
860
102
{ACAD_XDICTIONARY
360
89B
102
}
330
7E3
100
AcDbSymbolTableRecord
100
AcDbLayerTableRecord
  2
68
 70
     0
 62
    -5
  6
CONTINUOUS
370
    -3
390
7F0
  0
LAYER
  5
861
102
{ACAD_XDICTIONARY
360
89D
102
}
330
7E3
100
AcDbSymbolTableRecord
100
AcDbLayerTableRecord
  2
69
 70
     0
 62
    -5
  6
CONTINUOUS
370
    -3
390
7F0
  0
LAYER
  5
862
102
{ACAD_XDICTIONARY
360
89F
102
}
330
7E3
100
AcDbSymbolTableRecord
100
AcDbLayerTableRecord
  2
70
 70
     0
 62
     5
  6
CONTINUOUS
370
    -3
390
7F0
  0
LAYER
  5
863
102
{ACAD_XDICTIONARY
360
8A1
102
}
330
7E3
100
AcDbSymbolTableRecord
100
AcDbLayerTableRecord
  2
2
 70
     0
 62
     7
  6
CONTINUOUS
370
    -3
390
7F0
  0
LAYER
  5
864
102
{ACAD_XDICTIONARY
360
8A3
102
}
330
7E3
100
AcDbSymbolTableRecord
100
AcDbLayerTableRecord
  2
3
 70
     0
 62
     1
  6
DASHED
370
    -3
390
7F0
  0
LAYER
  5
865
102
{ACAD_XDICTIONARY
360
8A5
102
}
330
7E3
100
AcDbSymbolTableRecord
100
AcDbLayerTableRecord
  2
4
 70
     0
 62
    -2
  6
CENTER
370
    -3
390
7F0
  0
LAYER
  5
866
102
{ACAD_XDICTIONARY
360
8A7
102
}
330
7E3
100
AcDbSymbolTableRecord
100
AcDbLayerTableRecord
  2
5
 70
     0
 62
    -7
  6
CONTINUOUS
370
    -3
390
7F0
  0
LAYER
  5
867
102
{ACAD_XDICTIONARY
360
8A9
102
}
330
7E3
100
AcDbSymbolTableRecord
100
AcDbLayerTableRecord
  2
SK1
 70
     0
 62
     4
  6
CONTINUOUS
370
    -3
390
7F0
  0
LAYER
  5
868
102
{ACAD_XDICTIONARY
360
8AB
102
}
330
7E3
100
AcDbSymbolTableRecord
100
AcDbLayerTableRecord
  2
6
 70
     0
 62
     5
  6
CONTINUOUS
370
    -3
390
7F0
  0
LAYER
  5
869
102
{ACAD_XDICTIONARY
360
8AD
102
}
330
7E3
100
AcDbSymbolTableRecord
100
AcDbLayerTableRecord
  2
SK2
 70
     0
 62
     7
  6
CONTINUOUS
370
    -3
390
7F0
  0
LAYER
  5
86A
102
{ACAD_XDICTIONARY
360
8AF
102
}
330
7E3
100
AcDbSymbolTableRecord
100
AcDbLayerTableRecord
  2
SK3
 70
     0
 62
     1
  6
DASHED
370
    -3
390
7F0
  0
LAYER
  5
86B
102
{ACAD_XDICTIONARY
360
8B1
102
}
330
7E3
100
AcDbSymbolTableRecord
100
AcDbLayerTableRecord
  2
SK4
 70
     0
 62
     2
  6
CENTER
370
    -3
390
7F0
  0
LAYER
  5
86C
102
{ACAD_XDICTIONARY
360
8B3
102
}
330
7E3
100
AcDbSymbolTableRecord
100
AcDbLayerTableRecord
  2
CUT
 70
     0
 62
    -1
  6
CONTINUOUS
370
    -3
390
7F0
  0
LAYER
  5
86D
102
{ACAD_XDICTIONARY
360
8B5
102
}
330
7E3
100
AcDbSymbolTableRecord
100
AcDbLayerTableRecord
  2
SK6
 70
     0
 62
     5
  6
CONTINUOUS
370
    -3
390
7F0
  0
LAYER
  5
86E
102
{ACAD_XDICTIONARY
360
8B7
102
}
330
7E3
100
AcDbSymbolTableRecord
100
AcDbLayerTableRecord
  2
80
 70
     0
 62
    -2
  6
CENTER
370
    -3
390
7F0
  0
LAYER
  5
86F
102
{ACAD_XDICTIONARY
360
8B9
102
}
330
7E3
100
AcDbSymbolTableRecord
100
AcDbLayerTableRecord
  2
81
 70
     0
 62
    -2
  6
CENTER
370
    -3
390
7F0
  0
LAYER
  5
870
102
{ACAD_XDICTIONARY
360
8BB
102
}
330
7E3
100
AcDbSymbolTableRecord
100
AcDbLayerTableRecord
  2
82
 70
     0
 62
    -2
  6
CENTER
370
    -3
390
7F0
  0
LAYER
  5
871
102
{ACAD_XDICTIONARY
360
8BD
102
}
330
7E3
100
AcDbSymbolTableRecord
100
AcDbLayerTableRecord
  2
NOCUT
 70
     0
 62
     7
  6
CONTINUOUS
370
    -3
390
7F0
  0
LAYER
  5
872
102
{ACAD_XDICTIONARY
360
8BF
102
}
330
7E3
100
AcDbSymbolTableRecord
100
AcDbLayerTableRecord
  2
50
 70
     0
 62
    -7
  6
CONTINUOUS
370
    -3
390
7F0
  0
LAYER
  5
873
102
{ACAD_XDICTIONARY
360
8C1
102
}
330
7E3
100
AcDbSymbolTableRecord
100
AcDbLayerTableRecord
  2
51
 70
     0
 62
     7
  6
CONTINUOUS
370
    -3
390
7F0
  0
LAYER
  5
874
102
{ACAD_XDICTIONARY
360
8C3
102
}
330
7E3
100
AcDbSymbolTableRecord
100
AcDbLayerTableRecord
  2
52
 70
     0
 62
    -7
  6
CONTINUOUS
370
    -3
390
7F0
  0
LAYER
  5
875
102
{ACAD_XDICTIONARY
360
8C5
102
}
330
7E3
100
AcDbSymbolTableRecord
100
AcDbLayerTableRecord
  2
53
 70
     0
 62
    -7
  6
CONTINUOUS
370
    -3
390
7F0
  0
LAYER
  5
876
102
{ACAD_XDICTIONARY
360
8C7
102
}
330
7E3
100
AcDbSymbolTableRecord
100
AcDbLayerTableRecord
  2
54
 70
     0
 62
    -7
  6
CONTINUOUS
370
    -3
390
7F0
  0
LAYER
  5
877
102
{ACAD_XDICTIONARY
360
8C9
102
}
330
7E3
100
AcDbSymbolTableRecord
100
AcDbLayerTableRecord
  2
55
 70
     0
 62
    -7
  6
CONTINUOUS
370
    -3
390
7F0
  0
LAYER
  5
878
102
{ACAD_XDICTIONARY
360
8CB
102
}
330
7E3
100
AcDbSymbolTableRecord
100
AcDbLayerTableRecord
  2
56
 70
     0
 62
    -7
  6
CONTINUOUS
370
    -3
390
7F0
  0
LAYER
  5
879
102
{ACAD_XDICTIONARY
360
8CD
102
}
330
7E3
100
AcDbSymbolTableRecord
100
AcDbLayerTableRecord
  2
57
 70
     0
 62
    -7
  6
CONTINUOUS
370
    -3
390
7F0
  0
LAYER
  5
87A
102
{ACAD_XDICTIONARY
360
8CF
102
}
330
7E3
100
AcDbSymbolTableRecord
100
AcDbLayerTableRecord
  2
58
 70
     0
 62
    -7
  6
CONTINUOUS
370
    -3
390
7F0
  0
LAYER
  5
87B
102
{ACAD_XDICTIONARY
360
8D1
102
}
330
7E3
100
AcDbSymbolTableRecord
100
AcDbLayerTableRecord
  2
2L
 70
     0
 62
     7
  6
CONTINUOUS
370
    -3
390
7F0
  0
LAYER
  5
87C
102
{ACAD_XDICTIONARY
360
8D3
102
}
330
7E3
100
AcDbSymbolTableRecord
100
AcDbLayerTableRecord
  2
59
 70
     0
 62
    -7
  6
CONTINUOUS
370
    -3
390
7F0
  0
ENDTAB
  0
TABLE
  2
STYLE
  5
7E4
330
0
100
AcDbSymbolTable
 70
     3
  0
STYLE
  5
836
330
7E4
100
AcDbSymbolTableRecord
100
AcDbTextStyleTableRecord
  2
STANDARD
 70
     0
 40
0.0
 41
1.0
 50
0.0
 71
     0
 42
0.177165
  3
simplex.shx
  4

  0
STYLE
  5
83A
330
7E4
100
AcDbSymbolTableRecord
100
AcDbTextStyleTableRecord
  2
Annotative
 70
     0
 40
0.0
 41
1.0
 50
0.0
 71
     0
 42
0.2
  3
txt
  4

1001
AcadAnnotative
1000
AnnotativeData
1002
{
1070
     1
1070
     1
1002
}
  0
STYLE
  5
856
330
7E4
100
AcDbSymbolTableRecord
100
AcDbTextStyleTableRecord
  2
SANDVIK_STYLE
 70
     0
 40
0.11811
 41
1.0
 50
0.0
 71
     0
 42
0.11811
  3
simplex.shx
  4

  0
ENDTAB
  0
TABLE
  2
VIEW
  5
7E7
330
0
100
AcDbSymbolTable
 70
     0
  0
ENDTAB
  0
TABLE
  2
UCS
  5
7E8
330
0
100
AcDbSymbolTable
 70
     0
  0
ENDTAB
  0
TABLE
  2
APPID
  5
7EA
330
0
100
AcDbSymbolTable
 70
     4
  0
APPID
  5
837
330
7EA
100
AcDbSymbolTableRecord
100
AcDbRegAppTableRecord
  2
ACAD
 70
     0
  0
APPID
  5
83E
330
7EA
100
AcDbSymbolTableRecord
100
AcDbRegAppTableRecord
  2
AcadAnnotative
 70
     0
  0
APPID
  5
8DF
330
7EA
100
AcDbSymbolTableRecord
100
AcDbRegAppTableRecord
  2
ACAD_NAV_VCDISPLAY
 70
     0
  0
APPID
  5
918
330
7EA
100
AcDbSymbolTableRecord
100
AcDbRegAppTableRecord
  2
ACAD_MLEADERVER
 70
     0
  0
ENDTAB
  0
TABLE
  2
DIMSTYLE
  5
7EB
330
0
100
AcDbSymbolTable
 70
     3
100
AcDbDimStyleTable
 71
     0
  0
DIMSTYLE
105
838
330
7EB
100
AcDbSymbolTableRecord
100
AcDbDimStyleTableRecord
  2
STANDARD
 70
     0
  4
 
 43
0.18
 44
2.5
 46
1.25
 73
     0
 74
     0
140
0.11811
141
-3.0
143
0.039
145
1.5
146
0.75
147
1.5
271
     2
272
     2
279
     2
340
856
  0
DIMSTYLE
105
839
330
7EB
100
AcDbSymbolTableRecord
100
AcDbDimStyleTableRecord
  2
Annotative
 70
     0
340
836
1001
AcadAnnotative
1000
AnnotativeData
1002
{
1070
     1
1070
     1
1002
}
  0
DIMSTYLE
105
87D
330
7EB
100
AcDbSymbolTableRecord
100
AcDbDimStyleTableRecord
  2
SANDVIK_DIM
 70
     0
  4
 
 40
0.0
 42
0.0
 73
     0
 74
     0
 77
     1
 78
     8
173
     1
176
   256
177
   256
178
   256
271
     2
272
     2
279
     2
340
856
  0
ENDTAB
  0
TABLE
  2
BLOCK_RECORD
  5
7E2
330
0
100
AcDbSymbolTable
 70
     4
  0
BLOCK_RECORD
  5
851
330
7E2
100
AcDbSymbolTableRecord
100
AcDbBlockTableRecord
  2
*Model_Space
340
854
  0
BLOCK_RECORD
  5
84D
330
7E2
100
AcDbSymbolTableRecord
100
AcDbBlockTableRecord
  2
*Paper_Space
340
850
  0
BLOCK_RECORD
  5
881
330
7E2
100
AcDbSymbolTableRecord
100
AcDbBlockTableRecord
  2
ASSORTEDPART1
340
0
102
{BLKREFS
331
4D4
102
}
  0
BLOCK_RECORD
  5
882
330
7E2
100
AcDbSymbolTableRecord
100
AcDbBlockTableRecord
  2
ASSORTEDPART2
340
0
102
{BLKREFS
331
4D5
102
}
  0
BLOCK_RECORD
  5
883
330
7E2
100
AcDbSymbolTableRecord
100
AcDbBlockTableRecord
  2
ASSORTEDPART3
340
0
102
{BLKREFS
331
4D6
102
}
  0
BLOCK_RECORD
  5
884
330
7E2
100
AcDbSymbolTableRecord
100
AcDbBlockTableRecord
  2
ASSORTEDPART4
340
0
102
{BLKREFS
331
4D7
102
}
  0
ENDTAB
  0
ENDSEC
  0
SECTION
  2
BLOCKS
  0
BLOCK
  5
852
330
851
100
AcDbEntity
  8
0
100
AcDbBlockBegin
  2
*Model_Space
 70
     0
 10
0.0
 20
0.0
 30
0.0
  3
*Model_Space
  1

  0
ENDBLK
  5
853
330
851
100
AcDbEntity
  8
0
100
AcDbBlockEnd
  0
BLOCK
  5
84E
330
84D
100
AcDbEntity
 67
     1
  8
0
100
AcDbBlockBegin
  2
*Paper_Space
 70
     0
 10
0.0
 20
0.0
 30
0.0
  3
*Paper_Space
  1

  0
ENDBLK
  5
84F
330
84D
100
AcDbEntity
 67
     1
  8
0
100
AcDbBlockEnd
  0
BLOCK
  5
2
330
881
100
AcDbEntity
  8
0
100
AcDbBlockBegin
  2
ASSORTEDPART1
 70
     0
 10
0.0
 20
0.0
 30
0.0
  3
ASSORTEDPART1
  1

  0
LINE
  5
3
330
881
100
AcDbEntity
  8
0
100
AcDbLine
 10
1.587499999999999
 20
0.0
 30
0.0
 11
102.155435
 21
0.0
 31
0.0
  0
LINE
  5
4
330
881
100
AcDbEntity
  8
0
100
AcDbLine
 10
1.587499999999999
 20
-65.0
 30
0.0
 11
102.155435
 21
-65.0
 31
0.0
  0
LINE
  5
5
330
881
100
AcDbEntity
  8
0
100
AcDbLine
 10
98.98043499999999
 20
0.0
 30
0.0
 11
98.98043499999999
 21
-65.0
 31
0.0
  0
LINE
  5
6
330
881
100
AcDbEntity
  8
0
100
AcDbLine
 10
98.98043499999999
 20
0.0
 30
0.0
 11
99.398431
 21
-3.174997999999999
 31
0.0
  0
LINE
  5
7
330
881
100
AcDbEntity
  8
0
100
AcDbLine
 10
99.398431
 20
-3.174997999999999
 30
0.0
 11
98.56243800000001
 21
-3.175002
 31
0.0
  0
LINE
  5
8
330
881
100
AcDbEntity
  8
0
100
AcDbLine
 10
98.56243800000001
 20
-3.175002
 30
0.0
 11
98.98043499999999
 21
0.0
 31
0.0
  0
LINE
  5
9
330
881
100
AcDbEntity
  8
0
100
AcDbLine
 10
98.98043499999999
 20
0.0
 30
0.0
 11
98.98043499999999
 21
0.0
 31
0.0
  0
LINE
  5
A
330
881
100
AcDbEntity
  8
0
100
AcDbLine
 10
98.98043499999999
 20
-65.0
 30
0.0
 11
98.56243800000001
 21
-61.825002
 31
0.0
  0
LINE
  5
B
330
881
100
AcDbEntity
  8
0
100
AcDbLine
 10
98.56243800000001
 20
-61.825002
 30
0.0
 11
99.398431
 21
-61.824998
 31
0.0
  0
LINE
  5
C
330
881
100
AcDbEntity
  8
0
100
AcDbLine
 10
99.398431
 20
-61.824998
 30
0.0
 11
98.98043499999999
 21
-65.0
 31
0.0
  0
LINE
  5
D
330
881
100
AcDbEntity
  8
0
100
AcDbLine
 10
98.98043499999999
 20
-65.0
 30
0.0
 11
98.98043499999999
 21
-65.0
 31
0.0
  0
TEXT
  5
E
330
881
100
AcDbEntity
  8
0
100
AcDbText
 10
98.462408
 20
-33.951551
 30
0.0
 40
3.174999999999999
  1
65
 50
90.0
 41
1.284191144048171
  7
SANDVIK_STYLE
 72
     5
 11
98.462408
 21
-27.350197
 31
0.0
100
AcDbText
  0
ENDBLK
  5
F
330
881
100
AcDbEntity
  8
0
100
AcDbBlockEnd
  0
BLOCK
  5
10
330
882
100
AcDbEntity
  8
0
100
AcDbBlockBegin
  2
ASSORTEDPART2
 70
     0
 10
0.0
 20
0.0
 30
0.0
  3
ASSORTEDPART2
  1

  0
LINE
  5
11
330
882
100
AcDbEntity
  8
0
100
AcDbLine
 10
0.0
 20
-66.58750000000001
 30
0.0
 11
0.0
 21
-78.036924
 31
0.0
  0
LINE
  5
12
330
882
100
AcDbEntity
  8
0
100
AcDbLine
 10
74.0
 20
-55.476846
 30
0.0
 11
74.0
 21
-78.036924
 31
0.0
  0
LINE
  5
13
330
882
100
AcDbEntity
  8
0
100
AcDbLine
 10
0.0
 20
-74.861924
 30
0.0
 11
74.0
 21
-74.861924
 31
0.0
  0
LINE
  5
14
330
882
100
AcDbEntity
  8
0
100
AcDbLine
 10
0.0
 20
-74.861924
 30
0.0
 11
3.174997999999999
 21
-74.443927
 31
0.0
  0
LINE
  5
15
330
882
100
AcDbEntity
  8
0
100
AcDbLine
 10
3.174997999999999
 20
-74.443927
 30
0.0
 11
3.175002
 21
-75.27991999999999
 31
0.0
  0
LINE
  5
16
330
882
100
AcDbEntity
  8
0
100
AcDbLine
 10
3.175002
 20
-75.27991999999999
 30
0.0
 11
0.0
 21
-74.861924
 31
0.0
  0
LINE
  5
17
330
882
100
AcDbEntity
  8
0
100
AcDbLine
 10
0.0
 20
-74.861924
 30
0.0
 11
0.0
 21
-74.861924
 31
0.0
  0
LINE
  5
18
330
882
100
AcDbEntity
  8
0
100
AcDbLine
 10
74.0
 20
-74.861924
 30
0.0
 11
70.825002
 21
-75.27991999999999
 31
0.0
  0
LINE
  5
19
330
882
100
AcDbEntity
  8
0
100
AcDbLine
 10
70.825002
 20
-75.27991999999999
 30
0.0
 11
70.82499799999999
 21
-74.443927
 31
0.0
  0
LINE
  5
1A
330
882
100
AcDbEntity
  8
0
100
AcDbLine
 10
70.82499799999999
 20
-74.443927
 30
0.0
 11
74.0
 21
-74.861924
 31
0.0
  0
LINE
  5
1B
330
882
100
AcDbEntity
  8
0
100
AcDbLine
 10
74.0
 20
-74.861924
 30
0.0
 11
74.0
 21
-74.861924
 31
0.0
  0
TEXT
  5
1C
330
882
100
AcDbEntity
  8
0
100
AcDbText
 10
39.67297
 20
-74.343897
 30
0.0
 40
3.174999999999999
  1
74
 41
1.247499968503937
  7
SANDVIK_STYLE
 72
     5
 11
46.274324
 21
-74.343897
 31
0.0
100
AcDbText
  0
ENDBLK
  5
1D
330
882
100
AcDbEntity
  8
0
100
AcDbBlockEnd
  0
BLOCK
  5
1E
330
883
100
AcDbEntity
  8
0
100
AcDbBlockBegin
  2
ASSORTEDPART3
 70
     0
 10
0.0
 20
0.0
 30
0.0
  3
ASSORTEDPART3
  1

  0
LINE
  5
1F
330
883
100
AcDbEntity
  8
0
100
AcDbLine
 10
74.0
 20
-55.476846
 30
0.0
 11
74.0
 21
-90.08118600000001
 31
0.0
  0
LINE
  5
20
330
883
100
AcDbEntity
  8
0
100
AcDbLine
 10
-46.0
 20
-55.476846
 30
0.0
 11
-46.0
 21
-90.08118600000001
 31
0.0
  0
LINE
  5
21
330
883
100
AcDbEntity
  8
0
100
AcDbLine
 10
74.0
 20
-86.906186
 30
0.0
 11
-46.0
 21
-86.906186
 31
0.0
  0
LINE
  5
22
330
883
100
AcDbEntity
  8
0
100
AcDbLine
 10
74.0
 20
-86.906186
 30
0.0
 11
70.825002
 21
-87.32418199999999
 31
0.0
  0
LINE
  5
23
330
883
100
AcDbEntity
  8
0
100
AcDbLine
 10
70.825002
 20
-87.32418199999999
 30
0.0
 11
70.82499799999999
 21
-86.488189
 31
0.0
  0
LINE
  5
24
330
883
100
AcDbEntity
  8
0
100
AcDbLine
 10
70.82499799999999
 20
-86.488189
 30
0.0
 11
74.0
 21
-86.906186
 31
0.0
  0
LINE
  5
25
330
883
100
AcDbEntity
  8
0
100
AcDbLine
 10
74.0
 20
-86.906186
 30
0.0
 11
74.0
 21
-86.906186
 31
0.0
  0
LINE
  5
26
330
883
100
AcDbEntity
  8
0
100
AcDbLine
 10
-46.0
 20
-86.906186
 30
0.0
 11
-42.825002
 21
-86.488189
 31
0.0
  0
LINE
  5
27
330
883
100
AcDbEntity
  8
0
100
AcDbLine
 10
-42.825002
 20
-86.488189
 30
0.0
 11
-42.824998
 21
-87.32418199999999
 31
0.0
  0
LINE
  5
28
330
883
100
AcDbEntity
  8
0
100
AcDbLine
 10
-42.824998
 20
-87.32418199999999
 30
0.0
 11
-46.0
 21
-86.906186
 31
0.0
  0
LINE
  5
29
330
883
100
AcDbEntity
  8
0
100
AcDbLine
 10
-46.0
 20
-86.906186
 30
0.0
 11
-46.0
 21
-86.906186
 31
0.0
  0
TEXT
  5
2A
330
883
100
AcDbEntity
  8
0
100
AcDbText
 10
7.353691
 20
-86.388159
 30
0.0
 40
3.174999999999999
  1
120
 41
1.330874966929133
  7
SANDVIK_STYLE
 72
     5
 11
17.414472
 21
-86.388159
 31
0.0
100
AcDbText
  0
ENDBLK
  5
2B
330
883
100
AcDbEntity
  8
0
100
AcDbBlockEnd
  0
BLOCK
  5
2C
330
884
100
AcDbEntity
  8
0
100
AcDbBlockBegin
  2
ASSORTEDPART4
 70
     0
 10
0.0
 20
0.0
 30
0.0
  3
ASSORTEDPART4
  1

  0
LINE
  5
2D
330
884
100
AcDbEntity
  8
0
100
AcDbLine
 10
38.500625
 20
0.8822479999999998
 30
0.0
 11
38.506299
 21
15.303631
 31
0.0
  0
LINE
  5
2E
330
884
100
AcDbEntity
  8
0
100
AcDbLine
 10
-38.382314
 20
0.9125
 30
0.0
 11
-38.37664
 21
15.333883
 31
0.0
  0
LINE
  5
2F
330
884
100
AcDbEntity
  8
0
100
AcDbLine
 10
38.50505
 20
12.128631
 30
0.0
 11
-38.37788900000001
 21
12.158883
 31
0.0
  0
LINE
  5
30
330
884
100
AcDbEntity
  8
0
100
AcDbLine
 10
38.50505
 20
12.128631
 30
0.0
 11
35.329887
 21
11.711884
 31
0.0
  0
LINE
  5
31
330
884
100
AcDbEntity
  8
0
100
AcDbLine
 10
35.329887
 20
11.711884
 30
0.0
 11
35.330213
 21
12.547877
 31
0.0
  0
LINE
  5
32
330
884
100
AcDbEntity
  8
0
100
AcDbLine
 10
35.330213
 20
12.547877
 30
0.0
 11
38.50505
 21
12.128631
 31
0.0
  0
LINE
  5
33
330
884
100
AcDbEntity
  8
0
100
AcDbLine
 10
38.50505
 20
12.128631
 30
0.0
 11
38.50505
 21
12.128631
 31
0.0
  0
LINE
  5
34
330
884
100
AcDbEntity
  8
0
100
AcDbLine
 10
-38.37788900000001
 20
12.158883
 30
0.0
 11
-35.202726
 21
12.57563
 31
0.0
  0
LINE
  5
35
330
884
100
AcDbEntity
  8
0
100
AcDbLine
 10
-35.202726
 20
12.57563
 30
0.0
 11
-35.203052
 21
11.739637
 31
0.0
  0
LINE
  5
36
330
884
100
AcDbEntity
  8
0
100
AcDbLine
 10
-35.203052
 20
11.739637
 30
0.0
 11
-38.37788900000001
 21
12.158883
 31
0.0
  0
LINE
  5
37
330
884
100
AcDbEntity
  8
0
100
AcDbLine
 10
-38.37788900000001
 20
12.158883
 30
0.0
 11
-38.37788900000001
 21
12.158883
 31
0.0
  0
TEXT
  5
38
330
884
100
AcDbEntity
  8
0
100
AcDbText
 10
5.962651999999999
 20
13.453212
 30
0.0
 40
3.174999999999999
  1
77
 50
359.9774856424293
 41
1.284191243193795
  7
SANDVIK_STYLE
 72
     5
 11
12.564006
 21
13.450618
 31
0.0
100
AcDbText
  0
TEXT
  5
39
330
884
100
AcDbEntity
  8
0
100
AcDbText
 10
-1.156293
 20
13.456013
 30
0.0
 40
3.174999999999999
  1
%%c
 50
359.9774786994804
 41
3.230769480353746
  7
SANDVIK_STYLE
 72
     5
 11
5.193706999999999
 21
13.453517
 31
0.0
100
AcDbText
  0
TEXT
  5
3A
330
884
100
AcDbEntity
  8
0
100
AcDbText
 10
5.962651999999999
 20
13.453212
 30
0.0
 40
3.174999999999999
  1
77
 50
359.9774856424293
 41
1.284191243193795
  7
SANDVIK_STYLE
 72
     5
 11
12.564006
 21
13.450618
 31
0.0
100
AcDbText
  0
TEXT
  5
3B
330
884
100
AcDbEntity
  8
0
100
AcDbText
 10
-1.156293
 20
13.456013
 30
0.0
 40
3.174999999999999
  1
%%c
 50
359.9774786994804
 41
3.230769480353746
  7
SANDVIK_STYLE
 72
     5
 11
5.193706999999999
 21
13.453517
 31
0.0
100
AcDbText
  0
ENDBLK
  5
3C
330
884
100
AcDbEntity
  8
0
100
AcDbBlockEnd
  0
ENDSEC
  0
SECTION
  2
ENTITIES
  0
LINE
  5
3D
330
851
100
AcDbEntity
  8
1
100
AcDbLine
 10
-46.0
 20
-53.88934599999999
 30
0.0
 11
-46.0
 21
-65.0
 31
0.0
  0
LINE
  5
3E
330
851
100
AcDbEntity
  8
1
100
AcDbLine
 10
-46.0
 20
-20.675
 30
0.0
 11
-46.0
 21
-53.88934599999999
 31
0.0
  0
LINE
  5
3F
330
851
100
AcDbEntity
  8
1
100
AcDbLine
 10
74.0
 20
-53.88934599999999
 30
0.0
 11
-46.0
 21
-53.88934599999999
 31
0.0
  0
LINE
  5
40
330
851
100
AcDbEntity
  8
1
100
AcDbLine
 10
-38.382939
 20
-0.675
 30
0.0
 11
-38.382939
 21
-7.325
 31
0.0
  0
LINE
  5
41
330
851
100
AcDbEntity
  8
1
100
AcDbLine
 10
-34.78505399999999
 20
-0.675
 30
0.0
 11
-38.382939
 21
-0.675
 31
0.0
  0
LINE
  5
42
330
851
100
AcDbEntity
  8
1
100
AcDbLine
 10
-38.000642
 20
-0.343279
 30
0.0
 11
-37.965758
 21
-0.343279
 31
0.0
  0
LINE
  5
43
330
851
100
AcDbEntity
  8
1
100
AcDbLine
 10
-37.829602
 20
-0.343279
 30
0.0
 11
-37.78053400000001
 21
-0.343279
 31
0.0
  0
LINE
  5
44
330
851
100
AcDbEntity
  8
1
100
AcDbLine
 10
-37.701591
 20
-7.875
 30
0.0
 11
-37.701591
 21
-14.675
 31
0.0
  0
LINE
  5
45
330
851
100
AcDbEntity
  8
1
100
AcDbLine
 10
-37.701591
 20
-7.875
 30
0.0
 11
37.701591
 21
-7.875
 31
0.0
  0
LINE
  5
46
330
851
100
AcDbEntity
  8
1
100
AcDbLine
 10
-37.597989
 20
-0.343279
 30
0.0
 11
-37.534501
 21
-0.343279
 31
0.0
  0
LINE
  5
47
330
851
100
AcDbEntity
  8
1
100
AcDbLine
 10
-37.304676
 20
-0.343279
 30
0.0
 11
-37.226452
 21
-0.343279
 31
0.0
  0
LINE
  5
48
330
851
100
AcDbEntity
  8
1
100
AcDbLine
 10
-36.948191
 20
-0.343279
 30
0.0
 11
-36.854833
 21
-0.343279
 31
0.0
  0
LINE
  5
49
330
851
100
AcDbEntity
  8
1
100
AcDbLine
 10
-36.526687
 20
-0.343279
 30
0.0
 11
-36.417698
 21
-0.343279
 31
0.0
  0
LINE
  5
4A
330
851
100
AcDbEntity
  8
1
100
AcDbLine
 10
-36.037881
 20
-0.343279
 30
0.0
 11
-35.912654
 21
-0.343279
 31
0.0
  0
LINE
  5
4B
330
851
100
AcDbEntity
  8
1
100
AcDbLine
 10
-35.478992
 20
-0.343279
 30
0.0
 11
-35.33679
 21
-0.343279
 31
0.0
  0
LINE
  5
4C
330
851
100
AcDbEntity
  8
1
100
AcDbLine
 10
-35.24202000000001
 20
-6.674999999999999
 30
0.0
 11
-37.433274
 21
-6.674999999999999
 31
0.0
  0
LINE
  5
4D
330
851
100
AcDbEntity
  8
1
100
AcDbLine
 10
35.24202000000001
 20
-6.674999999999999
 30
0.0
 11
-35.24202000000001
 21
-6.674999999999999
 31
0.0
  0
LINE
  5
4E
330
851
100
AcDbEntity
  8
1
100
AcDbLine
 10
-34.846648
 20
-0.343279
 30
0.0
 11
-34.68657800000001
 21
-0.343279
 31
0.0
  0
LINE
  5
4F
330
851
100
AcDbEntity
  8
1
100
AcDbLine
 10
-34.78505399999999
 20
-0.675
 30
0.0
 11
-34.78505399999999
 21
-5.674999999999999
 31
0.0
  0
LINE
  5
50
330
851
100
AcDbEntity
  8
1
100
AcDbLine
 10
-34.78505399999999
 20
-0.675
 30
0.0
 11
34.78505399999999
 21
-0.675
 31
0.0
  0
LINE
  5
51
330
851
100
AcDbEntity
  8
1
100
AcDbLine
 10
-34.286876
 20
0.325
 30
0.0
 11
34.286876
 21
0.325
 31
0.0
  0
LINE
  5
52
330
851
100
AcDbEntity
  8
1
100
AcDbLine
 10
34.450542
 20
0.325
 30
0.0
 11
34.286876
 21
0.325
 31
0.0
  0
LINE
  5
53
330
851
100
AcDbEntity
  8
1
100
AcDbLine
 10
-34.477015
 20
-0.190104
 30
0.0
 11
34.477015
 21
-0.190104
 31
0.0
  0
LINE
  5
54
330
851
100
AcDbEntity
  8
1
100
AcDbLine
 10
34.78505399999999
 20
-5.674999999999999
 30
0.0
 11
-34.78505399999999
 21
-5.674999999999999
 31
0.0
  0
LINE
  5
55
330
851
100
AcDbEntity
  8
1
100
AcDbLine
 10
34.78505399999999
 20
-0.675
 30
0.0
 11
34.78505399999999
 21
-5.674999999999999
 31
0.0
  0
LINE
  5
56
330
851
100
AcDbEntity
  8
1
100
AcDbLine
 10
35.057486
 20
0.325
 30
0.0
 11
34.912782
 21
0.325
 31
0.0
  0
LINE
  5
57
330
851
100
AcDbEntity
  8
1
100
AcDbLine
 10
34.450542
 20
0.325
 30
0.0
 11
34.912782
 21
0.325
 31
0.0
  0
LINE
  5
58
330
851
100
AcDbEntity
  8
1
100
AcDbLine
 10
35.057486
 20
0.325
 30
0.0
 11
35.464276
 21
0.325
 31
0.0
  0
LINE
  5
59
330
851
100
AcDbEntity
  8
1
100
AcDbLine
 10
35.590938
 20
0.325
 30
0.0
 11
35.464276
 21
0.325
 31
0.0
  0
LINE
  5
5A
330
851
100
AcDbEntity
  8
1
100
AcDbLine
 10
36.054158
 20
0.325
 30
0.0
 11
35.94478200000001
 21
0.325
 31
0.0
  0
LINE
  5
5B
330
851
100
AcDbEntity
  8
1
100
AcDbLine
 10
35.590938
 20
0.325
 30
0.0
 11
35.94478200000001
 21
0.325
 31
0.0
  0
LINE
  5
5C
330
851
100
AcDbEntity
  8
1
100
AcDbLine
 10
36.449826
 20
0.325
 30
0.0
 11
36.357115
 21
0.325
 31
0.0
  0
LINE
  5
5D
330
851
100
AcDbEntity
  8
1
100
AcDbLine
 10
36.054158
 20
0.325
 30
0.0
 11
36.357115
 21
0.325
 31
0.0
  0
LINE
  5
5E
330
851
100
AcDbEntity
  8
1
100
AcDbLine
 10
36.449826
 20
0.325
 30
0.0
 11
36.703574
 21
0.325
 31
0.0
  0
LINE
  5
5F
330
851
100
AcDbEntity
  8
1
100
AcDbLine
 10
36.780122
 20
0.325
 30
0.0
 11
36.703574
 21
0.325
 31
0.0
  0
LINE
  5
60
330
851
100
AcDbEntity
  8
1
100
AcDbLine
 10
36.780122
 20
0.325
 30
0.0
 11
36.98600900000001
 21
0.325
 31
0.0
  0
LINE
  5
61
330
851
100
AcDbEntity
  8
1
100
AcDbLine
 10
37.046793
 20
0.325
 30
0.0
 11
36.98600900000001
 21
0.325
 31
0.0
  0
LINE
  5
62
330
851
100
AcDbEntity
  8
1
100
AcDbLine
 10
37.251206
 20
0.325
 30
0.0
 11
37.205878
 21
0.325
 31
0.0
  0
LINE
  5
63
330
851
100
AcDbEntity
  8
1
100
AcDbLine
 10
37.046793
 20
0.325
 30
0.0
 11
37.205878
 21
0.325
 31
0.0
  0
LINE
  5
64
330
851
100
AcDbEntity
  8
1
100
AcDbLine
 10
37.251206
 20
0.325
 30
0.0
 11
37.364286
 21
0.325
 31
0.0
  0
LINE
  5
65
330
851
100
AcDbEntity
  8
1
100
AcDbLine
 10
37.39438300000001
 20
0.325
 30
0.0
 11
37.364286
 21
0.325
 31
0.0
  0
LINE
  5
66
330
851
100
AcDbEntity
  8
1
100
AcDbLine
 10
37.477024
 20
0.325
 30
0.0
 11
37.462012
 21
0.325
 31
0.0
  0
LINE
  5
67
330
851
100
AcDbEntity
  8
1
100
AcDbLine
 10
37.39438300000001
 20
0.325
 30
0.0
 11
37.462012
 21
0.325
 31
0.0
  0
LINE
  5
68
330
851
100
AcDbEntity
  8
1
100
AcDbLine
 10
37.5
 20
0.325
 30
0.0
 11
37.499531
 21
0.325
 31
0.0
  0
LINE
  5
69
330
851
100
AcDbEntity
  8
1
100
AcDbLine
 10
37.477024
 20
0.325
 30
0.0
 11
37.499531
 21
0.325
 31
0.0
  0
LINE
  5
6A
330
851
100
AcDbEntity
  8
1
100
AcDbLine
 10
37.701591
 20
-13.175
 30
0.0
 11
37.701591
 21
-7.875
 31
0.0
  0
LINE
  5
6B
330
851
100
AcDbEntity
  8
1
100
AcDbLine
 10
37.701591
 20
-13.175
 30
0.0
 11
38.5
 21
-13.175
 31
0.0
  0
LINE
  5
6C
330
851
100
AcDbEntity
  8
1
100
AcDbLine
 10
38.5
 20
-0.675
 30
0.0
 11
37.5
 21
0.325
 31
0.0
  0
LINE
  5
6D
330
851
100
AcDbEntity
  8
1
100
AcDbLine
 10
38.5
 20
-0.675
 30
0.0
 11
34.78505399999999
 21
-0.675
 31
0.0
  0
LINE
  5
6E
330
851
100
AcDbEntity
  8
1
100
AcDbLine
 10
38.5
 20
-0.7355040000000001
 30
0.0
 11
38.5
 21
-0.675
 31
0.0
  0
LINE
  5
6F
330
851
100
AcDbEntity
  8
1
100
AcDbLine
 10
41.5
 20
-5.570083
 30
0.0
 11
41.5
 21
-6.474999999999999
 31
0.0
  0
LINE
  5
70
330
851
100
AcDbEntity
  8
1
100
AcDbLine
 10
41.5
 20
-6.474999999999999
 30
0.0
 11
42.0
 21
-5.974999999999999
 31
0.0
  0
LINE
  5
71
330
851
100
AcDbEntity
  8
1
100
AcDbLine
 10
38.448478
 20
-6.474999999999999
 30
0.0
 11
41.5
 21
-6.474999999999999
 31
0.0
  0
LINE
  5
72
330
851
100
AcDbEntity
  8
1
100
AcDbLine
 10
41.5
 20
-1.475
 30
0.0
 11
41.5
 21
-5.570083
 31
0.0
  0
LINE
  5
73
330
851
100
AcDbEntity
  8
1
100
AcDbLine
 10
42.0
 20
-1.975
 30
0.0
 11
41.5
 21
-1.475
 31
0.0
  0
LINE
  5
74
330
851
100
AcDbEntity
  8
1
100
AcDbLine
 10
41.5
 20
-1.475
 30
0.0
 11
38.448648
 21
-1.475
 31
0.0
  0
LINE
  5
75
330
851
100
AcDbEntity
  8
1
100
AcDbLine
 10
-35.94478200000001
 20
0.325
 30
0.0
 11
-35.590938
 21
0.325
 31
0.0
  0
LINE
  5
76
330
851
100
AcDbEntity
  8
1
100
AcDbLine
 10
-36.054158
 20
0.325
 30
0.0
 11
-35.94478200000001
 21
0.325
 31
0.0
  0
LINE
  5
77
330
851
100
AcDbEntity
  8
1
100
AcDbLine
 10
37.534501
 20
-0.343279
 30
0.0
 11
37.597989
 21
-0.343279
 31
0.0
  0
LINE
  5
78
330
851
100
AcDbEntity
  8
1
100
AcDbLine
 10
-36.703574
 20
0.325
 30
0.0
 11
-36.780122
 21
0.325
 31
0.0
  0
LINE
  5
79
330
851
100
AcDbEntity
  8
1
100
AcDbLine
 10
-36.449826
 20
0.325
 30
0.0
 11
-36.703574
 21
0.325
 31
0.0
  0
LINE
  5
7A
330
851
100
AcDbEntity
  8
1
100
AcDbLine
 10
36.854833
 20
-0.343279
 30
0.0
 11
36.948191
 21
-0.343279
 31
0.0
  0
LINE
  5
7B
330
851
100
AcDbEntity
  8
1
100
AcDbLine
 10
36.417698
 20
-0.343279
 30
0.0
 11
36.526687
 21
-0.343279
 31
0.0
  0
LINE
  5
7C
330
851
100
AcDbEntity
  8
1
100
AcDbLine
 10
36.037881
 20
-0.343279
 30
0.0
 11
35.912654
 21
-0.343279
 31
0.0
  0
LINE
  5
7D
330
851
100
AcDbEntity
  8
1
100
AcDbLine
 10
-34.912782
 20
0.325
 30
0.0
 11
-34.450542
 21
0.325
 31
0.0
  0
LINE
  5
7E
330
851
100
AcDbEntity
  8
1
100
AcDbLine
 10
-35.057486
 20
0.325
 30
0.0
 11
-34.912782
 21
0.325
 31
0.0
  0
LINE
  5
7F
330
851
100
AcDbEntity
  8
1
100
AcDbLine
 10
34.68657800000001
 20
-0.343279
 30
0.0
 11
34.846648
 21
-0.343279
 31
0.0
  0
LINE
  5
80
330
851
100
AcDbEntity
  8
1
100
AcDbLine
 10
-34.450542
 20
0.325
 30
0.0
 11
-34.286876
 21
0.325
 31
0.0
  0
LINE
  5
81
330
851
100
AcDbEntity
  8
1
100
AcDbLine
 10
-36.98600900000001
 20
0.325
 30
0.0
 11
-36.780122
 21
0.325
 31
0.0
  0
LINE
  5
82
330
851
100
AcDbEntity
  8
1
100
AcDbLine
 10
-37.046793
 20
0.325
 30
0.0
 11
-36.98600900000001
 21
0.325
 31
0.0
  0
LINE
  5
83
330
851
100
AcDbEntity
  8
1
100
AcDbLine
 10
38.157028
 20
-0.343279
 30
0.0
 11
38.16397199999999
 21
-0.343279
 31
0.0
  0
LINE
  5
84
330
851
100
AcDbEntity
  8
1
100
AcDbLine
 10
35.24202000000001
 20
-6.674999999999999
 30
0.0
 11
37.433274
 21
-6.674999999999999
 31
0.0
  0
LINE
  5
85
330
851
100
AcDbEntity
  8
1
100
AcDbLine
 10
37.304676
 20
-0.343279
 30
0.0
 11
37.226452
 21
-0.343279
 31
0.0
  0
LINE
  5
86
330
851
100
AcDbEntity
  8
1
100
AcDbLine
 10
-37.205878
 20
0.325
 30
0.0
 11
-37.251206
 21
0.325
 31
0.0
  0
LINE
  5
87
330
851
100
AcDbEntity
  8
1
100
AcDbLine
 10
-37.046793
 20
0.325
 30
0.0
 11
-37.205878
 21
0.325
 31
0.0
  0
LINE
  5
88
330
851
100
AcDbEntity
  8
1
100
AcDbLine
 10
38.5
 20
-7.219555999999999
 30
0.0
 11
38.5
 21
-13.175
 31
0.0
  0
LINE
  5
89
330
851
100
AcDbEntity
  8
1
100
AcDbLine
 10
35.478992
 20
-0.343279
 30
0.0
 11
35.33679
 21
-0.343279
 31
0.0
  0
LINE
  5
8A
330
851
100
AcDbEntity
  8
1
100
AcDbLine
 10
-38.5
 20
-7.325
 30
0.0
 11
-38.382939
 21
-7.325
 31
0.0
  0
LINE
  5
8B
330
851
100
AcDbEntity
  8
1
100
AcDbLine
 10
-38.5
 20
-14.675
 30
0.0
 11
-38.5
 21
-7.325
 31
0.0
  0
LINE
  5
8C
330
851
100
AcDbEntity
  8
1
100
AcDbLine
 10
74.0
 20
-20.675
 30
0.0
 11
-46.0
 21
-20.675
 31
0.0
  0
LINE
  5
8D
330
851
100
AcDbEntity
  8
1
100
AcDbLine
 10
74.0
 20
-53.88934599999999
 30
0.0
 11
74.0
 21
-20.675
 31
0.0
  0
LINE
  5
8E
330
851
100
AcDbEntity
  8
1
100
AcDbLine
 10
74.0
 20
-65.0
 30
0.0
 11
74.0
 21
-53.88934599999999
 31
0.0
  0
LINE
  5
8F
330
851
100
AcDbEntity
  8
1
100
AcDbLine
 10
-46.0
 20
-65.0
 30
0.0
 11
74.0
 21
-65.0
 31
0.0
  0
LINE
  5
90
330
851
100
AcDbEntity
  8
1
100
AcDbLine
 10
-46.0
 20
-14.675
 30
0.0
 11
-37.701591
 21
-14.675
 31
0.0
  0
LINE
  5
91
330
851
100
AcDbEntity
  8
1
100
AcDbLine
 10
-46.0
 20
-20.675
 30
0.0
 11
-46.0
 21
-14.675
 31
0.0
  0
LINE
  5
92
330
851
100
AcDbEntity
  8
1
100
AcDbLine
 10
37.965758
 20
-0.343279
 30
0.0
 11
38.000642
 21
-0.343279
 31
0.0
  0
LINE
  5
93
330
851
100
AcDbEntity
  8
1
100
AcDbLine
 10
74.0
 20
-14.675
 30
0.0
 11
74.0
 21
-20.675
 31
0.0
  0
LINE
  5
94
330
851
100
AcDbEntity
  8
1
100
AcDbLine
 10
39.23213
 20
-14.675
 30
0.0
 11
74.0
 21
-14.675
 31
0.0
  0
LINE
  5
95
330
851
100
AcDbEntity
  8
1
100
AcDbLine
 10
37.829602
 20
-0.343279
 30
0.0
 11
37.78053400000001
 21
-0.343279
 31
0.0
  0
LINE
  5
96
330
851
100
AcDbEntity
  8
1
100
AcDbLine
 10
42.0
 20
-5.251066999999999
 30
0.0
 11
42.0
 21
-1.975
 31
0.0
  0
LINE
  5
97
330
851
100
AcDbEntity
  8
1
100
AcDbLine
 10
42.0
 20
-5.974999999999999
 30
0.0
 11
42.0
 21
-5.251066999999999
 31
0.0
  0
LINE
  5
98
330
851
100
AcDbEntity
  8
1
100
AcDbLine
 10
-36.357115
 20
0.325
 30
0.0
 11
-36.449826
 21
0.325
 31
0.0
  0
LINE
  5
99
330
851
100
AcDbEntity
  8
1
100
AcDbLine
 10
-36.054158
 20
0.325
 30
0.0
 11
-36.357115
 21
0.325
 31
0.0
  0
LINE
  5
9A
330
851
100
AcDbEntity
  8
1
100
AcDbLine
 10
38.111924
 20
-0.343279
 30
0.0
 11
38.091059
 21
-0.343279
 31
0.0
  0
LINE
  5
9B
330
851
100
AcDbEntity
  8
1
100
AcDbLine
 10
-35.464276
 20
0.325
 30
0.0
 11
-35.590938
 21
0.325
 31
0.0
  0
LINE
  5
9C
330
851
100
AcDbEntity
  8
1
100
AcDbLine
 10
-35.057486
 20
0.325
 30
0.0
 11
-35.464276
 21
0.325
 31
0.0
  0
LINE
  5
9D
330
851
100
AcDbEntity
  8
1
100
AcDbLine
 10
-37.801977
 20
-0.190104
 30
0.0
 11
-37.855035
 21
-0.190104
 31
0.0
  0
LINE
  5
9E
330
851
100
AcDbEntity
  8
4
100
AcDbLine
 10
0.0
 20
0.0
 30
0.0
 11
0.0
 21
-65.0
 31
0.0
  0
LINE
  5
9F
330
851
100
AcDbEntity
  8
SK4
100
AcDbLine
 10
0.0
 20
5.0
 30
0.0
 11
0.0
 21
-70.0
 31
0.0
  0
LINE
  5
A0
330
851
100
AcDbEntity
  8
80
100
AcDbLine
 10
0.0
 20
0.0
 30
0.0
 11
0.0
 21
6.5
 31
0.0
  0
LINE
  5
A1
330
851
100
AcDbEntity
  8
81
100
AcDbLine
 10
0.0
 20
-65.0
 30
0.0
 11
0.0
 21
-85.0
 31
0.0
  0
POINT
  5
A2
330
851
100
AcDbEntity
  8
80
100
AcDbPoint
 10
0.0
 20
0.0
 30
0.0
  0
POINT
  5
A3
330
851
100
AcDbEntity
  8
81
100
AcDbPoint
 10
0.0
 20
-65.0
 30
0.0
  0
ARC
  5
A4
330
851
100
AcDbEntity
  8
1
100
AcDbCircle
 10
40.0
 20
-13.175
 30
0.0
 40
1.5
100
AcDbArc
 50
180.0
 51
270.0
  0
TEXT
  5
A5
330
851
100
AcDbEntity
  8
SK6
100
AcDbText
 10
-53.39716899999999
 20
-44.442762
 30
0.0
 40
3.174999999999999
  1
570-80 6512074R
 50
90.0
 41
1.156334740157479
  7
SANDVIK_STYLE
 72
     5
 11
-53.39716899999999
 21
7.131143999999999
 31
0.0
100
AcDbText
  0
POLYLINE
  5
A6
330
851
100
AcDbEntity
  8
1
100
AcDb3dPolyline
 66
     1
 10
0.0
 20
0.0
 30
0.0
 70
     8
  0
VERTEX
  5
A7
330
A6
100
AcDbEntity
  8
1
100
AcDbVertex
100
AcDb3dPolylineVertex
 10
-34.78505399999999
 20
-5.674999999999999
 30
0.0
 70
    32
  0
VERTEX
  5
A8
330
A6
100
AcDbEntity
  8
1
100
AcDbVertex
100
AcDb3dPolylineVertex
 10
-34.789535
 20
-5.684452999999999
 30
0.0
 70
    32
  0
VERTEX
  5
A9
330
A6
100
AcDbEntity
  8
1
100
AcDbVertex
100
AcDb3dPolylineVertex
 10
-34.794016
 20
-5.693906
 30
0.0
 70
    32
  0
VERTEX
  5
AA
330
A6
100
AcDbEntity
  8
1
100
AcDbVertex
100
AcDb3dPolylineVertex
 10
-34.798493
 20
-5.703361
 30
0.0
 70
    32
  0
VERTEX
  5
AB
330
A6
100
AcDbEntity
  8
1
100
AcDbVertex
100
AcDb3dPolylineVertex
 10
-34.802967
 20
-5.712817
 30
0.0
 70
    32
  0
VERTEX
  5
AC
330
A6
100
AcDbEntity
  8
1
100
AcDbVertex
100
AcDb3dPolylineVertex
 10
-34.807439
 20
-5.722273999999999
 30
0.0
 70
    32
  0
VERTEX
  5
AD
330
A6
100
AcDbEntity
  8
1
100
AcDbVertex
100
AcDb3dPolylineVertex
 10
-34.811908
 20
-5.731733
 30
0.0
 70
    32
  0
VERTEX
  5
AE
330
A6
100
AcDbEntity
  8
1
100
AcDbVertex
100
AcDb3dPolylineVertex
 10
-34.816375
 20
-5.741191999999999
 30
0.0
 70
    32
  0
VERTEX
  5
AF
330
A6
100
AcDbEntity
  8
1
100
AcDbVertex
100
AcDb3dPolylineVertex
 10
-34.820839
 20
-5.750653999999999
 30
0.0
 70
    32
  0
VERTEX
  5
B0
330
A6
100
AcDbEntity
  8
1
100
AcDbVertex
100
AcDb3dPolylineVertex
 10
-34.825301
 20
-5.760114999999999
 30
0.0
 70
    32
  0
VERTEX
  5
B1
330
A6
100
AcDbEntity
  8
1
100
AcDbVertex
100
AcDb3dPolylineVertex
 10
-34.829759
 20
-5.769579
 30
0.0
 70
    32
  0
VERTEX
  5
B2
330
A6
100
AcDbEntity
  8
1
100
AcDbVertex
100
AcDb3dPolylineVertex
 10
-34.834217
 20
-5.779042999999999
 30
0.0
 70
    32
  0
VERTEX
  5
B3
330
A6
100
AcDbEntity
  8
1
100
AcDbVertex
100
AcDb3dPolylineVertex
 10
-34.83867
 20
-5.788508999999999
 30
0.0
 70
    32
  0
VERTEX
  5
B4
330
A6
100
AcDbEntity
  8
1
100
AcDbVertex
100
AcDb3dPolylineVertex
 10
-34.843122
 20
-5.797976
 30
0.0
 70
    32
  0
VERTEX
  5
B5
330
A6
100
AcDbEntity
  8
1
100
AcDbVertex
100
AcDb3dPolylineVertex
 10
-34.84757
 20
-5.807444999999999
 30
0.0
 70
    32
  0
VERTEX
  5
B6
330
A6
100
AcDbEntity
  8
1
100
AcDbVertex
100
AcDb3dPolylineVertex
 10
-34.852017
 20
-5.816913999999999
 30
0.0
 70
    32
  0
VERTEX
  5
B7
330
A6
100
AcDbEntity
  8
1
100
AcDbVertex
100
AcDb3dPolylineVertex
 10
-34.856459
 20
-5.826385
 30
0.0
 70
    32
  0
VERTEX
  5
B8
330
A6
100
AcDbEntity
  8
1
100
AcDbVertex
100
AcDb3dPolylineVertex
 10
-34.860901
 20
-5.835855999999999
 30
0.0
 70
    32
  0
VERTEX
  5
B9
330
A6
100
AcDbEntity
  8
1
100
AcDbVertex
100
AcDb3dPolylineVertex
 10
-34.865339
 20
-5.84533
 30
0.0
 70
    32
  0
VERTEX
  5
BA
330
A6
100
AcDbEntity
  8
1
100
AcDbVertex
100
AcDb3dPolylineVertex
 10
-34.869775
 20
-5.854803999999999
 30
0.0
 70
    32
  0
VERTEX
  5
BB
330
A6
100
AcDbEntity
  8
1
100
AcDbVertex
100
AcDb3dPolylineVertex
 10
-34.87420800000001
 20
-5.864278999999999
 30
0.0
 70
    32
  0
VERTEX
  5
BC
330
A6
100
AcDbEntity
  8
1
100
AcDbVertex
100
AcDb3dPolylineVertex
 10
-34.878639
 20
-5.873756
 30
0.0
 70
    32
  0
VERTEX
  5
BD
330
A6
100
AcDbEntity
  8
1
100
AcDbVertex
100
AcDb3dPolylineVertex
 10
-34.883067
 20
-5.883233999999999
 30
0.0
 70
    32
  0
VERTEX
  5
BE
330
A6
100
AcDbEntity
  8
1
100
AcDbVertex
100
AcDb3dPolylineVertex
 10
-34.887492
 20
-5.892712999999999
 30
0.0
 70
    32
  0
VERTEX
  5
BF
330
A6
100
AcDbEntity
  8
1
100
AcDbVertex
100
AcDb3dPolylineVertex
 10
-34.891915
 20
-5.902193
 30
0.0
 70
    32
  0
VERTEX
  5
C0
330
A6
100
AcDbEntity
  8
1
100
AcDbVertex
100
AcDb3dPolylineVertex
 10
-34.896336
 20
-5.911674999999999
 30
0.0
 70
    32
  0
VERTEX
  5
C1
330
A6
100
AcDbEntity
  8
1
100
AcDbVertex
100
AcDb3dPolylineVertex
 10
-34.900754
 20
-5.921157
 30
0.0
 70
    32
  0
VERTEX
  5
C2
330
A6
100
AcDbEntity
  8
1
100
AcDbVertex
100
AcDb3dPolylineVertex
 10
-34.905168
 20
-5.930641
 30
0.0
 70
    32
  0
VERTEX
  5
C3
330
A6
100
AcDbEntity
  8
1
100
AcDbVertex
100
AcDb3dPolylineVertex
 10
-34.909582
 20
-5.940126
 30
0.0
 70
    32
  0
VERTEX
  5
C4
330
A6
100
AcDbEntity
  8
1
100
AcDbVertex
100
AcDb3dPolylineVertex
 10
-34.913991
 20
-5.949612999999999
 30
0.0
 70
    32
  0
VERTEX
  5
C5
330
A6
100
AcDbEntity
  8
1
100
AcDbVertex
100
AcDb3dPolylineVertex
 10
-34.9184
 20
-5.9591
 30
0.0
 70
    32
  0
VERTEX
  5
C6
330
A6
100
AcDbEntity
  8
1
100
AcDbVertex
100
AcDb3dPolylineVertex
 10
-34.922803
 20
-5.968588999999999
 30
0.0
 70
    32
  0
VERTEX
  5
C7
330
A6
100
AcDbEntity
  8
1
100
AcDbVertex
100
AcDb3dPolylineVertex
 10
-34.927207
 20
-5.978078
 30
0.0
 70
    32
  0
VERTEX
  5
C8
330
A6
100
AcDbEntity
  8
1
100
AcDbVertex
100
AcDb3dPolylineVertex
 10
-34.931605
 20
-5.987569999999999
 30
0.0
 70
    32
  0
VERTEX
  5
C9
330
A6
100
AcDbEntity
  8
1
100
AcDbVertex
100
AcDb3dPolylineVertex
 10
-34.936003
 20
-5.997062
 30
0.0
 70
    32
  0
VERTEX
  5
CA
330
A6
100
AcDbEntity
  8
1
100
AcDbVertex
100
AcDb3dPolylineVertex
 10
-34.940397
 20
-6.006555
 30
0.0
 70
    32
  0
VERTEX
  5
CB
330
A6
100
AcDbEntity
  8
1
100
AcDbVertex
100
AcDb3dPolylineVertex
 10
-34.94479000000001
 20
-6.016049999999999
 30
0.0
 70
    32
  0
VERTEX
  5
CC
330
A6
100
AcDbEntity
  8
1
100
AcDbVertex
100
AcDb3dPolylineVertex
 10
-34.949179
 20
-6.025546
 30
0.0
 70
    32
  0
VERTEX
  5
CD
330
A6
100
AcDbEntity
  8
1
100
AcDbVertex
100
AcDb3dPolylineVertex
 10
-34.953566
 20
-6.035042999999999
 30
0.0
 70
    32
  0
VERTEX
  5
CE
330
A6
100
AcDbEntity
  8
1
100
AcDbVertex
100
AcDb3dPolylineVertex
 10
-34.95795
 20
-6.044541
 30
0.0
 70
    32
  0
VERTEX
  5
CF
330
A6
100
AcDbEntity
  8
1
100
AcDbVertex
100
AcDb3dPolylineVertex
 10
-34.96233200000001
 20
-6.05404
 30
0.0
 70
    32
  0
VERTEX
  5
D0
330
A6
100
AcDbEntity
  8
1
100
AcDbVertex
100
AcDb3dPolylineVertex
 10
-34.966711
 20
-6.063541
 30
0.0
 70
    32
  0
VERTEX
  5
D1
330
A6
100
AcDbEntity
  8
1
100
AcDbVertex
100
AcDb3dPolylineVertex
 10
-34.971087
 20
-6.073043
 30
0.0
 70
    32
  0
VERTEX
  5
D2
330
A6
100
AcDbEntity
  8
1
100
AcDbVertex
100
AcDb3dPolylineVertex
 10
-34.975461
 20
-6.082545999999999
 30
0.0
 70
    32
  0
VERTEX
  5
D3
330
A6
100
AcDbEntity
  8
1
100
AcDbVertex
100
AcDb3dPolylineVertex
 10
-34.979832
 20
-6.09205
 30
0.0
 70
    32
  0
VERTEX
  5
D4
330
A6
100
AcDbEntity
  8
1
100
AcDbVertex
100
AcDb3dPolylineVertex
 10
-34.984202
 20
-6.101555
 30
0.0
 70
    32
  0
VERTEX
  5
D5
330
A6
100
AcDbEntity
  8
1
100
AcDbVertex
100
AcDb3dPolylineVertex
 10
-34.988568
 20
-6.111062
 30
0.0
 70
    32
  0
VERTEX
  5
D6
330
A6
100
AcDbEntity
  8
1
100
AcDbVertex
100
AcDb3dPolylineVertex
 10
-34.992932
 20
-6.120569
 30
0.0
 70
    32
  0
VERTEX
  5
D7
330
A6
100
AcDbEntity
  8
1
100
AcDbVertex
100
AcDb3dPolylineVertex
 10
-34.997292
 20
-6.130079
 30
0.0
 70
    32
  0
VERTEX
  5
D8
330
A6
100
AcDbEntity
  8
1
100
AcDbVertex
100
AcDb3dPolylineVertex
 10
-35.001651
 20
-6.139587999999999
 30
0.0
 70
    32
  0
VERTEX
  5
D9
330
A6
100
AcDbEntity
  8
1
100
AcDbVertex
100
AcDb3dPolylineVertex
 10
-35.006006
 20
-6.149099999999999
 30
0.0
 70
    32
  0
VERTEX
  5
DA
330
A6
100
AcDbEntity
  8
1
100
AcDbVertex
100
AcDb3dPolylineVertex
 10
-35.010361
 20
-6.158612
 30
0.0
 70
    32
  0
VERTEX
  5
DB
330
A6
100
AcDbEntity
  8
1
100
AcDbVertex
100
AcDb3dPolylineVertex
 10
-35.01471
 20
-6.168125999999999
 30
0.0
 70
    32
  0
VERTEX
  5
DC
330
A6
100
AcDbEntity
  8
1
100
AcDbVertex
100
AcDb3dPolylineVertex
 10
-35.01905900000001
 20
-6.177641
 30
0.0
 70
    32
  0
VERTEX
  5
DD
330
A6
100
AcDbEntity
  8
1
100
AcDbVertex
100
AcDb3dPolylineVertex
 10
-35.023404
 20
-6.187157
 30
0.0
 70
    32
  0
VERTEX
  5
DE
330
A6
100
AcDbEntity
  8
1
100
AcDbVertex
100
AcDb3dPolylineVertex
 10
-35.027748
 20
-6.196673999999999
 30
0.0
 70
    32
  0
VERTEX
  5
DF
330
A6
100
AcDbEntity
  8
1
100
AcDbVertex
100
AcDb3dPolylineVertex
 10
-35.032088
 20
-6.206191999999999
 30
0.0
 70
    32
  0
VERTEX
  5
E0
330
A6
100
AcDbEntity
  8
1
100
AcDbVertex
100
AcDb3dPolylineVertex
 10
-35.036427
 20
-6.215710999999999
 30
0.0
 70
    32
  0
VERTEX
  5
E1
330
A6
100
AcDbEntity
  8
1
100
AcDbVertex
100
AcDb3dPolylineVertex
 10
-35.040761
 20
-6.225232
 30
0.0
 70
    32
  0
VERTEX
  5
E2
330
A6
100
AcDbEntity
  8
1
100
AcDbVertex
100
AcDb3dPolylineVertex
 10
-35.045094
 20
-6.234753999999999
 30
0.0
 70
    32
  0
VERTEX
  5
E3
330
A6
100
AcDbEntity
  8
1
100
AcDbVertex
100
AcDb3dPolylineVertex
 10
-35.049423
 20
-6.244277999999999
 30
0.0
 70
    32
  0
VERTEX
  5
E4
330
A6
100
AcDbEntity
  8
1
100
AcDbVertex
100
AcDb3dPolylineVertex
 10
-35.053751
 20
-6.253801999999999
 30
0.0
 70
    32
  0
VERTEX
  5
E5
330
A6
100
AcDbEntity
  8
1
100
AcDbVertex
100
AcDb3dPolylineVertex
 10
-35.058075
 20
-6.263326999999999
 30
0.0
 70
    32
  0
VERTEX
  5
E6
330
A6
100
AcDbEntity
  8
1
100
AcDbVertex
100
AcDb3dPolylineVertex
 10
-35.062397
 20
-6.272853999999999
 30
0.0
 70
    32
  0
VERTEX
  5
E7
330
A6
100
AcDbEntity
  8
1
100
AcDbVertex
100
AcDb3dPolylineVertex
 10
-35.066717
 20
-6.282382
 30
0.0
 70
    32
  0
VERTEX
  5
E8
330
A6
100
AcDbEntity
  8
1
100
AcDbVertex
100
AcDb3dPolylineVertex
 10
-35.071034
 20
-6.291910999999999
 30
0.0
 70
    32
  0
VERTEX
  5
E9
330
A6
100
AcDbEntity
  8
1
100
AcDbVertex
100
AcDb3dPolylineVertex
 10
-35.075349
 20
-6.301441
 30
0.0
 70
    32
  0
VERTEX
  5
EA
330
A6
100
AcDbEntity
  8
1
100
AcDbVertex
100
AcDb3dPolylineVertex
 10
-35.079661
 20
-6.310972
 30
0.0
 70
    32
  0
VERTEX
  5
EB
330
A6
100
AcDbEntity
  8
1
100
AcDbVertex
100
AcDb3dPolylineVertex
 10
-35.08397100000001
 20
-6.320503999999999
 30
0.0
 70
    32
  0
VERTEX
  5
EC
330
A6
100
AcDbEntity
  8
1
100
AcDbVertex
100
AcDb3dPolylineVertex
 10
-35.088276
 20
-6.330038
 30
0.0
 70
    32
  0
VERTEX
  5
ED
330
A6
100
AcDbEntity
  8
1
100
AcDbVertex
100
AcDb3dPolylineVertex
 10
-35.092581
 20
-6.339573
 30
0.0
 70
    32
  0
VERTEX
  5
EE
330
A6
100
AcDbEntity
  8
1
100
AcDbVertex
100
AcDb3dPolylineVertex
 10
-35.096882
 20
-6.349108999999999
 30
0.0
 70
    32
  0
VERTEX
  5
EF
330
A6
100
AcDbEntity
  8
1
100
AcDbVertex
100
AcDb3dPolylineVertex
 10
-35.101182
 20
-6.358646
 30
0.0
 70
    32
  0
VERTEX
  5
F0
330
A6
100
AcDbEntity
  8
1
100
AcDbVertex
100
AcDb3dPolylineVertex
 10
-35.10547800000001
 20
-6.368183999999999
 30
0.0
 70
    32
  0
VERTEX
  5
F1
330
A6
100
AcDbEntity
  8
1
100
AcDbVertex
100
AcDb3dPolylineVertex
 10
-35.109772
 20
-6.377723
 30
0.0
 70
    32
  0
VERTEX
  5
F2
330
A6
100
AcDbEntity
  8
1
100
AcDbVertex
100
AcDb3dPolylineVertex
 10
-35.114062
 20
-6.387265
 30
0.0
 70
    32
  0
VERTEX
  5
F3
330
A6
100
AcDbEntity
  8
1
100
AcDbVertex
100
AcDb3dPolylineVertex
 10
-35.11835100000001
 20
-6.396805999999999
 30
0.0
 70
    32
  0
VERTEX
  5
F4
330
A6
100
AcDbEntity
  8
1
100
AcDbVertex
100
AcDb3dPolylineVertex
 10
-35.122636
 20
-6.406349999999999
 30
0.0
 70
    32
  0
VERTEX
  5
F5
330
A6
100
AcDbEntity
  8
1
100
AcDbVertex
100
AcDb3dPolylineVertex
 10
-35.12692100000001
 20
-6.415892999999999
 30
0.0
 70
    32
  0
VERTEX
  5
F6
330
A6
100
AcDbEntity
  8
1
100
AcDbVertex
100
AcDb3dPolylineVertex
 10
-35.131201
 20
-6.425438999999999
 30
0.0
 70
    32
  0
VERTEX
  5
F7
330
A6
100
AcDbEntity
  8
1
100
AcDbVertex
100
AcDb3dPolylineVertex
 10
-35.13548
 20
-6.434985
 30
0.0
 70
    32
  0
VERTEX
  5
F8
330
A6
100
AcDbEntity
  8
1
100
AcDbVertex
100
AcDb3dPolylineVertex
 10
-35.139755
 20
-6.444532999999999
 30
0.0
 70
    32
  0
VERTEX
  5
F9
330
A6
100
AcDbEntity
  8
1
100
AcDbVertex
100
AcDb3dPolylineVertex
 10
-35.14402800000001
 20
-6.454081999999999
 30
0.0
 70
    32
  0
VERTEX
  5
FA
330
A6
100
AcDbEntity
  8
1
100
AcDbVertex
100
AcDb3dPolylineVertex
 10
-35.148299
 20
-6.463631999999999
 30
0.0
 70
    32
  0
VERTEX
  5
FB
330
A6
100
AcDbEntity
  8
1
100
AcDbVertex
100
AcDb3dPolylineVertex
 10
-35.152567
 20
-6.473183
 30
0.0
 70
    32
  0
VERTEX
  5
FC
330
A6
100
AcDbEntity
  8
1
100
AcDbVertex
100
AcDb3dPolylineVertex
 10
-35.156832
 20
-6.482734999999999
 30
0.0
 70
    32
  0
VERTEX
  5
FD
330
A6
100
AcDbEntity
  8
1
100
AcDbVertex
100
AcDb3dPolylineVertex
 10
-35.161094
 20
-6.492287999999999
 30
0.0
 70
    32
  0
VERTEX
  5
FE
330
A6
100
AcDbEntity
  8
1
100
AcDbVertex
100
AcDb3dPolylineVertex
 10
-35.165355
 20
-6.501843
 30
0.0
 70
    32
  0
VERTEX
  5
FF
330
A6
100
AcDbEntity
  8
1
100
AcDbVertex
100
AcDb3dPolylineVertex
 10
-35.169612
 20
-6.511398999999999
 30
0.0
 70
    32
  0
VERTEX
  5
100
330
A6
100
AcDbEntity
  8
1
100
AcDbVertex
100
AcDb3dPolylineVertex
 10
-35.173867
 20
-6.520955
 30
0.0
 70
    32
  0
VERTEX
  5
101
330
A6
100
AcDbEntity
  8
1
100
AcDbVertex
100
AcDb3dPolylineVertex
 10
-35.178118
 20
-6.530514
 30
0.0
 70
    32
  0
VERTEX
  5
102
330
A6
100
AcDbEntity
  8
1
100
AcDbVertex
100
AcDb3dPolylineVertex
 10
-35.182369
 20
-6.540073
 30
0.0
 70
    32
  0
VERTEX
  5
103
330
A6
100
AcDbEntity
  8
1
100
AcDbVertex
100
AcDb3dPolylineVertex
 10
-35.186615
 20
-6.549633
 30
0.0
 70
    32
  0
VERTEX
  5
104
330
A6
100
AcDbEntity
  8
1
100
AcDbVertex
100
AcDb3dPolylineVertex
 10
-35.190861
 20
-6.559194
 30
0.0
 70
    32
  0
VERTEX
  5
105
330
A6
100
AcDbEntity
  8
1
100
AcDbVertex
100
AcDb3dPolylineVertex
 10
-35.195101
 20
-6.568757999999999
 30
0.0
 70
    32
  0
VERTEX
  5
106
330
A6
100
AcDbEntity
  8
1
100
AcDbVertex
100
AcDb3dPolylineVertex
 10
-35.199341
 20
-6.578321
 30
0.0
 70
    32
  0
VERTEX
  5
107
330
A6
100
AcDbEntity
  8
1
100
AcDbVertex
100
AcDb3dPolylineVertex
 10
-35.203577
 20
-6.587886
 30
0.0
 70
    32
  0
VERTEX
  5
108
330
A6
100
AcDbEntity
  8
1
100
AcDbVertex
100
AcDb3dPolylineVertex
 10
-35.207812
 20
-6.597452
 30
0.0
 70
    32
  0
VERTEX
  5
109
330
A6
100
AcDbEntity
  8
1
100
AcDbVertex
100
AcDb3dPolylineVertex
 10
-35.212043
 20
-6.607019999999999
 30
0.0
 70
    32
  0
VERTEX
  5
10A
330
A6
100
AcDbEntity
  8
1
100
AcDbVertex
100
AcDb3dPolylineVertex
 10
-35.216272
 20
-6.616588
 30
0.0
 70
    32
  0
VERTEX
  5
10B
330
A6
100
AcDbEntity
  8
1
100
AcDbVertex
100
AcDb3dPolylineVertex
 10
-35.220498
 20
-6.626158
 30
0.0
 70
    32
  0
VERTEX
  5
10C
330
A6
100
AcDbEntity
  8
1
100
AcDbVertex
100
AcDb3dPolylineVertex
 10
-35.224722
 20
-6.635728
 30
0.0
 70
    32
  0
VERTEX
  5
10D
330
A6
100
AcDbEntity
  8
1
100
AcDbVertex
100
AcDb3dPolylineVertex
 10
-35.228943
 20
-6.645299999999999
 30
0.0
 70
    32
  0
VERTEX
  5
10E
330
A6
100
AcDbEntity
  8
1
100
AcDbVertex
100
AcDb3dPolylineVertex
 10
-35.233162
 20
-6.654872999999999
 30
0.0
 70
    32
  0
SEQEND
  5
10F
330
A6
100
AcDbEntity
  8
1
  0
POLYLINE
  5
110
330
851
100
AcDbEntity
  8
1
100
AcDb3dPolyline
 66
     1
 10
0.0
 20
0.0
 30
0.0
 70
     8
  0
VERTEX
  5
111
330
110
100
AcDbEntity
  8
1
100
AcDbVertex
100
AcDb3dPolylineVertex
 10
35.24202000000001
 20
-6.674999999999999
 30
0.0
 70
    32
  0
VERTEX
  5
112
330
110
100
AcDbEntity
  8
1
100
AcDbVertex
100
AcDb3dPolylineVertex
 10
35.237806
 20
-6.665424999999999
 30
0.0
 70
    32
  0
VERTEX
  5
113
330
110
100
AcDbEntity
  8
1
100
AcDbVertex
100
AcDb3dPolylineVertex
 10
35.233592
 20
-6.65585
 30
0.0
 70
    32
  0
VERTEX
  5
114
330
110
100
AcDbEntity
  8
1
100
AcDbVertex
100
AcDb3dPolylineVertex
 10
35.229374
 20
-6.646277
 30
0.0
 70
    32
  0
VERTEX
  5
115
330
110
100
AcDbEntity
  8
1
100
AcDbVertex
100
AcDb3dPolylineVertex
 10
35.225152
 20
-6.636705
 30
0.0
 70
    32
  0
VERTEX
  5
116
330
110
100
AcDbEntity
  8
1
100
AcDbVertex
100
AcDb3dPolylineVertex
 10
35.220929
 20
-6.627133999999999
 30
0.0
 70
    32
  0
VERTEX
  5
117
330
110
100
AcDbEntity
  8
1
100
AcDbVertex
100
AcDb3dPolylineVertex
 10
35.216703
 20
-6.617564999999999
 30
0.0
 70
    32
  0
VERTEX
  5
118
330
110
100
AcDbEntity
  8
1
100
AcDbVertex
100
AcDb3dPolylineVertex
 10
35.212475
 20
-6.607996
 30
0.0
 70
    32
  0
VERTEX
  5
119
330
110
100
AcDbEntity
  8
1
100
AcDbVertex
100
AcDb3dPolylineVertex
 10
35.208243
 20
-6.598428999999999
 30
0.0
 70
    32
  0
VERTEX
  5
11A
330
110
100
AcDbEntity
  8
1
100
AcDbVertex
100
AcDb3dPolylineVertex
 10
35.20401
 20
-6.588861999999999
 30
0.0
 70
    32
  0
VERTEX
  5
11B
330
110
100
AcDbEntity
  8
1
100
AcDbVertex
100
AcDb3dPolylineVertex
 10
35.199773
 20
-6.579297999999999
 30
0.0
 70
    32
  0
VERTEX
  5
11C
330
110
100
AcDbEntity
  8
1
100
AcDbVertex
100
AcDb3dPolylineVertex
 10
35.195535
 20
-6.569733
 30
0.0
 70
    32
  0
VERTEX
  5
11D
330
110
100
AcDbEntity
  8
1
100
AcDbVertex
100
AcDb3dPolylineVertex
 10
35.191293
 20
-6.560171
 30
0.0
 70
    32
  0
VERTEX
  5
11E
330
110
100
AcDbEntity
  8
1
100
AcDbVertex
100
AcDb3dPolylineVertex
 10
35.18705
 20
-6.550608
 30
0.0
 70
    32
  0
VERTEX
  5
11F
330
110
100
AcDbEntity
  8
1
100
AcDbVertex
100
AcDb3dPolylineVertex
 10
35.182802
 20
-6.541047999999999
 30
0.0
 70
    32
  0
VERTEX
  5
120
330
110
100
AcDbEntity
  8
1
100
AcDbVertex
100
AcDb3dPolylineVertex
 10
35.178553
 20
-6.531488999999999
 30
0.0
 70
    32
  0
VERTEX
  5
121
330
110
100
AcDbEntity
  8
1
100
AcDbVertex
100
AcDb3dPolylineVertex
 10
35.174301
 20
-6.521930999999999
 30
0.0
 70
    32
  0
VERTEX
  5
122
330
110
100
AcDbEntity
  8
1
100
AcDbVertex
100
AcDb3dPolylineVertex
 10
35.170047
 20
-6.512373999999999
 30
0.0
 70
    32
  0
VERTEX
  5
123
330
110
100
AcDbEntity
  8
1
100
AcDbVertex
100
AcDb3dPolylineVertex
 10
35.16578900000001
 20
-6.502818
 30
0.0
 70
    32
  0
VERTEX
  5
124
330
110
100
AcDbEntity
  8
1
100
AcDbVertex
100
AcDb3dPolylineVertex
 10
35.161529
 20
-6.493262999999999
 30
0.0
 70
    32
  0
VERTEX
  5
125
330
110
100
AcDbEntity
  8
1
100
AcDbVertex
100
AcDb3dPolylineVertex
 10
35.157267
 20
-6.483709999999999
 30
0.0
 70
    32
  0
VERTEX
  5
126
330
110
100
AcDbEntity
  8
1
100
AcDbVertex
100
AcDb3dPolylineVertex
 10
35.153002
 20
-6.474156999999999
 30
0.0
 70
    32
  0
VERTEX
  5
127
330
110
100
AcDbEntity
  8
1
100
AcDbVertex
100
AcDb3dPolylineVertex
 10
35.148735
 20
-6.464605999999999
 30
0.0
 70
    32
  0
VERTEX
  5
128
330
110
100
AcDbEntity
  8
1
100
AcDbVertex
100
AcDb3dPolylineVertex
 10
35.144464
 20
-6.455055999999999
 30
0.0
 70
    32
  0
VERTEX
  5
129
330
110
100
AcDbEntity
  8
1
100
AcDbVertex
100
AcDb3dPolylineVertex
 10
35.140191
 20
-6.445507
 30
0.0
 70
    32
  0
VERTEX
  5
12A
330
110
100
AcDbEntity
  8
1
100
AcDbVertex
100
AcDb3dPolylineVertex
 10
35.135916
 20
-6.435959999999999
 30
0.0
 70
    32
  0
VERTEX
  5
12B
330
110
100
AcDbEntity
  8
1
100
AcDbVertex
100
AcDb3dPolylineVertex
 10
35.131639
 20
-6.426413
 30
0.0
 70
    32
  0
VERTEX
  5
12C
330
110
100
AcDbEntity
  8
1
100
AcDbVertex
100
AcDb3dPolylineVertex
 10
35.127357
 20
-6.416868
 30
0.0
 70
    32
  0
VERTEX
  5
12D
330
110
100
AcDbEntity
  8
1
100
AcDbVertex
100
AcDb3dPolylineVertex
 10
35.123075
 20
-6.407322999999999
 30
0.0
 70
    32
  0
VERTEX
  5
12E
330
110
100
AcDbEntity
  8
1
100
AcDbVertex
100
AcDb3dPolylineVertex
 10
35.118788
 20
-6.39778
 30
0.0
 70
    32
  0
VERTEX
  5
12F
330
110
100
AcDbEntity
  8
1
100
AcDbVertex
100
AcDb3dPolylineVertex
 10
35.11450100000001
 20
-6.388237999999999
 30
0.0
 70
    32
  0
VERTEX
  5
130
330
110
100
AcDbEntity
  8
1
100
AcDbVertex
100
AcDb3dPolylineVertex
 10
35.110209
 20
-6.378697999999999
 30
0.0
 70
    32
  0
VERTEX
  5
131
330
110
100
AcDbEntity
  8
1
100
AcDbVertex
100
AcDb3dPolylineVertex
 10
35.105917
 20
-6.369157
 30
0.0
 70
    32
  0
VERTEX
  5
132
330
110
100
AcDbEntity
  8
1
100
AcDbVertex
100
AcDb3dPolylineVertex
 10
35.10162000000001
 20
-6.359619
 30
0.0
 70
    32
  0
VERTEX
  5
133
330
110
100
AcDbEntity
  8
1
100
AcDbVertex
100
AcDb3dPolylineVertex
 10
35.097322
 20
-6.350081999999999
 30
0.0
 70
    32
  0
VERTEX
  5
134
330
110
100
AcDbEntity
  8
1
100
AcDbVertex
100
AcDb3dPolylineVertex
 10
35.09302
 20
-6.340545999999999
 30
0.0
 70
    32
  0
VERTEX
  5
135
330
110
100
AcDbEntity
  8
1
100
AcDbVertex
100
AcDb3dPolylineVertex
 10
35.088716
 20
-6.331011
 30
0.0
 70
    32
  0
VERTEX
  5
136
330
110
100
AcDbEntity
  8
1
100
AcDbVertex
100
AcDb3dPolylineVertex
 10
35.084409
 20
-6.321476999999999
 30
0.0
 70
    32
  0
VERTEX
  5
137
330
110
100
AcDbEntity
  8
1
100
AcDbVertex
100
AcDb3dPolylineVertex
 10
35.08010200000001
 20
-6.311944
 30
0.0
 70
    32
  0
VERTEX
  5
138
330
110
100
AcDbEntity
  8
1
100
AcDbVertex
100
AcDb3dPolylineVertex
 10
35.075789
 20
-6.302412999999999
 30
0.0
 70
    32
  0
VERTEX
  5
139
330
110
100
AcDbEntity
  8
1
100
AcDbVertex
100
AcDb3dPolylineVertex
 10
35.071475
 20
-6.292882999999999
 30
0.0
 70
    32
  0
VERTEX
  5
13A
330
110
100
AcDbEntity
  8
1
100
AcDbVertex
100
AcDb3dPolylineVertex
 10
35.067158
 20
-6.283354
 30
0.0
 70
    32
  0
VERTEX
  5
13B
330
110
100
AcDbEntity
  8
1
100
AcDbVertex
100
AcDb3dPolylineVertex
 10
35.062838
 20
-6.273826
 30
0.0
 70
    32
  0
VERTEX
  5
13C
330
110
100
AcDbEntity
  8
1
100
AcDbVertex
100
AcDb3dPolylineVertex
 10
35.058517
 20
-6.264298999999999
 30
0.0
 70
    32
  0
VERTEX
  5
13D
330
110
100
AcDbEntity
  8
1
100
AcDbVertex
100
AcDb3dPolylineVertex
 10
35.054192
 20
-6.254773999999999
 30
0.0
 70
    32
  0
VERTEX
  5
13E
330
110
100
AcDbEntity
  8
1
100
AcDbVertex
100
AcDb3dPolylineVertex
 10
35.04986500000001
 20
-6.245248999999999
 30
0.0
 70
    32
  0
VERTEX
  5
13F
330
110
100
AcDbEntity
  8
1
100
AcDbVertex
100
AcDb3dPolylineVertex
 10
35.045535
 20
-6.235726
 30
0.0
 70
    32
  0
VERTEX
  5
140
330
110
100
AcDbEntity
  8
1
100
AcDbVertex
100
AcDb3dPolylineVertex
 10
35.041204
 20
-6.226204
 30
0.0
 70
    32
  0
VERTEX
  5
141
330
110
100
AcDbEntity
  8
1
100
AcDbVertex
100
AcDb3dPolylineVertex
 10
35.036868
 20
-6.216682999999999
 30
0.0
 70
    32
  0
VERTEX
  5
142
330
110
100
AcDbEntity
  8
1
100
AcDbVertex
100
AcDb3dPolylineVertex
 10
35.032532
 20
-6.207162999999999
 30
0.0
 70
    32
  0
VERTEX
  5
143
330
110
100
AcDbEntity
  8
1
100
AcDbVertex
100
AcDb3dPolylineVertex
 10
35.02819000000001
 20
-6.197644999999999
 30
0.0
 70
    32
  0
VERTEX
  5
144
330
110
100
AcDbEntity
  8
1
100
AcDbVertex
100
AcDb3dPolylineVertex
 10
35.023848
 20
-6.188127999999999
 30
0.0
 70
    32
  0
VERTEX
  5
145
330
110
100
AcDbEntity
  8
1
100
AcDbVertex
100
AcDb3dPolylineVertex
 10
35.019502
 20
-6.178612
 30
0.0
 70
    32
  0
VERTEX
  5
146
330
110
100
AcDbEntity
  8
1
100
AcDbVertex
100
AcDb3dPolylineVertex
 10
35.015155
 20
-6.169096999999999
 30
0.0
 70
    32
  0
VERTEX
  5
147
330
110
100
AcDbEntity
  8
1
100
AcDbVertex
100
AcDb3dPolylineVertex
 10
35.010804
 20
-6.159583
 30
0.0
 70
    32
  0
VERTEX
  5
148
330
110
100
AcDbEntity
  8
1
100
AcDbVertex
100
AcDb3dPolylineVertex
 10
35.00645200000001
 20
-6.150069999999999
 30
0.0
 70
    32
  0
VERTEX
  5
149
330
110
100
AcDbEntity
  8
1
100
AcDbVertex
100
AcDb3dPolylineVertex
 10
35.002095
 20
-6.140558999999999
 30
0.0
 70
    32
  0
VERTEX
  5
14A
330
110
100
AcDbEntity
  8
1
100
AcDbVertex
100
AcDb3dPolylineVertex
 10
34.997738
 20
-6.131048999999999
 30
0.0
 70
    32
  0
VERTEX
  5
14B
330
110
100
AcDbEntity
  8
1
100
AcDbVertex
100
AcDb3dPolylineVertex
 10
34.993377
 20
-6.12154
 30
0.0
 70
    32
  0
VERTEX
  5
14C
330
110
100
AcDbEntity
  8
1
100
AcDbVertex
100
AcDb3dPolylineVertex
 10
34.98901400000001
 20
-6.112032
 30
0.0
 70
    32
  0
VERTEX
  5
14D
330
110
100
AcDbEntity
  8
1
100
AcDbVertex
100
AcDb3dPolylineVertex
 10
34.98464699999999
 20
-6.102524999999999
 30
0.0
 70
    32
  0
VERTEX
  5
14E
330
110
100
AcDbEntity
  8
1
100
AcDbVertex
100
AcDb3dPolylineVertex
 10
34.980279
 20
-6.09302
 30
0.0
 70
    32
  0
VERTEX
  5
14F
330
110
100
AcDbEntity
  8
1
100
AcDbVertex
100
AcDb3dPolylineVertex
 10
34.975907
 20
-6.083516
 30
0.0
 70
    32
  0
VERTEX
  5
150
330
110
100
AcDbEntity
  8
1
100
AcDbVertex
100
AcDb3dPolylineVertex
 10
34.97153400000001
 20
-6.074012999999999
 30
0.0
 70
    32
  0
VERTEX
  5
151
330
110
100
AcDbEntity
  8
1
100
AcDbVertex
100
AcDb3dPolylineVertex
 10
34.967158
 20
-6.064511
 30
0.0
 70
    32
  0
VERTEX
  5
152
330
110
100
AcDbEntity
  8
1
100
AcDbVertex
100
AcDb3dPolylineVertex
 10
34.962779
 20
-6.05501
 30
0.0
 70
    32
  0
VERTEX
  5
153
330
110
100
AcDbEntity
  8
1
100
AcDbVertex
100
AcDb3dPolylineVertex
 10
34.958398
 20
-6.04551
 30
0.0
 70
    32
  0
VERTEX
  5
154
330
110
100
AcDbEntity
  8
1
100
AcDbVertex
100
AcDb3dPolylineVertex
 10
34.95401300000001
 20
-6.036012
 30
0.0
 70
    32
  0
VERTEX
  5
155
330
110
100
AcDbEntity
  8
1
100
AcDbVertex
100
AcDb3dPolylineVertex
 10
34.949627
 20
-6.026514999999999
 30
0.0
 70
    32
  0
VERTEX
  5
156
330
110
100
AcDbEntity
  8
1
100
AcDbVertex
100
AcDb3dPolylineVertex
 10
34.945237
 20
-6.017019
 30
0.0
 70
    32
  0
VERTEX
  5
157
330
110
100
AcDbEntity
  8
1
100
AcDbVertex
100
AcDb3dPolylineVertex
 10
34.940847
 20
-6.007524
 30
0.0
 70
    32
  0
VERTEX
  5
158
330
110
100
AcDbEntity
  8
1
100
AcDbVertex
100
AcDb3dPolylineVertex
 10
34.936451
 20
-5.998031
 30
0.0
 70
    32
  0
VERTEX
  5
159
330
110
100
AcDbEntity
  8
1
100
AcDbVertex
100
AcDb3dPolylineVertex
 10
34.932055
 20
-5.988538
 30
0.0
 70
    32
  0
VERTEX
  5
15A
330
110
100
AcDbEntity
  8
1
100
AcDbVertex
100
AcDb3dPolylineVertex
 10
34.927655
 20
-5.979047
 30
0.0
 70
    32
  0
VERTEX
  5
15B
330
110
100
AcDbEntity
  8
1
100
AcDbVertex
100
AcDb3dPolylineVertex
 10
34.923254
 20
-5.969557
 30
0.0
 70
    32
  0
VERTEX
  5
15C
330
110
100
AcDbEntity
  8
1
100
AcDbVertex
100
AcDb3dPolylineVertex
 10
34.918848
 20
-5.960067999999999
 30
0.0
 70
    32
  0
VERTEX
  5
15D
330
110
100
AcDbEntity
  8
1
100
AcDbVertex
100
AcDb3dPolylineVertex
 10
34.914442
 20
-5.95058
 30
0.0
 70
    32
  0
VERTEX
  5
15E
330
110
100
AcDbEntity
  8
1
100
AcDbVertex
100
AcDb3dPolylineVertex
 10
34.910032
 20
-5.941094
 30
0.0
 70
    32
  0
VERTEX
  5
15F
330
110
100
AcDbEntity
  8
1
100
AcDbVertex
100
AcDb3dPolylineVertex
 10
34.90562
 20
-5.931608999999999
 30
0.0
 70
    32
  0
VERTEX
  5
160
330
110
100
AcDbEntity
  8
1
100
AcDbVertex
100
AcDb3dPolylineVertex
 10
34.901204
 20
-5.922125
 30
0.0
 70
    32
  0
VERTEX
  5
161
330
110
100
AcDbEntity
  8
1
100
AcDbVertex
100
AcDb3dPolylineVertex
 10
34.896787
 20
-5.912641999999999
 30
0.0
 70
    32
  0
VERTEX
  5
162
330
110
100
AcDbEntity
  8
1
100
AcDbVertex
100
AcDb3dPolylineVertex
 10
34.892367
 20
-5.903160999999999
 30
0.0
 70
    32
  0
VERTEX
  5
163
330
110
100
AcDbEntity
  8
1
100
AcDbVertex
100
AcDb3dPolylineVertex
 10
34.887944
 20
-5.89368
 30
0.0
 70
    32
  0
VERTEX
  5
164
330
110
100
AcDbEntity
  8
1
100
AcDbVertex
100
AcDb3dPolylineVertex
 10
34.883518
 20
-5.884201
 30
0.0
 70
    32
  0
VERTEX
  5
165
330
110
100
AcDbEntity
  8
1
100
AcDbVertex
100
AcDb3dPolylineVertex
 10
34.87909099999999
 20
-5.874723
 30
0.0
 70
    32
  0
VERTEX
  5
166
330
110
100
AcDbEntity
  8
1
100
AcDbVertex
100
AcDb3dPolylineVertex
 10
34.874661
 20
-5.865245999999999
 30
0.0
 70
    32
  0
VERTEX
  5
167
330
110
100
AcDbEntity
  8
1
100
AcDbVertex
100
AcDb3dPolylineVertex
 10
34.870227
 20
-5.855770999999999
 30
0.0
 70
    32
  0
VERTEX
  5
168
330
110
100
AcDbEntity
  8
1
100
AcDbVertex
100
AcDb3dPolylineVertex
 10
34.865792
 20
-5.846295999999999
 30
0.0
 70
    32
  0
VERTEX
  5
169
330
110
100
AcDbEntity
  8
1
100
AcDbVertex
100
AcDb3dPolylineVertex
 10
34.861353
 20
-5.836824
 30
0.0
 70
    32
  0
VERTEX
  5
16A
330
110
100
AcDbEntity
  8
1
100
AcDbVertex
100
AcDb3dPolylineVertex
 10
34.856913
 20
-5.827351
 30
0.0
 70
    32
  0
VERTEX
  5
16B
330
110
100
AcDbEntity
  8
1
100
AcDbVertex
100
AcDb3dPolylineVertex
 10
34.852469
 20
-5.817880999999999
 30
0.0
 70
    32
  0
VERTEX
  5
16C
330
110
100
AcDbEntity
  8
1
100
AcDbVertex
100
AcDb3dPolylineVertex
 10
34.848025
 20
-5.808411
 30
0.0
 70
    32
  0
VERTEX
  5
16D
330
110
100
AcDbEntity
  8
1
100
AcDbVertex
100
AcDb3dPolylineVertex
 10
34.843575
 20
-5.798943
 30
0.0
 70
    32
  0
VERTEX
  5
16E
330
110
100
AcDbEntity
  8
1
100
AcDbVertex
100
AcDb3dPolylineVertex
 10
34.83912500000001
 20
-5.789475
 30
0.0
 70
    32
  0
VERTEX
  5
16F
330
110
100
AcDbEntity
  8
1
100
AcDbVertex
100
AcDb3dPolylineVertex
 10
34.834671
 20
-5.780009999999999
 30
0.0
 70
    32
  0
VERTEX
  5
170
330
110
100
AcDbEntity
  8
1
100
AcDbVertex
100
AcDb3dPolylineVertex
 10
34.830215
 20
-5.770544999999999
 30
0.0
 70
    32
  0
VERTEX
  5
171
330
110
100
AcDbEntity
  8
1
100
AcDbVertex
100
AcDb3dPolylineVertex
 10
34.825756
 20
-5.761082
 30
0.0
 70
    32
  0
VERTEX
  5
172
330
110
100
AcDbEntity
  8
1
100
AcDbVertex
100
AcDb3dPolylineVertex
 10
34.821295
 20
-5.751618999999999
 30
0.0
 70
    32
  0
VERTEX
  5
173
330
110
100
AcDbEntity
  8
1
100
AcDbVertex
100
AcDb3dPolylineVertex
 10
34.81683
 20
-5.742157999999999
 30
0.0
 70
    32
  0
VERTEX
  5
174
330
110
100
AcDbEntity
  8
1
100
AcDbVertex
100
AcDb3dPolylineVertex
 10
34.812365
 20
-5.732698
 30
0.0
 70
    32
  0
VERTEX
  5
175
330
110
100
AcDbEntity
  8
1
100
AcDbVertex
100
AcDb3dPolylineVertex
 10
34.807895
 20
-5.72324
 30
0.0
 70
    32
  0
VERTEX
  5
176
330
110
100
AcDbEntity
  8
1
100
AcDbVertex
100
AcDb3dPolylineVertex
 10
34.803424
 20
-5.713782
 30
0.0
 70
    32
  0
VERTEX
  5
177
330
110
100
AcDbEntity
  8
1
100
AcDbVertex
100
AcDb3dPolylineVertex
 10
34.79895
 20
-5.704326
 30
0.0
 70
    32
  0
VERTEX
  5
178
330
110
100
AcDbEntity
  8
1
100
AcDbVertex
100
AcDb3dPolylineVertex
 10
34.794473
 20
-5.694871
 30
0.0
 70
    32
  0
SEQEND
  5
179
330
110
100
AcDbEntity
  8
1
  0
POLYLINE
  5
17A
330
851
100
AcDbEntity
  8
1
100
AcDb3dPolyline
 66
     1
 10
0.0
 20
0.0
 30
0.0
 70
     8
  0
VERTEX
  5
17B
330
17A
100
AcDbEntity
  8
1
100
AcDbVertex
100
AcDb3dPolylineVertex
 10
-38.382939
 20
-0.675
 30
0.0
 70
    32
  0
VERTEX
  5
17C
330
17A
100
AcDbEntity
  8
1
100
AcDbVertex
100
AcDb3dPolylineVertex
 10
-38.206971
 20
-0.513368
 30
0.0
 70
    32
  0
VERTEX
  5
17D
330
17A
100
AcDbEntity
  8
1
100
AcDbVertex
100
AcDb3dPolylineVertex
 10
-38.031003
 20
-0.351736
 30
0.0
 70
    32
  0
VERTEX
  5
17E
330
17A
100
AcDbEntity
  8
1
100
AcDbVertex
100
AcDb3dPolylineVertex
 10
-37.855035
 20
-0.190104
 30
0.0
 70
    32
  0
SEQEND
  5
17F
330
17A
100
AcDbEntity
  8
1
  0
POLYLINE
  5
180
330
851
100
AcDbEntity
  8
1
100
AcDb3dPolyline
 66
     1
 10
0.0
 20
0.0
 30
0.0
 70
     8
  0
VERTEX
  5
181
330
180
100
AcDbEntity
  8
1
100
AcDbVertex
100
AcDb3dPolylineVertex
 10
-38.000642
 20
-0.343279
 30
0.0
 70
    32
  0
VERTEX
  5
182
330
180
100
AcDbEntity
  8
1
100
AcDbVertex
100
AcDb3dPolylineVertex
 10
-38.015585
 20
-0.359055
 30
0.0
 70
    32
  0
VERTEX
  5
183
330
180
100
AcDbEntity
  8
1
100
AcDbVertex
100
AcDb3dPolylineVertex
 10
-38.029305
 20
-0.373785
 30
0.0
 70
    32
  0
VERTEX
  5
184
330
180
100
AcDbEntity
  8
1
100
AcDbVertex
100
AcDb3dPolylineVertex
 10
-38.04190999999999
 20
-0.387579
 30
0.0
 70
    32
  0
VERTEX
  5
185
330
180
100
AcDbEntity
  8
1
100
AcDbVertex
100
AcDb3dPolylineVertex
 10
-38.053506
 20
-0.400545
 30
0.0
 70
    32
  0
VERTEX
  5
186
330
180
100
AcDbEntity
  8
1
100
AcDbVertex
100
AcDb3dPolylineVertex
 10
-38.064025
 20
-0.412608
 30
0.0
 70
    32
  0
VERTEX
  5
187
330
180
100
AcDbEntity
  8
1
100
AcDbVertex
100
AcDb3dPolylineVertex
 10
-38.07295300000001
 20
-0.423227
 30
0.0
 70
    32
  0
VERTEX
  5
188
330
180
100
AcDbEntity
  8
1
100
AcDbVertex
100
AcDb3dPolylineVertex
 10
-38.079743
 20
-0.4318350000000001
 30
0.0
 70
    32
  0
VERTEX
  5
189
330
180
100
AcDbEntity
  8
1
100
AcDbVertex
100
AcDb3dPolylineVertex
 10
-38.084345
 20
-0.438507
 30
0.0
 70
    32
  0
VERTEX
  5
18A
330
180
100
AcDbEntity
  8
1
100
AcDbVertex
100
AcDb3dPolylineVertex
 10
-38.087102
 20
-0.4438220000000001
 30
0.0
 70
    32
  0
SEQEND
  5
18B
330
180
100
AcDbEntity
  8
1
  0
POLYLINE
  5
18C
330
851
100
AcDbEntity
  8
1
100
AcDb3dPolyline
 66
     1
 10
0.0
 20
0.0
 30
0.0
 70
     8
  0
VERTEX
  5
18D
330
18C
100
AcDbEntity
  8
1
100
AcDbVertex
100
AcDb3dPolylineVertex
 10
-37.855035
 20
-0.190104
 30
0.0
 70
    32
  0
VERTEX
  5
18E
330
18C
100
AcDbEntity
  8
1
100
AcDbVertex
100
AcDb3dPolylineVertex
 10
-37.903571
 20
-0.241162
 30
0.0
 70
    32
  0
VERTEX
  5
18F
330
18C
100
AcDbEntity
  8
1
100
AcDbVertex
100
AcDb3dPolylineVertex
 10
-37.952106
 20
-0.292221
 30
0.0
 70
    32
  0
VERTEX
  5
190
330
18C
100
AcDbEntity
  8
1
100
AcDbVertex
100
AcDb3dPolylineVertex
 10
-38.000642
 20
-0.343279
 30
0.0
 70
    32
  0
SEQEND
  5
191
330
18C
100
AcDbEntity
  8
1
  0
POLYLINE
  5
192
330
851
100
AcDbEntity
  8
1
100
AcDb3dPolyline
 66
     1
 10
0.0
 20
0.0
 30
0.0
 70
     8
  0
VERTEX
  5
193
330
192
100
AcDbEntity
  8
1
100
AcDbVertex
100
AcDb3dPolylineVertex
 10
-37.205878
 20
0.325
 30
0.0
 70
    32
  0
VERTEX
  5
194
330
192
100
AcDbEntity
  8
1
100
AcDbVertex
100
AcDb3dPolylineVertex
 10
-37.413786
 20
0.10224
 30
0.0
 70
    32
  0
VERTEX
  5
195
330
192
100
AcDbEntity
  8
1
100
AcDbVertex
100
AcDb3dPolylineVertex
 10
-37.621694
 20
-0.120519
 30
0.0
 70
    32
  0
VERTEX
  5
196
330
192
100
AcDbEntity
  8
1
100
AcDbVertex
100
AcDb3dPolylineVertex
 10
-37.829602
 20
-0.343279
 30
0.0
 70
    32
  0
SEQEND
  5
197
330
192
100
AcDbEntity
  8
1
  0
POLYLINE
  5
198
330
851
100
AcDbEntity
  8
1
100
AcDb3dPolyline
 66
     1
 10
0.0
 20
0.0
 30
0.0
 70
     8
  0
VERTEX
  5
199
330
198
100
AcDbEntity
  8
1
100
AcDbVertex
100
AcDb3dPolylineVertex
 10
-37.829602
 20
-0.343279
 30
0.0
 70
    32
  0
VERTEX
  5
19A
330
198
100
AcDbEntity
  8
1
100
AcDbVertex
100
AcDb3dPolylineVertex
 10
-37.844325
 20
-0.359181
 30
0.0
 70
    32
  0
VERTEX
  5
19B
330
198
100
AcDbEntity
  8
1
100
AcDbVertex
100
AcDb3dPolylineVertex
 10
-37.857842
 20
-0.374142
 30
0.0
 70
    32
  0
VERTEX
  5
19C
330
198
100
AcDbEntity
  8
1
100
AcDbVertex
100
AcDb3dPolylineVertex
 10
-37.870269
 20
-0.388275
 30
0.0
 70
    32
  0
VERTEX
  5
19D
330
198
100
AcDbEntity
  8
1
100
AcDbVertex
100
AcDb3dPolylineVertex
 10
-37.881652
 20
-0.4016130000000001
 30
0.0
 70
    32
  0
VERTEX
  5
19E
330
198
100
AcDbEntity
  8
1
100
AcDbVertex
100
AcDb3dPolylineVertex
 10
-37.891664
 20
-0.4137830000000001
 30
0.0
 70
    32
  0
VERTEX
  5
19F
330
198
100
AcDbEntity
  8
1
100
AcDbVertex
100
AcDb3dPolylineVertex
 10
-37.899867
 20
-0.4242850000000001
 30
0.0
 70
    32
  0
VERTEX
  5
1A0
330
198
100
AcDbEntity
  8
1
100
AcDbVertex
100
AcDb3dPolylineVertex
 10
-37.905945
 20
-0.432832
 30
0.0
 70
    32
  0
VERTEX
  5
1A1
330
198
100
AcDbEntity
  8
1
100
AcDbVertex
100
AcDb3dPolylineVertex
 10
-37.909804
 20
-0.439507
 30
0.0
 70
    32
  0
VERTEX
  5
1A2
330
198
100
AcDbEntity
  8
1
100
AcDbVertex
100
AcDb3dPolylineVertex
 10
-37.910867
 20
-0.444086
 30
0.0
 70
    32
  0
VERTEX
  5
1A3
330
198
100
AcDbEntity
  8
1
100
AcDbVertex
100
AcDb3dPolylineVertex
 10
-37.907033
 20
-0.445299
 30
0.0
 70
    32
  0
SEQEND
  5
1A4
330
198
100
AcDbEntity
  8
1
  0
POLYLINE
  5
1A5
330
851
100
AcDbEntity
  8
1
100
AcDb3dPolyline
 66
     1
 10
0.0
 20
0.0
 30
0.0
 70
     8
  0
VERTEX
  5
1A6
330
1A5
100
AcDbEntity
  8
1
100
AcDbVertex
100
AcDb3dPolylineVertex
 10
-37.701591
 20
-7.875
 30
0.0
 70
    32
  0
VERTEX
  5
1A7
330
1A5
100
AcDbEntity
  8
1
100
AcDbVertex
100
AcDb3dPolylineVertex
 10
-37.698904
 20
-7.699596999999999
 30
0.0
 70
    32
  0
VERTEX
  5
1A8
330
1A5
100
AcDbEntity
  8
1
100
AcDbVertex
100
AcDb3dPolylineVertex
 10
-37.691226
 20
-7.532196
 30
0.0
 70
    32
  0
VERTEX
  5
1A9
330
1A5
100
AcDbEntity
  8
1
100
AcDbVertex
100
AcDb3dPolylineVertex
 10
-37.678474
 20
-7.37163
 30
0.0
 70
    32
  0
VERTEX
  5
1AA
330
1A5
100
AcDbEntity
  8
1
100
AcDbVertex
100
AcDb3dPolylineVertex
 10
-37.660824
 20
-7.220346000000001
 30
0.0
 70
    32
  0
VERTEX
  5
1AB
330
1A5
100
AcDbEntity
  8
1
100
AcDbVertex
100
AcDb3dPolylineVertex
 10
-37.638604
 20
-7.082857999999999
 30
0.0
 70
    32
  0
VERTEX
  5
1AC
330
1A5
100
AcDbEntity
  8
1
100
AcDbVertex
100
AcDb3dPolylineVertex
 10
-37.612155
 20
-6.962525999999999
 30
0.0
 70
    32
  0
VERTEX
  5
1AD
330
1A5
100
AcDbEntity
  8
1
100
AcDbVertex
100
AcDb3dPolylineVertex
 10
-37.581834
 20
-6.861221999999999
 30
0.0
 70
    32
  0
VERTEX
  5
1AE
330
1A5
100
AcDbEntity
  8
1
100
AcDbVertex
100
AcDb3dPolylineVertex
 10
-37.548099
 20
-6.780625999999999
 30
0.0
 70
    32
  0
VERTEX
  5
1AF
330
1A5
100
AcDbEntity
  8
1
100
AcDbVertex
100
AcDb3dPolylineVertex
 10
-37.511723
 20
-6.722125999999999
 30
0.0
 70
    32
  0
VERTEX
  5
1B0
330
1A5
100
AcDbEntity
  8
1
100
AcDbVertex
100
AcDb3dPolylineVertex
 10
-37.473451
 20
-6.686922
 30
0.0
 70
    32
  0
VERTEX
  5
1B1
330
1A5
100
AcDbEntity
  8
1
100
AcDbVertex
100
AcDb3dPolylineVertex
 10
-37.433274
 20
-6.674999999999999
 30
0.0
 70
    32
  0
SEQEND
  5
1B2
330
1A5
100
AcDbEntity
  8
1
  0
POLYLINE
  5
1B3
330
851
100
AcDbEntity
  8
1
100
AcDb3dPolyline
 66
     1
 10
0.0
 20
0.0
 30
0.0
 70
     8
  0
VERTEX
  5
1B4
330
1B3
100
AcDbEntity
  8
1
100
AcDbVertex
100
AcDb3dPolylineVertex
 10
-37.597989
 20
-0.343279
 30
0.0
 70
    32
  0
VERTEX
  5
1B5
330
1B3
100
AcDbEntity
  8
1
100
AcDbVertex
100
AcDb3dPolylineVertex
 10
-37.611141
 20
-0.357765
 30
0.0
 70
    32
  0
VERTEX
  5
1B6
330
1B3
100
AcDbEntity
  8
1
100
AcDbVertex
100
AcDb3dPolylineVertex
 10
-37.62324
 20
-0.371487
 30
0.0
 70
    32
  0
VERTEX
  5
1B7
330
1B3
100
AcDbEntity
  8
1
100
AcDbVertex
100
AcDb3dPolylineVertex
 10
-37.634382
 20
-0.384539
 30
0.0
 70
    32
  0
VERTEX
  5
1B8
330
1B3
100
AcDbEntity
  8
1
100
AcDbVertex
100
AcDb3dPolylineVertex
 10
-37.644629
 20
-0.396976
 30
0.0
 70
    32
  0
VERTEX
  5
1B9
330
1B3
100
AcDbEntity
  8
1
100
AcDbVertex
100
AcDb3dPolylineVertex
 10
-37.653772
 20
-0.4085340000000001
 30
0.0
 70
    32
  0
VERTEX
  5
1BA
330
1B3
100
AcDbEntity
  8
1
100
AcDbVertex
100
AcDb3dPolylineVertex
 10
-37.661455
 20
-0.418773
 30
0.0
 70
    32
  0
VERTEX
  5
1BB
330
1B3
100
AcDbEntity
  8
1
100
AcDbVertex
100
AcDb3dPolylineVertex
 10
-37.667385
 20
-0.427339
 30
0.0
 70
    32
  0
VERTEX
  5
1BC
330
1B3
100
AcDbEntity
  8
1
100
AcDbVertex
100
AcDb3dPolylineVertex
 10
-37.671652
 20
-0.4343520000000001
 30
0.0
 70
    32
  0
VERTEX
  5
1BD
330
1B3
100
AcDbEntity
  8
1
100
AcDbVertex
100
AcDb3dPolylineVertex
 10
-37.674437
 20
-0.4400770000000001
 30
0.0
 70
    32
  0
VERTEX
  5
1BE
330
1B3
100
AcDbEntity
  8
1
100
AcDbVertex
100
AcDb3dPolylineVertex
 10
-37.67488400000001
 20
-0.4440560000000001
 30
0.0
 70
    32
  0
VERTEX
  5
1BF
330
1B3
100
AcDbEntity
  8
1
100
AcDbVertex
100
AcDb3dPolylineVertex
 10
-37.666746
 20
-0.44532
 30
0.0
 70
    32
  0
SEQEND
  5
1C0
330
1B3
100
AcDbEntity
  8
1
  0
POLYLINE
  5
1C1
330
851
100
AcDbEntity
  8
1
100
AcDb3dPolyline
 66
     1
 10
0.0
 20
0.0
 30
0.0
 70
     8
  0
VERTEX
  5
1C2
330
1C1
100
AcDbEntity
  8
1
100
AcDbVertex
100
AcDb3dPolylineVertex
 10
-36.98600900000001
 20
0.325
 30
0.0
 70
    32
  0
VERTEX
  5
1C3
330
1C1
100
AcDbEntity
  8
1
100
AcDbVertex
100
AcDb3dPolylineVertex
 10
-37.190002
 20
0.10224
 30
0.0
 70
    32
  0
VERTEX
  5
1C4
330
1C1
100
AcDbEntity
  8
1
100
AcDbVertex
100
AcDb3dPolylineVertex
 10
-37.393996
 20
-0.120519
 30
0.0
 70
    32
  0
VERTEX
  5
1C5
330
1C1
100
AcDbEntity
  8
1
100
AcDbVertex
100
AcDb3dPolylineVertex
 10
-37.597989
 20
-0.343279
 30
0.0
 70
    32
  0
SEQEND
  5
1C6
330
1C1
100
AcDbEntity
  8
1
  0
POLYLINE
  5
1C7
330
851
100
AcDbEntity
  8
1
100
AcDb3dPolyline
 66
     1
 10
0.0
 20
0.0
 30
0.0
 70
     8
  0
VERTEX
  5
1C8
330
1C7
100
AcDbEntity
  8
1
100
AcDbVertex
100
AcDb3dPolylineVertex
 10
-37.304676
 20
-0.343279
 30
0.0
 70
    32
  0
VERTEX
  5
1C9
330
1C7
100
AcDbEntity
  8
1
100
AcDbVertex
100
AcDb3dPolylineVertex
 10
-37.317573
 20
-0.35777
 30
0.0
 70
    32
  0
VERTEX
  5
1CA
330
1C7
100
AcDbEntity
  8
1
100
AcDbVertex
100
AcDb3dPolylineVertex
 10
-37.329369
 20
-0.3715219999999999
 30
0.0
 70
    32
  0
VERTEX
  5
1CB
330
1C7
100
AcDbEntity
  8
1
100
AcDbVertex
100
AcDb3dPolylineVertex
 10
-37.340162
 20
-0.384632
 30
0.0
 70
    32
  0
VERTEX
  5
1CC
330
1C7
100
AcDbEntity
  8
1
100
AcDbVertex
100
AcDb3dPolylineVertex
 10
-37.350007
 20
-0.397142
 30
0.0
 70
    32
  0
VERTEX
  5
1CD
330
1C7
100
AcDbEntity
  8
1
100
AcDbVertex
100
AcDb3dPolylineVertex
 10
-37.358694
 20
-0.4087620000000001
 30
0.0
 70
    32
  0
VERTEX
  5
1CE
330
1C7
100
AcDbEntity
  8
1
100
AcDbVertex
100
AcDb3dPolylineVertex
 10
-37.365909
 20
-0.4190770000000001
 30
0.0
 70
    32
  0
VERTEX
  5
1CF
330
1C7
100
AcDbEntity
  8
1
100
AcDbVertex
100
AcDb3dPolylineVertex
 10
-37.37141300000001
 20
-0.427761
 30
0.0
 70
    32
  0
VERTEX
  5
1D0
330
1C7
100
AcDbEntity
  8
1
100
AcDbVertex
100
AcDb3dPolylineVertex
 10
-37.375226
 20
-0.4348140000000001
 30
0.0
 70
    32
  0
VERTEX
  5
1D1
330
1C7
100
AcDbEntity
  8
1
100
AcDbVertex
100
AcDb3dPolylineVertex
 10
-37.377342
 20
-0.440265
 30
0.0
 70
    32
  0
VERTEX
  5
1D2
330
1C7
100
AcDbEntity
  8
1
100
AcDbVertex
100
AcDb3dPolylineVertex
 10
-37.376892
 20
-0.443772
 30
0.0
 70
    32
  0
VERTEX
  5
1D3
330
1C7
100
AcDbEntity
  8
1
100
AcDbVertex
100
AcDb3dPolylineVertex
 10
-37.368704
 20
-0.4453140000000001
 30
0.0
 70
    32
  0
SEQEND
  5
1D4
330
1C7
100
AcDbEntity
  8
1
  0
POLYLINE
  5
1D5
330
851
100
AcDbEntity
  8
1
100
AcDb3dPolyline
 66
     1
 10
0.0
 20
0.0
 30
0.0
 70
     8
  0
VERTEX
  5
1D6
330
1D5
100
AcDbEntity
  8
1
100
AcDbVertex
100
AcDb3dPolylineVertex
 10
-36.703574
 20
0.325
 30
0.0
 70
    32
  0
VERTEX
  5
1D7
330
1D5
100
AcDbEntity
  8
1
100
AcDbVertex
100
AcDb3dPolylineVertex
 10
-36.903941
 20
0.10224
 30
0.0
 70
    32
  0
VERTEX
  5
1D8
330
1D5
100
AcDbEntity
  8
1
100
AcDbVertex
100
AcDb3dPolylineVertex
 10
-37.10430800000001
 20
-0.120519
 30
0.0
 70
    32
  0
VERTEX
  5
1D9
330
1D5
100
AcDbEntity
  8
1
100
AcDbVertex
100
AcDb3dPolylineVertex
 10
-37.304676
 20
-0.343279
 30
0.0
 70
    32
  0
SEQEND
  5
1DA
330
1D5
100
AcDbEntity
  8
1
  0
POLYLINE
  5
1DB
330
851
100
AcDbEntity
  8
1
100
AcDb3dPolyline
 66
     1
 10
0.0
 20
0.0
 30
0.0
 70
     8
  0
VERTEX
  5
1DC
330
1DB
100
AcDbEntity
  8
1
100
AcDbVertex
100
AcDb3dPolylineVertex
 10
-36.357115
 20
0.325
 30
0.0
 70
    32
  0
VERTEX
  5
1DD
330
1DB
100
AcDbEntity
  8
1
100
AcDbVertex
100
AcDb3dPolylineVertex
 10
-36.554141
 20
0.10224
 30
0.0
 70
    32
  0
VERTEX
  5
1DE
330
1DB
100
AcDbEntity
  8
1
100
AcDbVertex
100
AcDb3dPolylineVertex
 10
-36.751166
 20
-0.120519
 30
0.0
 70
    32
  0
VERTEX
  5
1DF
330
1DB
100
AcDbEntity
  8
1
100
AcDbVertex
100
AcDb3dPolylineVertex
 10
-36.948191
 20
-0.343279
 30
0.0
 70
    32
  0
SEQEND
  5
1E0
330
1DB
100
AcDbEntity
  8
1
  0
POLYLINE
  5
1E1
330
851
100
AcDbEntity
  8
1
100
AcDb3dPolyline
 66
     1
 10
0.0
 20
0.0
 30
0.0
 70
     8
  0
VERTEX
  5
1E2
330
1E1
100
AcDbEntity
  8
1
100
AcDbVertex
100
AcDb3dPolylineVertex
 10
-36.948191
 20
-0.343279
 30
0.0
 70
    32
  0
VERTEX
  5
1E3
330
1E1
100
AcDbEntity
  8
1
100
AcDbVertex
100
AcDb3dPolylineVertex
 10
-36.960858
 20
-0.357784
 30
0.0
 70
    32
  0
VERTEX
  5
1E4
330
1E1
100
AcDbEntity
  8
1
100
AcDbVertex
100
AcDb3dPolylineVertex
 10
-36.972369
 20
-0.3715739999999999
 30
0.0
 70
    32
  0
VERTEX
  5
1E5
330
1E1
100
AcDbEntity
  8
1
100
AcDbVertex
100
AcDb3dPolylineVertex
 10
-36.98282800000001
 20
-0.384752
 30
0.0
 70
    32
  0
VERTEX
  5
1E6
330
1E1
100
AcDbEntity
  8
1
100
AcDbVertex
100
AcDb3dPolylineVertex
 10
-36.992276
 20
-0.397347
 30
0.0
 70
    32
  0
VERTEX
  5
1E7
330
1E1
100
AcDbEntity
  8
1
100
AcDbVertex
100
AcDb3dPolylineVertex
 10
-37.00046500000001
 20
-0.4090730000000001
 30
0.0
 70
    32
  0
VERTEX
  5
1E8
330
1E1
100
AcDbEntity
  8
1
100
AcDbVertex
100
AcDb3dPolylineVertex
 10
-37.007075
 20
-0.419562
 30
0.0
 70
    32
  0
VERTEX
  5
1E9
330
1E1
100
AcDbEntity
  8
1
100
AcDbVertex
100
AcDb3dPolylineVertex
 10
-37.011856
 20
-0.42847
 30
0.0
 70
    32
  0
VERTEX
  5
1EA
330
1E1
100
AcDbEntity
  8
1
100
AcDbVertex
100
AcDb3dPolylineVertex
 10
-37.014696
 20
-0.435504
 30
0.0
 70
    32
  0
VERTEX
  5
1EB
330
1E1
100
AcDbEntity
  8
1
100
AcDbVertex
100
AcDb3dPolylineVertex
 10
-37.01548300000001
 20
-0.4404390000000001
 30
0.0
 70
    32
  0
VERTEX
  5
1EC
330
1E1
100
AcDbEntity
  8
1
100
AcDbVertex
100
AcDb3dPolylineVertex
 10
-37.013972
 20
-0.443424
 30
0.0
 70
    32
  0
VERTEX
  5
1ED
330
1E1
100
AcDbEntity
  8
1
100
AcDbVertex
100
AcDb3dPolylineVertex
 10
-37.006437
 20
-0.445411
 30
0.0
 70
    32
  0
SEQEND
  5
1EE
330
1E1
100
AcDbEntity
  8
1
  0
POLYLINE
  5
1EF
330
851
100
AcDbEntity
  8
1
100
AcDb3dPolyline
 66
     1
 10
0.0
 20
0.0
 30
0.0
 70
     8
  0
VERTEX
  5
1F0
330
1EF
100
AcDbEntity
  8
1
100
AcDbVertex
100
AcDb3dPolylineVertex
 10
-36.526687
 20
-0.343279
 30
0.0
 70
    32
  0
VERTEX
  5
1F1
330
1EF
100
AcDbEntity
  8
1
100
AcDbVertex
100
AcDb3dPolylineVertex
 10
-36.539129
 20
-0.357787
 30
0.0
 70
    32
  0
VERTEX
  5
1F2
330
1EF
100
AcDbEntity
  8
1
100
AcDbVertex
100
AcDb3dPolylineVertex
 10
-36.550359
 20
-0.371607
 30
0.0
 70
    32
  0
VERTEX
  5
1F3
330
1EF
100
AcDbEntity
  8
1
100
AcDbVertex
100
AcDb3dPolylineVertex
 10
-36.560491
 20
-0.384848
 30
0.0
 70
    32
  0
VERTEX
  5
1F4
330
1EF
100
AcDbEntity
  8
1
100
AcDbVertex
100
AcDb3dPolylineVertex
 10
-36.569537
 20
-0.397518
 30
0.0
 70
    32
  0
VERTEX
  5
1F5
330
1EF
100
AcDbEntity
  8
1
100
AcDbVertex
100
AcDb3dPolylineVertex
 10
-36.57721
 20
-0.40932
 30
0.0
 70
    32
  0
VERTEX
  5
1F6
330
1EF
100
AcDbEntity
  8
1
100
AcDbVertex
100
AcDb3dPolylineVertex
 10
-36.583172
 20
-0.4199060000000001
 30
0.0
 70
    32
  0
VERTEX
  5
1F7
330
1EF
100
AcDbEntity
  8
1
100
AcDbVertex
100
AcDb3dPolylineVertex
 10
-36.58723
 20
-0.4289520000000001
 30
0.0
 70
    32
  0
VERTEX
  5
1F8
330
1EF
100
AcDbEntity
  8
1
100
AcDbVertex
100
AcDb3dPolylineVertex
 10
-36.589382
 20
-0.4361640000000001
 30
0.0
 70
    32
  0
VERTEX
  5
1F9
330
1EF
100
AcDbEntity
  8
1
100
AcDbVertex
100
AcDb3dPolylineVertex
 10
-36.589619
 20
-0.4412760000000001
 30
0.0
 70
    32
  0
VERTEX
  5
1FA
330
1EF
100
AcDbEntity
  8
1
100
AcDbVertex
100
AcDb3dPolylineVertex
 10
-36.587704
 20
-0.4442810000000001
 30
0.0
 70
    32
  0
VERTEX
  5
1FB
330
1EF
100
AcDbEntity
  8
1
100
AcDbVertex
100
AcDb3dPolylineVertex
 10
-36.579459
 20
-0.4452790000000001
 30
0.0
 70
    32
  0
SEQEND
  5
1FC
330
1EF
100
AcDbEntity
  8
1
  0
POLYLINE
  5
1FD
330
851
100
AcDbEntity
  8
1
100
AcDb3dPolyline
 66
     1
 10
0.0
 20
0.0
 30
0.0
 70
     8
  0
VERTEX
  5
1FE
330
1FD
100
AcDbEntity
  8
1
100
AcDbVertex
100
AcDb3dPolylineVertex
 10
-35.94478200000001
 20
0.325
 30
0.0
 70
    32
  0
VERTEX
  5
1FF
330
1FD
100
AcDbEntity
  8
1
100
AcDbVertex
100
AcDb3dPolylineVertex
 10
-36.13875
 20
0.10224
 30
0.0
 70
    32
  0
VERTEX
  5
200
330
1FD
100
AcDbEntity
  8
1
100
AcDbVertex
100
AcDb3dPolylineVertex
 10
-36.332718
 20
-0.120519
 30
0.0
 70
    32
  0
VERTEX
  5
201
330
1FD
100
AcDbEntity
  8
1
100
AcDbVertex
100
AcDb3dPolylineVertex
 10
-36.526687
 20
-0.343279
 30
0.0
 70
    32
  0
SEQEND
  5
202
330
1FD
100
AcDbEntity
  8
1
  0
POLYLINE
  5
203
330
851
100
AcDbEntity
  8
1
100
AcDb3dPolyline
 66
     1
 10
0.0
 20
0.0
 30
0.0
 70
     8
  0
VERTEX
  5
204
330
203
100
AcDbEntity
  8
1
100
AcDbVertex
100
AcDb3dPolylineVertex
 10
-36.037881
 20
-0.343279
 30
0.0
 70
    32
  0
VERTEX
  5
205
330
203
100
AcDbEntity
  8
1
100
AcDbVertex
100
AcDb3dPolylineVertex
 10
-36.050137
 20
-0.357817
 30
0.0
 70
    32
  0
VERTEX
  5
206
330
203
100
AcDbEntity
  8
1
100
AcDbVertex
100
AcDb3dPolylineVertex
 10
-36.061118
 20
-0.371695
 30
0.0
 70
    32
  0
VERTEX
  5
207
330
203
100
AcDbEntity
  8
1
100
AcDbVertex
100
AcDb3dPolylineVertex
 10
-36.070945
 20
-0.385029
 30
0.0
 70
    32
  0
VERTEX
  5
208
330
203
100
AcDbEntity
  8
1
100
AcDbVertex
100
AcDb3dPolylineVertex
 10
-36.079585
 20
-0.397787
 30
0.0
 70
    32
  0
VERTEX
  5
209
330
203
100
AcDbEntity
  8
1
100
AcDbVertex
100
AcDb3dPolylineVertex
 10
-36.086682
 20
-0.4096320000000001
 30
0.0
 70
    32
  0
VERTEX
  5
20A
330
203
100
AcDbEntity
  8
1
100
AcDbVertex
100
AcDb3dPolylineVertex
 10
-36.091856
 20
-0.4202
 30
0.0
 70
    32
  0
VERTEX
  5
20B
330
203
100
AcDbEntity
  8
1
100
AcDbVertex
100
AcDb3dPolylineVertex
 10
-36.094899
 20
-0.4292060000000001
 30
0.0
 70
    32
  0
VERTEX
  5
20C
330
203
100
AcDbEntity
  8
1
100
AcDbVertex
100
AcDb3dPolylineVertex
 10
-36.09574600000001
 20
-0.4364390000000001
 30
0.0
 70
    32
  0
VERTEX
  5
20D
330
203
100
AcDbEntity
  8
1
100
AcDbVertex
100
AcDb3dPolylineVertex
 10
-36.094399
 20
-0.441669
 30
0.0
 70
    32
  0
VERTEX
  5
20E
330
203
100
AcDbEntity
  8
1
100
AcDbVertex
100
AcDb3dPolylineVertex
 10
-36.091188
 20
-0.44459
 30
0.0
 70
    32
  0
VERTEX
  5
20F
330
203
100
AcDbEntity
  8
1
100
AcDbVertex
100
AcDb3dPolylineVertex
 10
-36.08317
 20
-0.445275
 30
0.0
 70
    32
  0
SEQEND
  5
210
330
203
100
AcDbEntity
  8
1
  0
POLYLINE
  5
211
330
851
100
AcDbEntity
  8
1
100
AcDb3dPolyline
 66
     1
 10
0.0
 20
0.0
 30
0.0
 70
     8
  0
VERTEX
  5
212
330
211
100
AcDbEntity
  8
1
100
AcDbVertex
100
AcDb3dPolylineVertex
 10
-35.464276
 20
0.325
 30
0.0
 70
    32
  0
VERTEX
  5
213
330
211
100
AcDbEntity
  8
1
100
AcDbVertex
100
AcDb3dPolylineVertex
 10
-35.65547700000001
 20
0.10224
 30
0.0
 70
    32
  0
VERTEX
  5
214
330
211
100
AcDbEntity
  8
1
100
AcDbVertex
100
AcDb3dPolylineVertex
 10
-35.84667899999999
 20
-0.120519
 30
0.0
 70
    32
  0
VERTEX
  5
215
330
211
100
AcDbEntity
  8
1
100
AcDbVertex
100
AcDb3dPolylineVertex
 10
-36.037881
 20
-0.343279
 30
0.0
 70
    32
  0
SEQEND
  5
216
330
211
100
AcDbEntity
  8
1
  0
POLYLINE
  5
217
330
851
100
AcDbEntity
  8
1
100
AcDb3dPolyline
 66
     1
 10
0.0
 20
0.0
 30
0.0
 70
     8
  0
VERTEX
  5
218
330
217
100
AcDbEntity
  8
1
100
AcDbVertex
100
AcDb3dPolylineVertex
 10
-34.912782
 20
0.325
 30
0.0
 70
    32
  0
VERTEX
  5
219
330
217
100
AcDbEntity
  8
1
100
AcDbVertex
100
AcDb3dPolylineVertex
 10
-35.101519
 20
0.10224
 30
0.0
 70
    32
  0
VERTEX
  5
21A
330
217
100
AcDbEntity
  8
1
100
AcDbVertex
100
AcDb3dPolylineVertex
 10
-35.290255
 20
-0.120519
 30
0.0
 70
    32
  0
VERTEX
  5
21B
330
217
100
AcDbEntity
  8
1
100
AcDbVertex
100
AcDb3dPolylineVertex
 10
-35.478992
 20
-0.343279
 30
0.0
 70
    32
  0
SEQEND
  5
21C
330
217
100
AcDbEntity
  8
1
  0
POLYLINE
  5
21D
330
851
100
AcDbEntity
  8
1
100
AcDb3dPolyline
 66
     1
 10
0.0
 20
0.0
 30
0.0
 70
     8
  0
VERTEX
  5
21E
330
21D
100
AcDbEntity
  8
1
100
AcDbVertex
100
AcDb3dPolylineVertex
 10
-35.478992
 20
-0.343279
 30
0.0
 70
    32
  0
VERTEX
  5
21F
330
21D
100
AcDbEntity
  8
1
100
AcDbVertex
100
AcDb3dPolylineVertex
 10
-35.491084
 20
-0.357855
 30
0.0
 70
    32
  0
VERTEX
  5
220
330
21D
100
AcDbEntity
  8
1
100
AcDbVertex
100
AcDb3dPolylineVertex
 10
-35.501832
 20
-0.371801
 30
0.0
 70
    32
  0
VERTEX
  5
221
330
21D
100
AcDbEntity
  8
1
100
AcDbVertex
100
AcDb3dPolylineVertex
 10
-35.51136500000001
 20
-0.385239
 30
0.0
 70
    32
  0
VERTEX
  5
222
330
21D
100
AcDbEntity
  8
1
100
AcDbVertex
100
AcDb3dPolylineVertex
 10
-35.5196
 20
-0.398092
 30
0.0
 70
    32
  0
VERTEX
  5
223
330
21D
100
AcDbEntity
  8
1
100
AcDbVertex
100
AcDb3dPolylineVertex
 10
-35.52614699999999
 20
-0.4099930000000001
 30
0.0
 70
    32
  0
VERTEX
  5
224
330
21D
100
AcDbEntity
  8
1
100
AcDbVertex
100
AcDb3dPolylineVertex
 10
-35.530617
 20
-0.4205680000000001
 30
0.0
 70
    32
  0
VERTEX
  5
225
330
21D
100
AcDbEntity
  8
1
100
AcDbVertex
100
AcDb3dPolylineVertex
 10
-35.532785
 20
-0.429536
 30
0.0
 70
    32
  0
VERTEX
  5
226
330
21D
100
AcDbEntity
  8
1
100
AcDbVertex
100
AcDb3dPolylineVertex
 10
-35.532513
 20
-0.4366590000000001
 30
0.0
 70
    32
  0
VERTEX
  5
227
330
21D
100
AcDbEntity
  8
1
100
AcDbVertex
100
AcDb3dPolylineVertex
 10
-35.52996500000001
 20
-0.441732
 30
0.0
 70
    32
  0
VERTEX
  5
228
330
21D
100
AcDbEntity
  8
1
100
AcDbVertex
100
AcDb3dPolylineVertex
 10
-35.526042
 20
-0.444618
 30
0.0
 70
    32
  0
VERTEX
  5
229
330
21D
100
AcDbEntity
  8
1
100
AcDbVertex
100
AcDb3dPolylineVertex
 10
-35.518551
 20
-0.4452840000000001
 30
0.0
 70
    32
  0
SEQEND
  5
22A
330
21D
100
AcDbEntity
  8
1
  0
POLYLINE
  5
22B
330
851
100
AcDbEntity
  8
1
100
AcDb3dPolyline
 66
     1
 10
0.0
 20
0.0
 30
0.0
 70
     8
  0
VERTEX
  5
22C
330
22B
100
AcDbEntity
  8
1
100
AcDbVertex
100
AcDb3dPolylineVertex
 10
-34.286876
 20
0.325
 30
0.0
 70
    32
  0
VERTEX
  5
22D
330
22B
100
AcDbEntity
  8
1
100
AcDbVertex
100
AcDb3dPolylineVertex
 10
-34.47346599999999
 20
0.10224
 30
0.0
 70
    32
  0
VERTEX
  5
22E
330
22B
100
AcDbEntity
  8
1
100
AcDbVertex
100
AcDb3dPolylineVertex
 10
-34.660057
 20
-0.120519
 30
0.0
 70
    32
  0
VERTEX
  5
22F
330
22B
100
AcDbEntity
  8
1
100
AcDbVertex
100
AcDb3dPolylineVertex
 10
-34.846648
 20
-0.343279
 30
0.0
 70
    32
  0
SEQEND
  5
230
330
22B
100
AcDbEntity
  8
1
  0
POLYLINE
  5
231
330
851
100
AcDbEntity
  8
1
100
AcDb3dPolyline
 66
     1
 10
0.0
 20
0.0
 30
0.0
 70
     8
  0
VERTEX
  5
232
330
231
100
AcDbEntity
  8
1
100
AcDbVertex
100
AcDb3dPolylineVertex
 10
-34.846648
 20
-0.343279
 30
0.0
 70
    32
  0
VERTEX
  5
233
330
231
100
AcDbEntity
  8
1
100
AcDbVertex
100
AcDb3dPolylineVertex
 10
-34.858607
 20
-0.357912
 30
0.0
 70
    32
  0
VERTEX
  5
234
330
231
100
AcDbEntity
  8
1
100
AcDbVertex
100
AcDb3dPolylineVertex
 10
-34.86914500000001
 20
-0.371948
 30
0.0
 70
    32
  0
VERTEX
  5
235
330
231
100
AcDbEntity
  8
1
100
AcDbVertex
100
AcDb3dPolylineVertex
 10
-34.878397
 20
-0.3855119999999999
 30
0.0
 70
    32
  0
VERTEX
  5
236
330
231
100
AcDbEntity
  8
1
100
AcDbVertex
100
AcDb3dPolylineVertex
 10
-34.88622
 20
-0.398473
 30
0.0
 70
    32
  0
VERTEX
  5
237
330
231
100
AcDbEntity
  8
1
100
AcDbVertex
100
AcDb3dPolylineVertex
 10
-34.892189
 20
-0.4104350000000001
 30
0.0
 70
    32
  0
VERTEX
  5
238
330
231
100
AcDbEntity
  8
1
100
AcDbVertex
100
AcDb3dPolylineVertex
 10
-34.895915
 20
-0.4210140000000001
 30
0.0
 70
    32
  0
VERTEX
  5
239
330
231
100
AcDbEntity
  8
1
100
AcDbVertex
100
AcDb3dPolylineVertex
 10
-34.897225
 20
-0.429901
 30
0.0
 70
    32
  0
VERTEX
  5
23A
330
231
100
AcDbEntity
  8
1
100
AcDbVertex
100
AcDb3dPolylineVertex
 10
-34.896007
 20
-0.436816
 30
0.0
 70
    32
  0
VERTEX
  5
23B
330
231
100
AcDbEntity
  8
1
100
AcDbVertex
100
AcDb3dPolylineVertex
 10
-34.89239
 20
-0.441641
 30
0.0
 70
    32
  0
VERTEX
  5
23C
330
231
100
AcDbEntity
  8
1
100
AcDbVertex
100
AcDb3dPolylineVertex
 10
-34.886775
 20
-0.444449
 30
0.0
 70
    32
  0
VERTEX
  5
23D
330
231
100
AcDbEntity
  8
1
100
AcDbVertex
100
AcDb3dPolylineVertex
 10
-34.878387
 20
-0.445269
 30
0.0
 70
    32
  0
SEQEND
  5
23E
330
231
100
AcDbEntity
  8
1
  0
POLYLINE
  5
23F
330
851
100
AcDbEntity
  8
1
100
AcDb3dPolyline
 66
     1
 10
0.0
 20
0.0
 30
0.0
 70
     8
  0
VERTEX
  5
240
330
23F
100
AcDbEntity
  8
1
100
AcDbVertex
100
AcDb3dPolylineVertex
 10
-34.477015
 20
-0.190104
 30
0.0
 70
    32
  0
VERTEX
  5
241
330
23F
100
AcDbEntity
  8
1
100
AcDbVertex
100
AcDb3dPolylineVertex
 10
-34.579695
 20
-0.351736
 30
0.0
 70
    32
  0
VERTEX
  5
242
330
23F
100
AcDbEntity
  8
1
100
AcDbVertex
100
AcDb3dPolylineVertex
 10
-34.682375
 20
-0.513368
 30
0.0
 70
    32
  0
VERTEX
  5
243
330
23F
100
AcDbEntity
  8
1
100
AcDbVertex
100
AcDb3dPolylineVertex
 10
-34.78505399999999
 20
-0.675
 30
0.0
 70
    32
  0
SEQEND
  5
244
330
23F
100
AcDbEntity
  8
1
  0
POLYLINE
  5
245
330
851
100
AcDbEntity
  8
1
100
AcDb3dPolyline
 66
     1
 10
0.0
 20
0.0
 30
0.0
 70
     8
  0
VERTEX
  5
246
330
245
100
AcDbEntity
  8
1
100
AcDbVertex
100
AcDb3dPolylineVertex
 10
34.846648
 20
-0.343279
 30
0.0
 70
    32
  0
VERTEX
  5
247
330
245
100
AcDbEntity
  8
1
100
AcDbVertex
100
AcDb3dPolylineVertex
 10
34.660057
 20
-0.120519
 30
0.0
 70
    32
  0
VERTEX
  5
248
330
245
100
AcDbEntity
  8
1
100
AcDbVertex
100
AcDb3dPolylineVertex
 10
34.47346599999999
 20
0.10224
 30
0.0
 70
    32
  0
VERTEX
  5
249
330
245
100
AcDbEntity
  8
1
100
AcDbVertex
100
AcDb3dPolylineVertex
 10
34.286876
 20
0.325
 30
0.0
 70
    32
  0
SEQEND
  5
24A
330
245
100
AcDbEntity
  8
1
  0
POLYLINE
  5
24B
330
851
100
AcDbEntity
  8
1
100
AcDb3dPolyline
 66
     1
 10
0.0
 20
0.0
 30
0.0
 70
     8
  0
VERTEX
  5
24C
330
24B
100
AcDbEntity
  8
1
100
AcDbVertex
100
AcDb3dPolylineVertex
 10
34.68657800000001
 20
-0.343279
 30
0.0
 70
    32
  0
VERTEX
  5
24D
330
24B
100
AcDbEntity
  8
1
100
AcDbVertex
100
AcDb3dPolylineVertex
 10
34.616724
 20
-0.292221
 30
0.0
 70
    32
  0
VERTEX
  5
24E
330
24B
100
AcDbEntity
  8
1
100
AcDbVertex
100
AcDb3dPolylineVertex
 10
34.54687
 20
-0.241162
 30
0.0
 70
    32
  0
VERTEX
  5
24F
330
24B
100
AcDbEntity
  8
1
100
AcDbVertex
100
AcDb3dPolylineVertex
 10
34.477015
 20
-0.190104
 30
0.0
 70
    32
  0
SEQEND
  5
250
330
24B
100
AcDbEntity
  8
1
  0
POLYLINE
  5
251
330
851
100
AcDbEntity
  8
1
100
AcDb3dPolyline
 66
     1
 10
0.0
 20
0.0
 30
0.0
 70
     8
  0
VERTEX
  5
252
330
251
100
AcDbEntity
  8
1
100
AcDbVertex
100
AcDb3dPolylineVertex
 10
34.477015
 20
-0.190104
 30
0.0
 70
    32
  0
VERTEX
  5
253
330
251
100
AcDbEntity
  8
1
100
AcDbVertex
100
AcDb3dPolylineVertex
 10
34.579695
 20
-0.351736
 30
0.0
 70
    32
  0
VERTEX
  5
254
330
251
100
AcDbEntity
  8
1
100
AcDbVertex
100
AcDb3dPolylineVertex
 10
34.682375
 20
-0.513368
 30
0.0
 70
    32
  0
VERTEX
  5
255
330
251
100
AcDbEntity
  8
1
100
AcDbVertex
100
AcDb3dPolylineVertex
 10
34.78505399999999
 20
-0.675
 30
0.0
 70
    32
  0
SEQEND
  5
256
330
251
100
AcDbEntity
  8
1
  0
POLYLINE
  5
257
330
851
100
AcDbEntity
  8
1
100
AcDb3dPolyline
 66
     1
 10
0.0
 20
0.0
 30
0.0
 70
     8
  0
VERTEX
  5
258
330
257
100
AcDbEntity
  8
1
100
AcDbVertex
100
AcDb3dPolylineVertex
 10
35.478992
 20
-0.343279
 30
0.0
 70
    32
  0
VERTEX
  5
259
330
257
100
AcDbEntity
  8
1
100
AcDbVertex
100
AcDb3dPolylineVertex
 10
35.290255
 20
-0.120519
 30
0.0
 70
    32
  0
VERTEX
  5
25A
330
257
100
AcDbEntity
  8
1
100
AcDbVertex
100
AcDb3dPolylineVertex
 10
35.101519
 20
0.10224
 30
0.0
 70
    32
  0
VERTEX
  5
25B
330
257
100
AcDbEntity
  8
1
100
AcDbVertex
100
AcDb3dPolylineVertex
 10
34.912782
 20
0.325
 30
0.0
 70
    32
  0
SEQEND
  5
25C
330
257
100
AcDbEntity
  8
1
  0
POLYLINE
  5
25D
330
851
100
AcDbEntity
  8
1
100
AcDb3dPolyline
 66
     1
 10
0.0
 20
0.0
 30
0.0
 70
     8
  0
VERTEX
  5
25E
330
25D
100
AcDbEntity
  8
1
100
AcDbVertex
100
AcDb3dPolylineVertex
 10
36.037881
 20
-0.343279
 30
0.0
 70
    32
  0
VERTEX
  5
25F
330
25D
100
AcDbEntity
  8
1
100
AcDbVertex
100
AcDb3dPolylineVertex
 10
35.84667899999999
 20
-0.120519
 30
0.0
 70
    32
  0
VERTEX
  5
260
330
25D
100
AcDbEntity
  8
1
100
AcDbVertex
100
AcDb3dPolylineVertex
 10
35.65547700000001
 20
0.10224
 30
0.0
 70
    32
  0
VERTEX
  5
261
330
25D
100
AcDbEntity
  8
1
100
AcDbVertex
100
AcDb3dPolylineVertex
 10
35.464276
 20
0.325
 30
0.0
 70
    32
  0
SEQEND
  5
262
330
25D
100
AcDbEntity
  8
1
  0
POLYLINE
  5
263
330
851
100
AcDbEntity
  8
1
100
AcDb3dPolyline
 66
     1
 10
0.0
 20
0.0
 30
0.0
 70
     8
  0
VERTEX
  5
264
330
263
100
AcDbEntity
  8
1
100
AcDbVertex
100
AcDb3dPolylineVertex
 10
36.526687
 20
-0.343279
 30
0.0
 70
    32
  0
VERTEX
  5
265
330
263
100
AcDbEntity
  8
1
100
AcDbVertex
100
AcDb3dPolylineVertex
 10
36.332718
 20
-0.120519
 30
0.0
 70
    32
  0
VERTEX
  5
266
330
263
100
AcDbEntity
  8
1
100
AcDbVertex
100
AcDb3dPolylineVertex
 10
36.13875
 20
0.10224
 30
0.0
 70
    32
  0
VERTEX
  5
267
330
263
100
AcDbEntity
  8
1
100
AcDbVertex
100
AcDb3dPolylineVertex
 10
35.94478200000001
 20
0.325
 30
0.0
 70
    32
  0
SEQEND
  5
268
330
263
100
AcDbEntity
  8
1
  0
POLYLINE
  5
269
330
851
100
AcDbEntity
  8
1
100
AcDb3dPolyline
 66
     1
 10
0.0
 20
0.0
 30
0.0
 70
     8
  0
VERTEX
  5
26A
330
269
100
AcDbEntity
  8
1
100
AcDbVertex
100
AcDb3dPolylineVertex
 10
36.948191
 20
-0.343279
 30
0.0
 70
    32
  0
VERTEX
  5
26B
330
269
100
AcDbEntity
  8
1
100
AcDbVertex
100
AcDb3dPolylineVertex
 10
36.751166
 20
-0.120519
 30
0.0
 70
    32
  0
VERTEX
  5
26C
330
269
100
AcDbEntity
  8
1
100
AcDbVertex
100
AcDb3dPolylineVertex
 10
36.554141
 20
0.10224
 30
0.0
 70
    32
  0
VERTEX
  5
26D
330
269
100
AcDbEntity
  8
1
100
AcDbVertex
100
AcDb3dPolylineVertex
 10
36.357115
 20
0.325
 30
0.0
 70
    32
  0
SEQEND
  5
26E
330
269
100
AcDbEntity
  8
1
  0
POLYLINE
  5
26F
330
851
100
AcDbEntity
  8
1
100
AcDb3dPolyline
 66
     1
 10
0.0
 20
0.0
 30
0.0
 70
     8
  0
VERTEX
  5
270
330
26F
100
AcDbEntity
  8
1
100
AcDbVertex
100
AcDb3dPolylineVertex
 10
37.304676
 20
-0.343279
 30
0.0
 70
    32
  0
VERTEX
  5
271
330
26F
100
AcDbEntity
  8
1
100
AcDbVertex
100
AcDb3dPolylineVertex
 10
37.10430800000001
 20
-0.120519
 30
0.0
 70
    32
  0
VERTEX
  5
272
330
26F
100
AcDbEntity
  8
1
100
AcDbVertex
100
AcDb3dPolylineVertex
 10
36.903941
 20
0.10224
 30
0.0
 70
    32
  0
VERTEX
  5
273
330
26F
100
AcDbEntity
  8
1
100
AcDbVertex
100
AcDb3dPolylineVertex
 10
36.703574
 20
0.325
 30
0.0
 70
    32
  0
SEQEND
  5
274
330
26F
100
AcDbEntity
  8
1
  0
POLYLINE
  5
275
330
851
100
AcDbEntity
  8
1
100
AcDb3dPolyline
 66
     1
 10
0.0
 20
0.0
 30
0.0
 70
     8
  0
VERTEX
  5
276
330
275
100
AcDbEntity
  8
1
100
AcDbVertex
100
AcDb3dPolylineVertex
 10
37.597989
 20
-0.343279
 30
0.0
 70
    32
  0
VERTEX
  5
277
330
275
100
AcDbEntity
  8
1
100
AcDbVertex
100
AcDb3dPolylineVertex
 10
37.393996
 20
-0.120519
 30
0.0
 70
    32
  0
VERTEX
  5
278
330
275
100
AcDbEntity
  8
1
100
AcDbVertex
100
AcDb3dPolylineVertex
 10
37.190002
 20
0.10224
 30
0.0
 70
    32
  0
VERTEX
  5
279
330
275
100
AcDbEntity
  8
1
100
AcDbVertex
100
AcDb3dPolylineVertex
 10
36.98600900000001
 20
0.325
 30
0.0
 70
    32
  0
SEQEND
  5
27A
330
275
100
AcDbEntity
  8
1
  0
POLYLINE
  5
27B
330
851
100
AcDbEntity
  8
1
100
AcDb3dPolyline
 66
     1
 10
0.0
 20
0.0
 30
0.0
 70
     8
  0
VERTEX
  5
27C
330
27B
100
AcDbEntity
  8
1
100
AcDbVertex
100
AcDb3dPolylineVertex
 10
37.829602
 20
-0.343279
 30
0.0
 70
    32
  0
VERTEX
  5
27D
330
27B
100
AcDbEntity
  8
1
100
AcDbVertex
100
AcDb3dPolylineVertex
 10
37.621694
 20
-0.120519
 30
0.0
 70
    32
  0
VERTEX
  5
27E
330
27B
100
AcDbEntity
  8
1
100
AcDbVertex
100
AcDb3dPolylineVertex
 10
37.413786
 20
0.10224
 30
0.0
 70
    32
  0
VERTEX
  5
27F
330
27B
100
AcDbEntity
  8
1
100
AcDbVertex
100
AcDb3dPolylineVertex
 10
37.205878
 20
0.325
 30
0.0
 70
    32
  0
SEQEND
  5
280
330
27B
100
AcDbEntity
  8
1
  0
POLYLINE
  5
281
330
851
100
AcDbEntity
  8
1
100
AcDb3dPolyline
 66
     1
 10
0.0
 20
0.0
 30
0.0
 70
     8
  0
VERTEX
  5
282
330
281
100
AcDbEntity
  8
1
100
AcDbVertex
100
AcDb3dPolylineVertex
 10
38.000642
 20
-0.343279
 30
0.0
 70
    32
  0
VERTEX
  5
283
330
281
100
AcDbEntity
  8
1
100
AcDbVertex
100
AcDb3dPolylineVertex
 10
37.788523
 20
-0.120519
 30
0.0
 70
    32
  0
VERTEX
  5
284
330
281
100
AcDbEntity
  8
1
100
AcDbVertex
100
AcDb3dPolylineVertex
 10
37.576404
 20
0.10224
 30
0.0
 70
    32
  0
VERTEX
  5
285
330
281
100
AcDbEntity
  8
1
100
AcDbVertex
100
AcDb3dPolylineVertex
 10
37.364286
 20
0.325
 30
0.0
 70
    32
  0
SEQEND
  5
286
330
281
100
AcDbEntity
  8
1
  0
POLYLINE
  5
287
330
851
100
AcDbEntity
  8
1
100
AcDb3dPolyline
 66
     1
 10
0.0
 20
0.0
 30
0.0
 70
     8
  0
VERTEX
  5
288
330
287
100
AcDbEntity
  8
1
100
AcDbVertex
100
AcDb3dPolylineVertex
 10
38.111924
 20
-0.343279
 30
0.0
 70
    32
  0
VERTEX
  5
289
330
287
100
AcDbEntity
  8
1
100
AcDbVertex
100
AcDb3dPolylineVertex
 10
37.895287
 20
-0.120519
 30
0.0
 70
    32
  0
VERTEX
  5
28A
330
287
100
AcDbEntity
  8
1
100
AcDbVertex
100
AcDb3dPolylineVertex
 10
37.67865
 20
0.10224
 30
0.0
 70
    32
  0
VERTEX
  5
28B
330
287
100
AcDbEntity
  8
1
100
AcDbVertex
100
AcDb3dPolylineVertex
 10
37.462012
 20
0.325
 30
0.0
 70
    32
  0
SEQEND
  5
28C
330
287
100
AcDbEntity
  8
1
  0
POLYLINE
  5
28D
330
851
100
AcDbEntity
  8
1
100
AcDb3dPolyline
 66
     1
 10
0.0
 20
0.0
 30
0.0
 70
     8
  0
VERTEX
  5
28E
330
28D
100
AcDbEntity
  8
1
100
AcDbVertex
100
AcDb3dPolylineVertex
 10
38.16397199999999
 20
-0.343279
 30
0.0
 70
    32
  0
VERTEX
  5
28F
330
28D
100
AcDbEntity
  8
1
100
AcDbVertex
100
AcDb3dPolylineVertex
 10
37.942492
 20
-0.120519
 30
0.0
 70
    32
  0
VERTEX
  5
290
330
28D
100
AcDbEntity
  8
1
100
AcDbVertex
100
AcDb3dPolylineVertex
 10
37.721012
 20
0.10224
 30
0.0
 70
    32
  0
VERTEX
  5
291
330
28D
100
AcDbEntity
  8
1
100
AcDbVertex
100
AcDb3dPolylineVertex
 10
37.499531
 20
0.325
 30
0.0
 70
    32
  0
SEQEND
  5
292
330
28D
100
AcDbEntity
  8
1
  0
POLYLINE
  5
293
330
851
100
AcDbEntity
  8
1
100
AcDb3dPolyline
 66
     1
 10
0.0
 20
0.0
 30
0.0
 70
     8
  0
VERTEX
  5
294
330
293
100
AcDbEntity
  8
1
100
AcDbVertex
100
AcDb3dPolylineVertex
 10
39.23213
 20
-14.675
 30
0.0
 70
    32
  0
VERTEX
  5
295
330
293
100
AcDbEntity
  8
1
100
AcDbVertex
100
AcDb3dPolylineVertex
 10
39.013149
 20
-14.659216
 30
0.0
 70
    32
  0
VERTEX
  5
296
330
293
100
AcDbEntity
  8
1
100
AcDbVertex
100
AcDb3dPolylineVertex
 10
38.803725
 20
-14.615026
 30
0.0
 70
    32
  0
VERTEX
  5
297
330
293
100
AcDbEntity
  8
1
100
AcDbVertex
100
AcDb3dPolylineVertex
 10
38.602268
 20
-14.541751
 30
0.0
 70
    32
  0
VERTEX
  5
298
330
293
100
AcDbEntity
  8
1
100
AcDbVertex
100
AcDb3dPolylineVertex
 10
38.41103
 20
-14.440355
 30
0.0
 70
    32
  0
VERTEX
  5
299
330
293
100
AcDbEntity
  8
1
100
AcDbVertex
100
AcDb3dPolylineVertex
 10
38.23539
 20
-14.313143
 30
0.0
 70
    32
  0
VERTEX
  5
29A
330
293
100
AcDbEntity
  8
1
100
AcDbVertex
100
AcDb3dPolylineVertex
 10
38.080108
 20
-14.162559
 30
0.0
 70
    32
  0
VERTEX
  5
29B
330
293
100
AcDbEntity
  8
1
100
AcDbVertex
100
AcDb3dPolylineVertex
 10
37.948156
 20
-13.991287
 30
0.0
 70
    32
  0
VERTEX
  5
29C
330
293
100
AcDbEntity
  8
1
100
AcDbVertex
100
AcDb3dPolylineVertex
 10
37.84218900000001
 20
-13.802258
 30
0.0
 70
    32
  0
VERTEX
  5
29D
330
293
100
AcDbEntity
  8
1
100
AcDbVertex
100
AcDb3dPolylineVertex
 10
37.764573
 20
-13.600171
 30
0.0
 70
    32
  0
VERTEX
  5
29E
330
293
100
AcDbEntity
  8
1
100
AcDbVertex
100
AcDb3dPolylineVertex
 10
37.717487
 20
-13.390527
 30
0.0
 70
    32
  0
VERTEX
  5
29F
330
293
100
AcDbEntity
  8
1
100
AcDbVertex
100
AcDb3dPolylineVertex
 10
37.701591
 20
-13.175
 30
0.0
 70
    32
  0
SEQEND
  5
2A0
330
293
100
AcDbEntity
  8
1
  0
POLYLINE
  5
2A1
330
851
100
AcDbEntity
  8
1
100
AcDb3dPolyline
 66
     1
 10
0.0
 20
0.0
 30
0.0
 70
     8
  0
VERTEX
  5
2A2
330
2A1
100
AcDbEntity
  8
1
100
AcDbVertex
100
AcDb3dPolylineVertex
 10
-36.854833
 20
-0.343279
 30
0.0
 70
    32
  0
VERTEX
  5
2A3
330
2A1
100
AcDbEntity
  8
1
100
AcDbVertex
100
AcDb3dPolylineVertex
 10
-36.587942
 20
-0.120519
 30
0.0
 70
    32
  0
VERTEX
  5
2A4
330
2A1
100
AcDbEntity
  8
1
100
AcDbVertex
100
AcDb3dPolylineVertex
 10
-36.32105
 20
0.10224
 30
0.0
 70
    32
  0
VERTEX
  5
2A5
330
2A1
100
AcDbEntity
  8
1
100
AcDbVertex
100
AcDb3dPolylineVertex
 10
-36.054158
 20
0.325
 30
0.0
 70
    32
  0
SEQEND
  5
2A6
330
2A1
100
AcDbEntity
  8
1
  0
POLYLINE
  5
2A7
330
851
100
AcDbEntity
  8
1
100
AcDb3dPolyline
 66
     1
 10
0.0
 20
0.0
 30
0.0
 70
     8
  0
VERTEX
  5
2A8
330
2A7
100
AcDbEntity
  8
1
100
AcDbVertex
100
AcDb3dPolylineVertex
 10
-37.008012
 20
-0.445311
 30
0.0
 70
    32
  0
VERTEX
  5
2A9
330
2A7
100
AcDbEntity
  8
1
100
AcDbVertex
100
AcDb3dPolylineVertex
 10
-36.998736
 20
-0.4436080000000001
 30
0.0
 70
    32
  0
VERTEX
  5
2AA
330
2A7
100
AcDbEntity
  8
1
100
AcDbVertex
100
AcDb3dPolylineVertex
 10
-36.988254
 20
-0.43933
 30
0.0
 70
    32
  0
VERTEX
  5
2AB
330
2A7
100
AcDbEntity
  8
1
100
AcDbVertex
100
AcDb3dPolylineVertex
 10
-36.975387
 20
-0.43249
 30
0.0
 70
    32
  0
VERTEX
  5
2AC
330
2A7
100
AcDbEntity
  8
1
100
AcDbVertex
100
AcDb3dPolylineVertex
 10
-36.960725
 20
-0.423558
 30
0.0
 70
    32
  0
VERTEX
  5
2AD
330
2A7
100
AcDbEntity
  8
1
100
AcDbVertex
100
AcDb3dPolylineVertex
 10
-36.944821
 20
-0.4129680000000001
 30
0.0
 70
    32
  0
VERTEX
  5
2AE
330
2A7
100
AcDbEntity
  8
1
100
AcDbVertex
100
AcDb3dPolylineVertex
 10
-36.92796400000001
 20
-0.4009960000000001
 30
0.0
 70
    32
  0
VERTEX
  5
2AF
330
2A7
100
AcDbEntity
  8
1
100
AcDbVertex
100
AcDb3dPolylineVertex
 10
-36.910384
 20
-0.387881
 30
0.0
 70
    32
  0
VERTEX
  5
2B0
330
2A7
100
AcDbEntity
  8
1
100
AcDbVertex
100
AcDb3dPolylineVertex
 10
-36.892308
 20
-0.373862
 30
0.0
 70
    32
  0
VERTEX
  5
2B1
330
2A7
100
AcDbEntity
  8
1
100
AcDbVertex
100
AcDb3dPolylineVertex
 10
-36.873831
 20
-0.359036
 30
0.0
 70
    32
  0
VERTEX
  5
2B2
330
2A7
100
AcDbEntity
  8
1
100
AcDbVertex
100
AcDb3dPolylineVertex
 10
-36.854833
 20
-0.343279
 30
0.0
 70
    32
  0
SEQEND
  5
2B3
330
2A7
100
AcDbEntity
  8
1
  0
POLYLINE
  5
2B4
330
851
100
AcDbEntity
  8
1
100
AcDb3dPolyline
 66
     1
 10
0.0
 20
0.0
 30
0.0
 70
     8
  0
VERTEX
  5
2B5
330
2B4
100
AcDbEntity
  8
1
100
AcDbVertex
100
AcDb3dPolylineVertex
 10
37.534501
 20
-0.343279
 30
0.0
 70
    32
  0
VERTEX
  5
2B6
330
2B4
100
AcDbEntity
  8
1
100
AcDbVertex
100
AcDb3dPolylineVertex
 10
37.283041
 20
-0.120519
 30
0.0
 70
    32
  0
VERTEX
  5
2B7
330
2B4
100
AcDbEntity
  8
1
100
AcDbVertex
100
AcDb3dPolylineVertex
 10
37.031581
 20
0.10224
 30
0.0
 70
    32
  0
VERTEX
  5
2B8
330
2B4
100
AcDbEntity
  8
1
100
AcDbVertex
100
AcDb3dPolylineVertex
 10
36.780122
 20
0.325
 30
0.0
 70
    32
  0
SEQEND
  5
2B9
330
2B4
100
AcDbEntity
  8
1
  0
POLYLINE
  5
2BA
330
851
100
AcDbEntity
  8
1
100
AcDb3dPolyline
 66
     1
 10
0.0
 20
0.0
 30
0.0
 70
     8
  0
VERTEX
  5
2BB
330
2BA
100
AcDbEntity
  8
1
100
AcDbVertex
100
AcDb3dPolylineVertex
 10
37.669991
 20
-0.445247
 30
0.0
 70
    32
  0
VERTEX
  5
2BC
330
2BA
100
AcDbEntity
  8
1
100
AcDbVertex
100
AcDb3dPolylineVertex
 10
37.662739
 20
-0.4434790000000001
 30
0.0
 70
    32
  0
VERTEX
  5
2BD
330
2BA
100
AcDbEntity
  8
1
100
AcDbVertex
100
AcDb3dPolylineVertex
 10
37.655325
 20
-0.439519
 30
0.0
 70
    32
  0
VERTEX
  5
2BE
330
2BA
100
AcDbEntity
  8
1
100
AcDbVertex
100
AcDb3dPolylineVertex
 10
37.64465700000001
 20
-0.432694
 30
0.0
 70
    32
  0
VERTEX
  5
2BF
330
2BA
100
AcDbEntity
  8
1
100
AcDbVertex
100
AcDb3dPolylineVertex
 10
37.63184000000001
 20
-0.42369
 30
0.0
 70
    32
  0
VERTEX
  5
2C0
330
2BA
100
AcDbEntity
  8
1
100
AcDbVertex
100
AcDb3dPolylineVertex
 10
37.61763300000001
 20
-0.4130250000000001
 30
0.0
 70
    32
  0
VERTEX
  5
2C1
330
2BA
100
AcDbEntity
  8
1
100
AcDbVertex
100
AcDb3dPolylineVertex
 10
37.602376
 20
-0.401025
 30
0.0
 70
    32
  0
VERTEX
  5
2C2
330
2BA
100
AcDbEntity
  8
1
100
AcDbVertex
100
AcDb3dPolylineVertex
 10
37.58638
 20
-0.387998
 30
0.0
 70
    32
  0
VERTEX
  5
2C3
330
2BA
100
AcDbEntity
  8
1
100
AcDbVertex
100
AcDb3dPolylineVertex
 10
37.56979000000001
 20
-0.374087
 30
0.0
 70
    32
  0
VERTEX
  5
2C4
330
2BA
100
AcDbEntity
  8
1
100
AcDbVertex
100
AcDb3dPolylineVertex
 10
37.552528
 20
-0.359213
 30
0.0
 70
    32
  0
VERTEX
  5
2C5
330
2BA
100
AcDbEntity
  8
1
100
AcDbVertex
100
AcDb3dPolylineVertex
 10
37.534501
 20
-0.343279
 30
0.0
 70
    32
  0
SEQEND
  5
2C6
330
2BA
100
AcDbEntity
  8
1
  0
POLYLINE
  5
2C7
330
851
100
AcDbEntity
  8
1
100
AcDb3dPolyline
 66
     1
 10
0.0
 20
0.0
 30
0.0
 70
     8
  0
VERTEX
  5
2C8
330
2C7
100
AcDbEntity
  8
1
100
AcDbVertex
100
AcDb3dPolylineVertex
 10
37.597989
 20
-0.343279
 30
0.0
 70
    32
  0
VERTEX
  5
2C9
330
2C7
100
AcDbEntity
  8
1
100
AcDbVertex
100
AcDb3dPolylineVertex
 10
37.61218
 20
-0.358964
 30
0.0
 70
    32
  0
VERTEX
  5
2CA
330
2C7
100
AcDbEntity
  8
1
100
AcDbVertex
100
AcDb3dPolylineVertex
 10
37.625326
 20
-0.373948
 30
0.0
 70
    32
  0
VERTEX
  5
2CB
330
2C7
100
AcDbEntity
  8
1
100
AcDbVertex
100
AcDb3dPolylineVertex
 10
37.637517
 20
-0.388307
 30
0.0
 70
    32
  0
VERTEX
  5
2CC
330
2C7
100
AcDbEntity
  8
1
100
AcDbVertex
100
AcDb3dPolylineVertex
 10
37.648394
 20
-0.401648
 30
0.0
 70
    32
  0
VERTEX
  5
2CD
330
2C7
100
AcDbEntity
  8
1
100
AcDbVertex
100
AcDb3dPolylineVertex
 10
37.657484
 20
-0.4134590000000001
 30
0.0
 70
    32
  0
VERTEX
  5
2CE
330
2C7
100
AcDbEntity
  8
1
100
AcDbVertex
100
AcDb3dPolylineVertex
 10
37.6645
 20
-0.423421
 30
0.0
 70
    32
  0
VERTEX
  5
2CF
330
2C7
100
AcDbEntity
  8
1
100
AcDbVertex
100
AcDb3dPolylineVertex
 10
37.669705
 20
-0.431798
 30
0.0
 70
    32
  0
VERTEX
  5
2D0
330
2C7
100
AcDbEntity
  8
1
100
AcDbVertex
100
AcDb3dPolylineVertex
 10
37.673154
 20
-0.4387240000000001
 30
0.0
 70
    32
  0
VERTEX
  5
2D1
330
2C7
100
AcDbEntity
  8
1
100
AcDbVertex
100
AcDb3dPolylineVertex
 10
37.673763
 20
-0.4434960000000001
 30
0.0
 70
    32
  0
VERTEX
  5
2D2
330
2C7
100
AcDbEntity
  8
1
100
AcDbVertex
100
AcDb3dPolylineVertex
 10
37.670197
 20
-0.445221
 30
0.0
 70
    32
  0
SEQEND
  5
2D3
330
2C7
100
AcDbEntity
  8
1
  0
POLYLINE
  5
2D4
330
851
100
AcDbEntity
  8
1
100
AcDb3dPolyline
 66
     1
 10
0.0
 20
0.0
 30
0.0
 70
     8
  0
VERTEX
  5
2D5
330
2D4
100
AcDbEntity
  8
1
100
AcDbVertex
100
AcDb3dPolylineVertex
 10
-37.534501
 20
-0.343279
 30
0.0
 70
    32
  0
VERTEX
  5
2D6
330
2D4
100
AcDbEntity
  8
1
100
AcDbVertex
100
AcDb3dPolylineVertex
 10
-37.552262
 20
-0.358943
 30
0.0
 70
    32
  0
VERTEX
  5
2D7
330
2D4
100
AcDbEntity
  8
1
100
AcDbVertex
100
AcDb3dPolylineVertex
 10
-37.569483
 20
-0.373777
 30
0.0
 70
    32
  0
VERTEX
  5
2D8
330
2D4
100
AcDbEntity
  8
1
100
AcDbVertex
100
AcDb3dPolylineVertex
 10
-37.58625100000001
 20
-0.387871
 30
0.0
 70
    32
  0
VERTEX
  5
2D9
330
2D4
100
AcDbEntity
  8
1
100
AcDbVertex
100
AcDb3dPolylineVertex
 10
-37.602397
 20
-0.4010480000000001
 30
0.0
 70
    32
  0
VERTEX
  5
2DA
330
2D4
100
AcDbEntity
  8
1
100
AcDbVertex
100
AcDb3dPolylineVertex
 10
-37.617698
 20
-0.413078
 30
0.0
 70
    32
  0
VERTEX
  5
2DB
330
2D4
100
AcDbEntity
  8
1
100
AcDbVertex
100
AcDb3dPolylineVertex
 10
-37.631926
 20
-0.4237270000000001
 30
0.0
 70
    32
  0
VERTEX
  5
2DC
330
2D4
100
AcDbEntity
  8
1
100
AcDbVertex
100
AcDb3dPolylineVertex
 10
-37.644695
 20
-0.4326550000000001
 30
0.0
 70
    32
  0
VERTEX
  5
2DD
330
2D4
100
AcDbEntity
  8
1
100
AcDbVertex
100
AcDb3dPolylineVertex
 10
-37.655419
 20
-0.439394
 30
0.0
 70
    32
  0
VERTEX
  5
2DE
330
2D4
100
AcDbEntity
  8
1
100
AcDbVertex
100
AcDb3dPolylineVertex
 10
-37.663741
 20
-0.4435510000000001
 30
0.0
 70
    32
  0
VERTEX
  5
2DF
330
2D4
100
AcDbEntity
  8
1
100
AcDbVertex
100
AcDb3dPolylineVertex
 10
-37.671012
 20
-0.4453470000000001
 30
0.0
 70
    32
  0
SEQEND
  5
2E0
330
2D4
100
AcDbEntity
  8
1
  0
POLYLINE
  5
2E1
330
851
100
AcDbEntity
  8
1
100
AcDb3dPolyline
 66
     1
 10
0.0
 20
0.0
 30
0.0
 70
     8
  0
VERTEX
  5
2E2
330
2E1
100
AcDbEntity
  8
1
100
AcDbVertex
100
AcDb3dPolylineVertex
 10
-36.780122
 20
0.325
 30
0.0
 70
    32
  0
VERTEX
  5
2E3
330
2E1
100
AcDbEntity
  8
1
100
AcDbVertex
100
AcDb3dPolylineVertex
 10
-37.031581
 20
0.10224
 30
0.0
 70
    32
  0
VERTEX
  5
2E4
330
2E1
100
AcDbEntity
  8
1
100
AcDbVertex
100
AcDb3dPolylineVertex
 10
-37.283041
 20
-0.120519
 30
0.0
 70
    32
  0
VERTEX
  5
2E5
330
2E1
100
AcDbEntity
  8
1
100
AcDbVertex
100
AcDb3dPolylineVertex
 10
-37.534501
 20
-0.343279
 30
0.0
 70
    32
  0
SEQEND
  5
2E6
330
2E1
100
AcDbEntity
  8
1
  0
POLYLINE
  5
2E7
330
851
100
AcDbEntity
  8
1
100
AcDb3dPolyline
 66
     1
 10
0.0
 20
0.0
 30
0.0
 70
     8
  0
VERTEX
  5
2E8
330
2E7
100
AcDbEntity
  8
1
100
AcDbVertex
100
AcDb3dPolylineVertex
 10
36.854833
 20
-0.343279
 30
0.0
 70
    32
  0
VERTEX
  5
2E9
330
2E7
100
AcDbEntity
  8
1
100
AcDbVertex
100
AcDb3dPolylineVertex
 10
36.587942
 20
-0.120519
 30
0.0
 70
    32
  0
VERTEX
  5
2EA
330
2E7
100
AcDbEntity
  8
1
100
AcDbVertex
100
AcDb3dPolylineVertex
 10
36.32105
 20
0.10224
 30
0.0
 70
    32
  0
VERTEX
  5
2EB
330
2E7
100
AcDbEntity
  8
1
100
AcDbVertex
100
AcDb3dPolylineVertex
 10
36.054158
 20
0.325
 30
0.0
 70
    32
  0
SEQEND
  5
2EC
330
2E7
100
AcDbEntity
  8
1
  0
POLYLINE
  5
2ED
330
851
100
AcDbEntity
  8
1
100
AcDb3dPolyline
 66
     1
 10
0.0
 20
0.0
 30
0.0
 70
     8
  0
VERTEX
  5
2EE
330
2ED
100
AcDbEntity
  8
1
100
AcDbVertex
100
AcDb3dPolylineVertex
 10
37.00760600000001
 20
-0.4452840000000001
 30
0.0
 70
    32
  0
VERTEX
  5
2EF
330
2ED
100
AcDbEntity
  8
1
100
AcDbVertex
100
AcDb3dPolylineVertex
 10
36.997961
 20
-0.4436510000000001
 30
0.0
 70
    32
  0
VERTEX
  5
2F0
330
2ED
100
AcDbEntity
  8
1
100
AcDbVertex
100
AcDb3dPolylineVertex
 10
36.98800100000001
 20
-0.439319
 30
0.0
 70
    32
  0
VERTEX
  5
2F1
330
2ED
100
AcDbEntity
  8
1
100
AcDbVertex
100
AcDb3dPolylineVertex
 10
36.975183
 20
-0.432416
 30
0.0
 70
    32
  0
VERTEX
  5
2F2
330
2ED
100
AcDbEntity
  8
1
100
AcDbVertex
100
AcDb3dPolylineVertex
 10
36.960612
 20
-0.4234850000000001
 30
0.0
 70
    32
  0
VERTEX
  5
2F3
330
2ED
100
AcDbEntity
  8
1
100
AcDbVertex
100
AcDb3dPolylineVertex
 10
36.944786
 20
-0.412928
 30
0.0
 70
    32
  0
VERTEX
  5
2F4
330
2ED
100
AcDbEntity
  8
1
100
AcDbVertex
100
AcDb3dPolylineVertex
 10
36.928106
 20
-0.4011250000000001
 30
0.0
 70
    32
  0
VERTEX
  5
2F5
330
2ED
100
AcDbEntity
  8
1
100
AcDbVertex
100
AcDb3dPolylineVertex
 10
36.910826
 20
-0.388316
 30
0.0
 70
    32
  0
VERTEX
  5
2F6
330
2ED
100
AcDbEntity
  8
1
100
AcDbVertex
100
AcDb3dPolylineVertex
 10
36.892905
 20
-0.374457
 30
0.0
 70
    32
  0
VERTEX
  5
2F7
330
2ED
100
AcDbEntity
  8
1
100
AcDbVertex
100
AcDb3dPolylineVertex
 10
36.874266
 20
-0.35947
 30
0.0
 70
    32
  0
VERTEX
  5
2F8
330
2ED
100
AcDbEntity
  8
1
100
AcDbVertex
100
AcDb3dPolylineVertex
 10
36.854833
 20
-0.343279
 30
0.0
 70
    32
  0
SEQEND
  5
2F9
330
2ED
100
AcDbEntity
  8
1
  0
POLYLINE
  5
2FA
330
851
100
AcDbEntity
  8
1
100
AcDb3dPolyline
 66
     1
 10
0.0
 20
0.0
 30
0.0
 70
     8
  0
VERTEX
  5
2FB
330
2FA
100
AcDbEntity
  8
1
100
AcDbVertex
100
AcDb3dPolylineVertex
 10
36.948191
 20
-0.343279
 30
0.0
 70
    32
  0
VERTEX
  5
2FC
330
2FA
100
AcDbEntity
  8
1
100
AcDbVertex
100
AcDb3dPolylineVertex
 10
36.96059
 20
-0.357539
 30
0.0
 70
    32
  0
VERTEX
  5
2FD
330
2FA
100
AcDbEntity
  8
1
100
AcDbVertex
100
AcDb3dPolylineVertex
 10
36.972138
 20
-0.371369
 30
0.0
 70
    32
  0
VERTEX
  5
2FE
330
2FA
100
AcDbEntity
  8
1
100
AcDbVertex
100
AcDb3dPolylineVertex
 10
36.98281400000001
 20
-0.384754
 30
0.0
 70
    32
  0
VERTEX
  5
2FF
330
2FA
100
AcDbEntity
  8
1
100
AcDbVertex
100
AcDb3dPolylineVertex
 10
36.992356
 20
-0.397444
 30
0.0
 70
    32
  0
VERTEX
  5
300
330
2FA
100
AcDbEntity
  8
1
100
AcDbVertex
100
AcDb3dPolylineVertex
 10
37.000491
 20
-0.4091820000000001
 30
0.0
 70
    32
  0
VERTEX
  5
301
330
2FA
100
AcDbEntity
  8
1
100
AcDbVertex
100
AcDb3dPolylineVertex
 10
37.006992
 20
-0.4197189999999999
 30
0.0
 70
    32
  0
VERTEX
  5
302
330
2FA
100
AcDbEntity
  8
1
100
AcDbVertex
100
AcDb3dPolylineVertex
 10
37.01171400000001
 20
-0.428817
 30
0.0
 70
    32
  0
VERTEX
  5
303
330
2FA
100
AcDbEntity
  8
1
100
AcDbVertex
100
AcDb3dPolylineVertex
 10
37.01448
 20
-0.436207
 30
0.0
 70
    32
  0
VERTEX
  5
304
330
2FA
100
AcDbEntity
  8
1
100
AcDbVertex
100
AcDb3dPolylineVertex
 10
37.014988
 20
-0.441508
 30
0.0
 70
    32
  0
VERTEX
  5
305
330
2FA
100
AcDbEntity
  8
1
100
AcDbVertex
100
AcDb3dPolylineVertex
 10
37.012856
 20
-0.444381
 30
0.0
 70
    32
  0
VERTEX
  5
306
330
2FA
100
AcDbEntity
  8
1
100
AcDbVertex
100
AcDb3dPolylineVertex
 10
37.007079
 20
-0.4452790000000001
 30
0.0
 70
    32
  0
SEQEND
  5
307
330
2FA
100
AcDbEntity
  8
1
  0
POLYLINE
  5
308
330
851
100
AcDbEntity
  8
1
100
AcDb3dPolyline
 66
     1
 10
0.0
 20
0.0
 30
0.0
 70
     8
  0
VERTEX
  5
309
330
308
100
AcDbEntity
  8
1
100
AcDbVertex
100
AcDb3dPolylineVertex
 10
36.417698
 20
-0.343279
 30
0.0
 70
    32
  0
VERTEX
  5
30A
330
308
100
AcDbEntity
  8
1
100
AcDbVertex
100
AcDb3dPolylineVertex
 10
36.142111
 20
-0.120519
 30
0.0
 70
    32
  0
VERTEX
  5
30B
330
308
100
AcDbEntity
  8
1
100
AcDbVertex
100
AcDb3dPolylineVertex
 10
35.866524
 20
0.10224
 30
0.0
 70
    32
  0
VERTEX
  5
30C
330
308
100
AcDbEntity
  8
1
100
AcDbVertex
100
AcDb3dPolylineVertex
 10
35.590938
 20
0.325
 30
0.0
 70
    32
  0
SEQEND
  5
30D
330
308
100
AcDbEntity
  8
1
  0
POLYLINE
  5
30E
330
851
100
AcDbEntity
  8
1
100
AcDb3dPolyline
 66
     1
 10
0.0
 20
0.0
 30
0.0
 70
     8
  0
VERTEX
  5
30F
330
30E
100
AcDbEntity
  8
1
100
AcDbVertex
100
AcDb3dPolylineVertex
 10
36.579367
 20
-0.44528
 30
0.0
 70
    32
  0
VERTEX
  5
310
330
30E
100
AcDbEntity
  8
1
100
AcDbVertex
100
AcDb3dPolylineVertex
 10
36.56883
 20
-0.4436550000000001
 30
0.0
 70
    32
  0
VERTEX
  5
311
330
30E
100
AcDbEntity
  8
1
100
AcDbVertex
100
AcDb3dPolylineVertex
 10
36.557725
 20
-0.439257
 30
0.0
 70
    32
  0
VERTEX
  5
312
330
30E
100
AcDbEntity
  8
1
100
AcDbVertex
100
AcDb3dPolylineVertex
 10
36.543762
 20
-0.4323510000000001
 30
0.0
 70
    32
  0
VERTEX
  5
313
330
30E
100
AcDbEntity
  8
1
100
AcDbVertex
100
AcDb3dPolylineVertex
 10
36.528181
 20
-0.4234390000000001
 30
0.0
 70
    32
  0
VERTEX
  5
314
330
30E
100
AcDbEntity
  8
1
100
AcDbVertex
100
AcDb3dPolylineVertex
 10
36.511446
 20
-0.4129170000000001
 30
0.0
 70
    32
  0
VERTEX
  5
315
330
30E
100
AcDbEntity
  8
1
100
AcDbVertex
100
AcDb3dPolylineVertex
 10
36.493945
 20
-0.401169
 30
0.0
 70
    32
  0
VERTEX
  5
316
330
30E
100
AcDbEntity
  8
1
100
AcDbVertex
100
AcDb3dPolylineVertex
 10
36.475882
 20
-0.388395
 30
0.0
 70
    32
  0
VERTEX
  5
317
330
30E
100
AcDbEntity
  8
1
100
AcDbVertex
100
AcDb3dPolylineVertex
 10
36.457202
 20
-0.374538
 30
0.0
 70
    32
  0
VERTEX
  5
318
330
30E
100
AcDbEntity
  8
1
100
AcDbVertex
100
AcDb3dPolylineVertex
 10
36.437832
 20
-0.359525
 30
0.0
 70
    32
  0
VERTEX
  5
319
330
30E
100
AcDbEntity
  8
1
100
AcDbVertex
100
AcDb3dPolylineVertex
 10
36.417698
 20
-0.343279
 30
0.0
 70
    32
  0
SEQEND
  5
31A
330
30E
100
AcDbEntity
  8
1
  0
POLYLINE
  5
31B
330
851
100
AcDbEntity
  8
1
100
AcDb3dPolyline
 66
     1
 10
0.0
 20
0.0
 30
0.0
 70
     8
  0
VERTEX
  5
31C
330
31B
100
AcDbEntity
  8
1
100
AcDbVertex
100
AcDb3dPolylineVertex
 10
36.526687
 20
-0.343279
 30
0.0
 70
    32
  0
VERTEX
  5
31D
330
31B
100
AcDbEntity
  8
1
100
AcDbVertex
100
AcDb3dPolylineVertex
 10
36.538874
 20
-0.357559
 30
0.0
 70
    32
  0
VERTEX
  5
31E
330
31B
100
AcDbEntity
  8
1
100
AcDbVertex
100
AcDb3dPolylineVertex
 10
36.550169
 20
-0.371449
 30
0.0
 70
    32
  0
VERTEX
  5
31F
330
31B
100
AcDbEntity
  8
1
100
AcDbVertex
100
AcDb3dPolylineVertex
 10
36.560516
 20
-0.384896
 30
0.0
 70
    32
  0
VERTEX
  5
320
330
31B
100
AcDbEntity
  8
1
100
AcDbVertex
100
AcDb3dPolylineVertex
 10
36.569635
 20
-0.397642
 30
0.0
 70
    32
  0
VERTEX
  5
321
330
31B
100
AcDbEntity
  8
1
100
AcDbVertex
100
AcDb3dPolylineVertex
 10
36.577241
 20
-0.40942
 30
0.0
 70
    32
  0
VERTEX
  5
322
330
31B
100
AcDbEntity
  8
1
100
AcDbVertex
100
AcDb3dPolylineVertex
 10
36.583054
 20
-0.419949
 30
0.0
 70
    32
  0
VERTEX
  5
323
330
31B
100
AcDbEntity
  8
1
100
AcDbVertex
100
AcDb3dPolylineVertex
 10
36.586799
 20
-0.4289260000000001
 30
0.0
 70
    32
  0
VERTEX
  5
324
330
31B
100
AcDbEntity
  8
1
100
AcDbVertex
100
AcDb3dPolylineVertex
 10
36.588307
 20
-0.436096
 30
0.0
 70
    32
  0
VERTEX
  5
325
330
31B
100
AcDbEntity
  8
1
100
AcDbVertex
100
AcDb3dPolylineVertex
 10
36.587608
 20
-0.4412950000000001
 30
0.0
 70
    32
  0
VERTEX
  5
326
330
31B
100
AcDbEntity
  8
1
100
AcDbVertex
100
AcDb3dPolylineVertex
 10
36.584675
 20
-0.44438
 30
0.0
 70
    32
  0
VERTEX
  5
327
330
31B
100
AcDbEntity
  8
1
100
AcDbVertex
100
AcDb3dPolylineVertex
 10
36.579
 20
-0.4452740000000001
 30
0.0
 70
    32
  0
SEQEND
  5
328
330
31B
100
AcDbEntity
  8
1
  0
POLYLINE
  5
329
330
851
100
AcDbEntity
  8
1
100
AcDb3dPolyline
 66
     1
 10
0.0
 20
0.0
 30
0.0
 70
     8
  0
VERTEX
  5
32A
330
329
100
AcDbEntity
  8
1
100
AcDbVertex
100
AcDb3dPolylineVertex
 10
36.083846
 20
-0.445278
 30
0.0
 70
    32
  0
VERTEX
  5
32B
330
329
100
AcDbEntity
  8
1
100
AcDbVertex
100
AcDb3dPolylineVertex
 10
36.089962
 20
-0.4443640000000001
 30
0.0
 70
    32
  0
VERTEX
  5
32C
330
329
100
AcDbEntity
  8
1
100
AcDbVertex
100
AcDb3dPolylineVertex
 10
36.093834
 20
-0.441369
 30
0.0
 70
    32
  0
VERTEX
  5
32D
330
329
100
AcDbEntity
  8
1
100
AcDbVertex
100
AcDb3dPolylineVertex
 10
36.095471
 20
-0.4362630000000001
 30
0.0
 70
    32
  0
VERTEX
  5
32E
330
329
100
AcDbEntity
  8
1
100
AcDbVertex
100
AcDb3dPolylineVertex
 10
36.094833
 20
-0.429158
 30
0.0
 70
    32
  0
VERTEX
  5
32F
330
329
100
AcDbEntity
  8
1
100
AcDbVertex
100
AcDb3dPolylineVertex
 10
36.091874
 20
-0.420215
 30
0.0
 70
    32
  0
VERTEX
  5
330
330
329
100
AcDbEntity
  8
1
100
AcDbVertex
100
AcDb3dPolylineVertex
 10
36.08672100000001
 20
-0.4096770000000002
 30
0.0
 70
    32
  0
VERTEX
  5
331
330
329
100
AcDbEntity
  8
1
100
AcDbVertex
100
AcDb3dPolylineVertex
 10
36.07965200000001
 20
-0.397857
 30
0.0
 70
    32
  0
VERTEX
  5
332
330
329
100
AcDbEntity
  8
1
100
AcDbVertex
100
AcDb3dPolylineVertex
 10
36.070957
 20
-0.385052
 30
0.0
 70
    32
  0
VERTEX
  5
333
330
329
100
AcDbEntity
  8
1
100
AcDbVertex
100
AcDb3dPolylineVertex
 10
36.060932
 20
-0.371539
 30
0.0
 70
    32
  0
VERTEX
  5
334
330
329
100
AcDbEntity
  8
1
100
AcDbVertex
100
AcDb3dPolylineVertex
 10
36.049876
 20
-0.357585
 30
0.0
 70
    32
  0
VERTEX
  5
335
330
329
100
AcDbEntity
  8
1
100
AcDbVertex
100
AcDb3dPolylineVertex
 10
36.037881
 20
-0.343279
 30
0.0
 70
    32
  0
SEQEND
  5
336
330
329
100
AcDbEntity
  8
1
  0
POLYLINE
  5
337
330
851
100
AcDbEntity
  8
1
100
AcDb3dPolyline
 66
     1
 10
0.0
 20
0.0
 30
0.0
 70
     8
  0
VERTEX
  5
338
330
337
100
AcDbEntity
  8
1
100
AcDbVertex
100
AcDb3dPolylineVertex
 10
35.912654
 20
-0.343279
 30
0.0
 70
    32
  0
VERTEX
  5
339
330
337
100
AcDbEntity
  8
1
100
AcDbVertex
100
AcDb3dPolylineVertex
 10
35.93355600000001
 20
-0.359586
 30
0.0
 70
    32
  0
VERTEX
  5
33A
330
337
100
AcDbEntity
  8
1
100
AcDbVertex
100
AcDb3dPolylineVertex
 10
35.953722
 20
-0.374633
 30
0.0
 70
    32
  0
VERTEX
  5
33B
330
337
100
AcDbEntity
  8
1
100
AcDbVertex
100
AcDb3dPolylineVertex
 10
35.973223
 20
-0.388492
 30
0.0
 70
    32
  0
VERTEX
  5
33C
330
337
100
AcDbEntity
  8
1
100
AcDbVertex
100
AcDb3dPolylineVertex
 10
35.99213
 20
-0.401237
 30
0.0
 70
    32
  0
VERTEX
  5
33D
330
337
100
AcDbEntity
  8
1
100
AcDbVertex
100
AcDb3dPolylineVertex
 10
36.010505
 20
-0.4129300000000001
 30
0.0
 70
    32
  0
VERTEX
  5
33E
330
337
100
AcDbEntity
  8
1
100
AcDbVertex
100
AcDb3dPolylineVertex
 10
36.028193
 20
-0.423417
 30
0.0
 70
    32
  0
VERTEX
  5
33F
330
337
100
AcDbEntity
  8
1
100
AcDbVertex
100
AcDb3dPolylineVertex
 10
36.044817
 20
-0.432315
 30
0.0
 70
    32
  0
VERTEX
  5
340
330
337
100
AcDbEntity
  8
1
100
AcDbVertex
100
AcDb3dPolylineVertex
 10
36.05994000000001
 20
-0.4392310000000001
 30
0.0
 70
    32
  0
VERTEX
  5
341
330
337
100
AcDbEntity
  8
1
100
AcDbVertex
100
AcDb3dPolylineVertex
 10
36.072264
 20
-0.443707
 30
0.0
 70
    32
  0
VERTEX
  5
342
330
337
100
AcDbEntity
  8
1
100
AcDbVertex
100
AcDb3dPolylineVertex
 10
36.083843
 20
-0.445278
 30
0.0
 70
    32
  0
SEQEND
  5
343
330
337
100
AcDbEntity
  8
1
  0
POLYLINE
  5
344
330
851
100
AcDbEntity
  8
1
100
AcDb3dPolyline
 66
     1
 10
0.0
 20
0.0
 30
0.0
 70
     8
  0
VERTEX
  5
345
330
344
100
AcDbEntity
  8
1
100
AcDbVertex
100
AcDb3dPolylineVertex
 10
35.057486
 20
0.325
 30
0.0
 70
    32
  0
VERTEX
  5
346
330
344
100
AcDbEntity
  8
1
100
AcDbVertex
100
AcDb3dPolylineVertex
 10
35.342542
 20
0.10224
 30
0.0
 70
    32
  0
VERTEX
  5
347
330
344
100
AcDbEntity
  8
1
100
AcDbVertex
100
AcDb3dPolylineVertex
 10
35.627598
 20
-0.120519
 30
0.0
 70
    32
  0
VERTEX
  5
348
330
344
100
AcDbEntity
  8
1
100
AcDbVertex
100
AcDb3dPolylineVertex
 10
35.912654
 20
-0.343279
 30
0.0
 70
    32
  0
SEQEND
  5
349
330
344
100
AcDbEntity
  8
1
  0
POLYLINE
  5
34A
330
851
100
AcDbEntity
  8
1
100
AcDb3dPolyline
 66
     1
 10
0.0
 20
0.0
 30
0.0
 70
     8
  0
VERTEX
  5
34B
330
34A
100
AcDbEntity
  8
1
100
AcDbVertex
100
AcDb3dPolylineVertex
 10
38.157028
 20
-0.343279
 30
0.0
 70
    32
  0
VERTEX
  5
34C
330
34A
100
AcDbEntity
  8
1
100
AcDbVertex
100
AcDb3dPolylineVertex
 10
38.17328
 20
-0.359284
 30
0.0
 70
    32
  0
VERTEX
  5
34D
330
34A
100
AcDbEntity
  8
1
100
AcDbVertex
100
AcDb3dPolylineVertex
 10
38.188502
 20
-0.374224
 30
0.0
 70
    32
  0
VERTEX
  5
34E
330
34A
100
AcDbEntity
  8
1
100
AcDbVertex
100
AcDb3dPolylineVertex
 10
38.202787
 20
-0.388191
 30
0.0
 70
    32
  0
VERTEX
  5
34F
330
34A
100
AcDbEntity
  8
1
100
AcDbVertex
100
AcDb3dPolylineVertex
 10
38.21622
 20
-0.4012710000000001
 30
0.0
 70
    32
  0
VERTEX
  5
350
330
34A
100
AcDbEntity
  8
1
100
AcDbVertex
100
AcDb3dPolylineVertex
 10
38.228637
 20
-0.4133010000000001
 30
0.0
 70
    32
  0
VERTEX
  5
351
330
34A
100
AcDbEntity
  8
1
100
AcDbVertex
100
AcDb3dPolylineVertex
 10
38.23952399999999
 20
-0.4237820000000001
 30
0.0
 70
    32
  0
VERTEX
  5
352
330
34A
100
AcDbEntity
  8
1
100
AcDbVertex
100
AcDb3dPolylineVertex
 10
38.248374
 20
-0.432219
 30
0.0
 70
    32
  0
VERTEX
  5
353
330
34A
100
AcDbEntity
  8
1
100
AcDbVertex
100
AcDb3dPolylineVertex
 10
38.254992
 20
-0.438483
 30
0.0
 70
    32
  0
VERTEX
  5
354
330
34A
100
AcDbEntity
  8
1
100
AcDbVertex
100
AcDb3dPolylineVertex
 10
38.259486
 20
-0.442711
 30
0.0
 70
    32
  0
VERTEX
  5
355
330
34A
100
AcDbEntity
  8
1
100
AcDbVertex
100
AcDb3dPolylineVertex
 10
38.26527100000001
 20
-0.4460100000000001
 30
0.0
 70
    32
  0
SEQEND
  5
356
330
34A
100
AcDbEntity
  8
1
  0
POLYLINE
  5
357
330
851
100
AcDbEntity
  8
1
100
AcDb3dPolyline
 66
     1
 10
0.0
 20
0.0
 30
0.0
 70
     8
  0
VERTEX
  5
358
330
357
100
AcDbEntity
  8
1
100
AcDbVertex
100
AcDb3dPolylineVertex
 10
37.477024
 20
0.325
 30
0.0
 70
    32
  0
VERTEX
  5
359
330
357
100
AcDbEntity
  8
1
100
AcDbVertex
100
AcDb3dPolylineVertex
 10
37.703692
 20
0.10224
 30
0.0
 70
    32
  0
VERTEX
  5
35A
330
357
100
AcDbEntity
  8
1
100
AcDbVertex
100
AcDb3dPolylineVertex
 10
37.93036
 20
-0.120519
 30
0.0
 70
    32
  0
VERTEX
  5
35B
330
357
100
AcDbEntity
  8
1
100
AcDbVertex
100
AcDb3dPolylineVertex
 10
38.157028
 20
-0.343279
 30
0.0
 70
    32
  0
SEQEND
  5
35C
330
357
100
AcDbEntity
  8
1
  0
POLYLINE
  5
35D
330
851
100
AcDbEntity
  8
1
100
AcDb3dPolyline
 66
     1
 10
0.0
 20
0.0
 30
0.0
 70
     8
  0
VERTEX
  5
35E
330
35D
100
AcDbEntity
  8
1
100
AcDbVertex
100
AcDb3dPolylineVertex
 10
-35.912654
 20
-0.343279
 30
0.0
 70
    32
  0
VERTEX
  5
35F
330
35D
100
AcDbEntity
  8
1
100
AcDbVertex
100
AcDb3dPolylineVertex
 10
-35.627598
 20
-0.120519
 30
0.0
 70
    32
  0
VERTEX
  5
360
330
35D
100
AcDbEntity
  8
1
100
AcDbVertex
100
AcDb3dPolylineVertex
 10
-35.342542
 20
0.10224
 30
0.0
 70
    32
  0
VERTEX
  5
361
330
35D
100
AcDbEntity
  8
1
100
AcDbVertex
100
AcDb3dPolylineVertex
 10
-35.057486
 20
0.325
 30
0.0
 70
    32
  0
SEQEND
  5
362
330
35D
100
AcDbEntity
  8
1
  0
POLYLINE
  5
363
330
851
100
AcDbEntity
  8
1
100
AcDb3dPolyline
 66
     1
 10
0.0
 20
0.0
 30
0.0
 70
     8
  0
VERTEX
  5
364
330
363
100
AcDbEntity
  8
1
100
AcDbVertex
100
AcDb3dPolylineVertex
 10
-36.084096
 20
-0.4452880000000001
 30
0.0
 70
    32
  0
VERTEX
  5
365
330
363
100
AcDbEntity
  8
1
100
AcDbVertex
100
AcDb3dPolylineVertex
 10
-36.072991
 20
-0.4436250000000001
 30
0.0
 70
    32
  0
VERTEX
  5
366
330
363
100
AcDbEntity
  8
1
100
AcDbVertex
100
AcDb3dPolylineVertex
 10
-36.060047
 20
-0.439267
 30
0.0
 70
    32
  0
VERTEX
  5
367
330
363
100
AcDbEntity
  8
1
100
AcDbVertex
100
AcDb3dPolylineVertex
 10
-36.04494000000001
 20
-0.4323920000000001
 30
0.0
 70
    32
  0
VERTEX
  5
368
330
363
100
AcDbEntity
  8
1
100
AcDbVertex
100
AcDb3dPolylineVertex
 10
-36.028244
 20
-0.42347
 30
0.0
 70
    32
  0
VERTEX
  5
369
330
363
100
AcDbEntity
  8
1
100
AcDbVertex
100
AcDb3dPolylineVertex
 10
-36.010467
 20
-0.4129260000000001
 30
0.0
 70
    32
  0
VERTEX
  5
36A
330
363
100
AcDbEntity
  8
1
100
AcDbVertex
100
AcDb3dPolylineVertex
 10
-35.991863
 20
-0.401009
 30
0.0
 70
    32
  0
VERTEX
  5
36B
330
363
100
AcDbEntity
  8
1
100
AcDbVertex
100
AcDb3dPolylineVertex
 10
-35.972633
 20
-0.387929
 30
0.0
 70
    32
  0
VERTEX
  5
36C
330
363
100
AcDbEntity
  8
1
100
AcDbVertex
100
AcDb3dPolylineVertex
 10
-35.952972
 20
-0.373896
 30
0.0
 70
    32
  0
VERTEX
  5
36D
330
363
100
AcDbEntity
  8
1
100
AcDbVertex
100
AcDb3dPolylineVertex
 10
-35.933014
 20
-0.3590489999999999
 30
0.0
 70
    32
  0
VERTEX
  5
36E
330
363
100
AcDbEntity
  8
1
100
AcDbVertex
100
AcDb3dPolylineVertex
 10
-35.912654
 20
-0.343279
 30
0.0
 70
    32
  0
SEQEND
  5
36F
330
363
100
AcDbEntity
  8
1
  0
POLYLINE
  5
370
330
851
100
AcDbEntity
  8
1
100
AcDb3dPolyline
 66
     1
 10
0.0
 20
0.0
 30
0.0
 70
     8
  0
VERTEX
  5
371
330
370
100
AcDbEntity
  8
1
100
AcDbVertex
100
AcDb3dPolylineVertex
 10
34.879101
 20
-0.4452790000000001
 30
0.0
 70
    32
  0
VERTEX
  5
372
330
370
100
AcDbEntity
  8
1
100
AcDbVertex
100
AcDb3dPolylineVertex
 10
34.863702
 20
-0.442965
 30
0.0
 70
    32
  0
VERTEX
  5
373
330
370
100
AcDbEntity
  8
1
100
AcDbVertex
100
AcDb3dPolylineVertex
 10
34.846215
 20
-0.4378270000000001
 30
0.0
 70
    32
  0
VERTEX
  5
374
330
370
100
AcDbEntity
  8
1
100
AcDbVertex
100
AcDb3dPolylineVertex
 10
34.826447
 20
-0.429678
 30
0.0
 70
    32
  0
VERTEX
  5
375
330
370
100
AcDbEntity
  8
1
100
AcDbVertex
100
AcDb3dPolylineVertex
 10
34.804957
 20
-0.419058
 30
0.0
 70
    32
  0
VERTEX
  5
376
330
370
100
AcDbEntity
  8
1
100
AcDbVertex
100
AcDb3dPolylineVertex
 10
34.782511
 20
-0.4067070000000001
 30
0.0
 70
    32
  0
VERTEX
  5
377
330
370
100
AcDbEntity
  8
1
100
AcDbVertex
100
AcDb3dPolylineVertex
 10
34.759551
 20
-0.393051
 30
0.0
 70
    32
  0
VERTEX
  5
378
330
370
100
AcDbEntity
  8
1
100
AcDbVertex
100
AcDb3dPolylineVertex
 10
34.735996
 20
-0.378011
 30
0.0
 70
    32
  0
VERTEX
  5
379
330
370
100
AcDbEntity
  8
1
100
AcDbVertex
100
AcDb3dPolylineVertex
 10
34.711715
 20
-0.361462
 30
0.0
 70
    32
  0
VERTEX
  5
37A
330
370
100
AcDbEntity
  8
1
100
AcDbVertex
100
AcDb3dPolylineVertex
 10
34.68657800000001
 20
-0.343279
 30
0.0
 70
    32
  0
SEQEND
  5
37B
330
370
100
AcDbEntity
  8
1
  0
POLYLINE
  5
37C
330
851
100
AcDbEntity
  8
1
100
AcDb3dPolyline
 66
     1
 10
0.0
 20
0.0
 30
0.0
 70
     8
  0
VERTEX
  5
37D
330
37C
100
AcDbEntity
  8
1
100
AcDbVertex
100
AcDb3dPolylineVertex
 10
34.846648
 20
-0.343279
 30
0.0
 70
    32
  0
VERTEX
  5
37E
330
37C
100
AcDbEntity
  8
1
100
AcDbVertex
100
AcDb3dPolylineVertex
 10
34.857391
 20
-0.356469
 30
0.0
 70
    32
  0
VERTEX
  5
37F
330
37C
100
AcDbEntity
  8
1
100
AcDbVertex
100
AcDb3dPolylineVertex
 10
34.86725
 20
-0.369421
 30
0.0
 70
    32
  0
VERTEX
  5
380
330
37C
100
AcDbEntity
  8
1
100
AcDbVertex
100
AcDb3dPolylineVertex
 10
34.87612700000001
 20
-0.38205
 30
0.0
 70
    32
  0
VERTEX
  5
381
330
37C
100
AcDbEntity
  8
1
100
AcDbVertex
100
AcDb3dPolylineVertex
 10
34.88375900000001
 20
-0.39413
 30
0.0
 70
    32
  0
VERTEX
  5
382
330
37C
100
AcDbEntity
  8
1
100
AcDbVertex
100
AcDb3dPolylineVertex
 10
34.889886
 20
-0.405434
 30
0.0
 70
    32
  0
VERTEX
  5
383
330
37C
100
AcDbEntity
  8
1
100
AcDbVertex
100
AcDb3dPolylineVertex
 10
34.894278
 20
-0.415714
 30
0.0
 70
    32
  0
VERTEX
  5
384
330
37C
100
AcDbEntity
  8
1
100
AcDbVertex
100
AcDb3dPolylineVertex
 10
34.89672500000001
 20
-0.424709
 30
0.0
 70
    32
  0
VERTEX
  5
385
330
37C
100
AcDbEntity
  8
1
100
AcDbVertex
100
AcDb3dPolylineVertex
 10
34.897127
 20
-0.4321970000000001
 30
0.0
 70
    32
  0
VERTEX
  5
386
330
37C
100
AcDbEntity
  8
1
100
AcDbVertex
100
AcDb3dPolylineVertex
 10
34.895585
 20
-0.438033
 30
0.0
 70
    32
  0
VERTEX
  5
387
330
37C
100
AcDbEntity
  8
1
100
AcDbVertex
100
AcDb3dPolylineVertex
 10
34.892249
 20
-0.44209
 30
0.0
 70
    32
  0
VERTEX
  5
388
330
37C
100
AcDbEntity
  8
1
100
AcDbVertex
100
AcDb3dPolylineVertex
 10
34.887625
 20
-0.444417
 30
0.0
 70
    32
  0
VERTEX
  5
389
330
37C
100
AcDbEntity
  8
1
100
AcDbVertex
100
AcDb3dPolylineVertex
 10
34.877981
 20
-0.44528
 30
0.0
 70
    32
  0
SEQEND
  5
38A
330
37C
100
AcDbEntity
  8
1
  0
POLYLINE
  5
38B
330
851
100
AcDbEntity
  8
1
100
AcDb3dPolyline
 66
     1
 10
0.0
 20
0.0
 30
0.0
 70
     8
  0
VERTEX
  5
38C
330
38B
100
AcDbEntity
  8
1
100
AcDbVertex
100
AcDb3dPolylineVertex
 10
-35.33679
 20
-0.343279
 30
0.0
 70
    32
  0
VERTEX
  5
38D
330
38B
100
AcDbEntity
  8
1
100
AcDbVertex
100
AcDb3dPolylineVertex
 10
-35.041374
 20
-0.120519
 30
0.0
 70
    32
  0
VERTEX
  5
38E
330
38B
100
AcDbEntity
  8
1
100
AcDbVertex
100
AcDb3dPolylineVertex
 10
-34.745958
 20
0.10224
 30
0.0
 70
    32
  0
VERTEX
  5
38F
330
38B
100
AcDbEntity
  8
1
100
AcDbVertex
100
AcDb3dPolylineVertex
 10
-34.450542
 20
0.325
 30
0.0
 70
    32
  0
SEQEND
  5
390
330
38B
100
AcDbEntity
  8
1
  0
POLYLINE
  5
391
330
851
100
AcDbEntity
  8
1
100
AcDb3dPolyline
 66
     1
 10
0.0
 20
0.0
 30
0.0
 70
     8
  0
VERTEX
  5
392
330
391
100
AcDbEntity
  8
1
100
AcDbVertex
100
AcDb3dPolylineVertex
 10
-35.518623
 20
-0.4452920000000001
 30
0.0
 70
    32
  0
VERTEX
  5
393
330
391
100
AcDbEntity
  8
1
100
AcDbVertex
100
AcDb3dPolylineVertex
 10
-35.505954
 20
-0.443619
 30
0.0
 70
    32
  0
VERTEX
  5
394
330
391
100
AcDbEntity
  8
1
100
AcDbVertex
100
AcDb3dPolylineVertex
 10
-35.491792
 20
-0.4392060000000001
 30
0.0
 70
    32
  0
VERTEX
  5
395
330
391
100
AcDbEntity
  8
1
100
AcDbVertex
100
AcDb3dPolylineVertex
 10
-35.475506
 20
-0.432306
 30
0.0
 70
    32
  0
VERTEX
  5
396
330
391
100
AcDbEntity
  8
1
100
AcDbVertex
100
AcDb3dPolylineVertex
 10
-35.457732
 20
-0.4234060000000001
 30
0.0
 70
    32
  0
VERTEX
  5
397
330
391
100
AcDbEntity
  8
1
100
AcDbVertex
100
AcDb3dPolylineVertex
 10
-35.438951
 20
-0.412894
 30
0.0
 70
    32
  0
VERTEX
  5
398
330
391
100
AcDbEntity
  8
1
100
AcDbVertex
100
AcDb3dPolylineVertex
 10
-35.419392
 20
-0.401004
 30
0.0
 70
    32
  0
VERTEX
  5
399
330
391
100
AcDbEntity
  8
1
100
AcDbVertex
100
AcDb3dPolylineVertex
 10
-35.39926
 20
-0.387954
 30
0.0
 70
    32
  0
VERTEX
  5
39A
330
391
100
AcDbEntity
  8
1
100
AcDbVertex
100
AcDb3dPolylineVertex
 10
-35.378761
 20
-0.37396
 30
0.0
 70
    32
  0
VERTEX
  5
39B
330
391
100
AcDbEntity
  8
1
100
AcDbVertex
100
AcDb3dPolylineVertex
 10
-35.357978
 20
-0.35911
 30
0.0
 70
    32
  0
VERTEX
  5
39C
330
391
100
AcDbEntity
  8
1
100
AcDbVertex
100
AcDb3dPolylineVertex
 10
-35.33679
 20
-0.343279
 30
0.0
 70
    32
  0
SEQEND
  5
39D
330
391
100
AcDbEntity
  8
1
  0
POLYLINE
  5
39E
330
851
100
AcDbEntity
  8
1
100
AcDb3dPolyline
 66
     1
 10
0.0
 20
0.0
 30
0.0
 70
     8
  0
VERTEX
  5
39F
330
39E
100
AcDbEntity
  8
1
100
AcDbVertex
100
AcDb3dPolylineVertex
 10
38.091059
 20
-0.343279
 30
0.0
 70
    32
  0
VERTEX
  5
3A0
330
39E
100
AcDbEntity
  8
1
100
AcDbVertex
100
AcDb3dPolylineVertex
 10
37.858833
 20
-0.120519
 30
0.0
 70
    32
  0
VERTEX
  5
3A1
330
39E
100
AcDbEntity
  8
1
100
AcDbVertex
100
AcDb3dPolylineVertex
 10
37.62660800000001
 20
0.10224
 30
0.0
 70
    32
  0
VERTEX
  5
3A2
330
39E
100
AcDbEntity
  8
1
100
AcDbVertex
100
AcDb3dPolylineVertex
 10
37.39438300000001
 20
0.325
 30
0.0
 70
    32
  0
SEQEND
  5
3A3
330
39E
100
AcDbEntity
  8
1
  0
POLYLINE
  5
3A4
330
851
100
AcDbEntity
  8
1
100
AcDb3dPolyline
 66
     1
 10
0.0
 20
0.0
 30
0.0
 70
     8
  0
VERTEX
  5
3A5
330
3A4
100
AcDbEntity
  8
1
100
AcDbVertex
100
AcDb3dPolylineVertex
 10
38.205907
 20
-0.445516
 30
0.0
 70
    32
  0
VERTEX
  5
3A6
330
3A4
100
AcDbEntity
  8
1
100
AcDbVertex
100
AcDb3dPolylineVertex
 10
38.199597
 20
-0.4429390000000001
 30
0.0
 70
    32
  0
VERTEX
  5
3A7
330
3A4
100
AcDbEntity
  8
1
100
AcDbVertex
100
AcDb3dPolylineVertex
 10
38.194383
 20
-0.4387780000000001
 30
0.0
 70
    32
  0
VERTEX
  5
3A8
330
3A4
100
AcDbEntity
  8
1
100
AcDbVertex
100
AcDb3dPolylineVertex
 10
38.186795
 20
-0.432348
 30
0.0
 70
    32
  0
VERTEX
  5
3A9
330
3A4
100
AcDbEntity
  8
1
100
AcDbVertex
100
AcDb3dPolylineVertex
 10
38.176996
 20
-0.423741
 30
0.0
 70
    32
  0
VERTEX
  5
3AA
330
3A4
100
AcDbEntity
  8
1
100
AcDbVertex
100
AcDb3dPolylineVertex
 10
38.16531900000001
 20
-0.413204
 30
0.0
 70
    32
  0
VERTEX
  5
3AB
330
3A4
100
AcDbEntity
  8
1
100
AcDbVertex
100
AcDb3dPolylineVertex
 10
38.152232
 20
-0.401183
 30
0.0
 70
    32
  0
VERTEX
  5
3AC
330
3A4
100
AcDbEntity
  8
1
100
AcDbVertex
100
AcDb3dPolylineVertex
 10
38.138197
 20
-0.38812
 30
0.0
 70
    32
  0
VERTEX
  5
3AD
330
3A4
100
AcDbEntity
  8
1
100
AcDbVertex
100
AcDb3dPolylineVertex
 10
38.123382
 20
-0.374173
 30
0.0
 70
    32
  0
VERTEX
  5
3AE
330
3A4
100
AcDbEntity
  8
1
100
AcDbVertex
100
AcDb3dPolylineVertex
 10
38.1077
 20
-0.359257
 30
0.0
 70
    32
  0
VERTEX
  5
3AF
330
3A4
100
AcDbEntity
  8
1
100
AcDbVertex
100
AcDb3dPolylineVertex
 10
38.091059
 20
-0.343279
 30
0.0
 70
    32
  0
SEQEND
  5
3B0
330
3A4
100
AcDbEntity
  8
1
  0
POLYLINE
  5
3B1
330
851
100
AcDbEntity
  8
1
100
AcDb3dPolyline
 66
     1
 10
0.0
 20
0.0
 30
0.0
 70
     8
  0
VERTEX
  5
3B2
330
3B1
100
AcDbEntity
  8
1
100
AcDbVertex
100
AcDb3dPolylineVertex
 10
-37.78053400000001
 20
-0.343279
 30
0.0
 70
    32
  0
VERTEX
  5
3B3
330
3B1
100
AcDbEntity
  8
1
100
AcDbVertex
100
AcDb3dPolylineVertex
 10
-37.535954
 20
-0.120519
 30
0.0
 70
    32
  0
VERTEX
  5
3B4
330
3B1
100
AcDbEntity
  8
1
100
AcDbVertex
100
AcDb3dPolylineVertex
 10
-37.291373
 20
0.10224
 30
0.0
 70
    32
  0
VERTEX
  5
3B5
330
3B1
100
AcDbEntity
  8
1
100
AcDbVertex
100
AcDb3dPolylineVertex
 10
-37.046793
 20
0.325
 30
0.0
 70
    32
  0
SEQEND
  5
3B6
330
3B1
100
AcDbEntity
  8
1
  0
POLYLINE
  5
3B7
330
851
100
AcDbEntity
  8
1
100
AcDb3dPolyline
 66
     1
 10
0.0
 20
0.0
 30
0.0
 70
     8
  0
VERTEX
  5
3B8
330
3B7
100
AcDbEntity
  8
1
100
AcDbVertex
100
AcDb3dPolylineVertex
 10
-37.908454
 20
-0.4452790000000001
 30
0.0
 70
    32
  0
VERTEX
  5
3B9
330
3B7
100
AcDbEntity
  8
1
100
AcDbVertex
100
AcDb3dPolylineVertex
 10
-37.898274
 20
-0.4401760000000001
 30
0.0
 70
    32
  0
VERTEX
  5
3BA
330
3B7
100
AcDbEntity
  8
1
100
AcDbVertex
100
AcDb3dPolylineVertex
 10
-37.88668
 20
-0.432749
 30
0.0
 70
    32
  0
VERTEX
  5
3BB
330
3B7
100
AcDbEntity
  8
1
100
AcDbVertex
100
AcDb3dPolylineVertex
 10
-37.874034
 20
-0.423534
 30
0.0
 70
    32
  0
VERTEX
  5
3BC
330
3B7
100
AcDbEntity
  8
1
100
AcDbVertex
100
AcDb3dPolylineVertex
 10
-37.86069600000001
 20
-0.4130710000000001
 30
0.0
 70
    32
  0
VERTEX
  5
3BD
330
3B7
100
AcDbEntity
  8
1
100
AcDbVertex
100
AcDb3dPolylineVertex
 10
-37.846943
 20
-0.4018050000000001
 30
0.0
 70
    32
  0
VERTEX
  5
3BE
330
3B7
100
AcDbEntity
  8
1
100
AcDbVertex
100
AcDb3dPolylineVertex
 10
-37.832489
 20
-0.38956
 30
0.0
 70
    32
  0
VERTEX
  5
3BF
330
3B7
100
AcDbEntity
  8
1
100
AcDbVertex
100
AcDb3dPolylineVertex
 10
-37.81681900000001
 20
-0.375907
 30
0.0
 70
    32
  0
VERTEX
  5
3C0
330
3B7
100
AcDbEntity
  8
1
100
AcDbVertex
100
AcDb3dPolylineVertex
 10
-37.799454
 20
-0.360447
 30
0.0
 70
    32
  0
VERTEX
  5
3C1
330
3B7
100
AcDbEntity
  8
1
100
AcDbVertex
100
AcDb3dPolylineVertex
 10
-37.78053400000001
 20
-0.343279
 30
0.0
 70
    32
  0
SEQEND
  5
3C2
330
3B7
100
AcDbEntity
  8
1
  0
POLYLINE
  5
3C3
330
851
100
AcDbEntity
  8
1
100
AcDb3dPolyline
 66
     1
 10
0.0
 20
0.0
 30
0.0
 70
     8
  0
VERTEX
  5
3C4
330
3C3
100
AcDbEntity
  8
1
100
AcDbVertex
100
AcDb3dPolylineVertex
 10
38.16397199999999
 20
-0.343279
 30
0.0
 70
    32
  0
VERTEX
  5
3C5
330
3C3
100
AcDbEntity
  8
1
100
AcDbVertex
100
AcDb3dPolylineVertex
 10
38.178084
 20
-0.3575239999999999
 30
0.0
 70
    32
  0
VERTEX
  5
3C6
330
3C3
100
AcDbEntity
  8
1
100
AcDbVertex
100
AcDb3dPolylineVertex
 10
38.191592
 20
-0.371191
 30
0.0
 70
    32
  0
VERTEX
  5
3C7
330
3C3
100
AcDbEntity
  8
1
100
AcDbVertex
100
AcDb3dPolylineVertex
 10
38.204552
 20
-0.384336
 30
0.0
 70
    32
  0
VERTEX
  5
3C8
330
3C3
100
AcDbEntity
  8
1
100
AcDbVertex
100
AcDb3dPolylineVertex
 10
38.216791
 20
-0.396788
 30
0.0
 70
    32
  0
VERTEX
  5
3C9
330
3C3
100
AcDbEntity
  8
1
100
AcDbVertex
100
AcDb3dPolylineVertex
 10
38.228106
 20
-0.408346
 30
0.0
 70
    32
  0
VERTEX
  5
3CA
330
3C3
100
AcDbEntity
  8
1
100
AcDbVertex
100
AcDb3dPolylineVertex
 10
38.238287
 20
-0.4188020000000001
 30
0.0
 70
    32
  0
VERTEX
  5
3CB
330
3C3
100
AcDbEntity
  8
1
100
AcDbVertex
100
AcDb3dPolylineVertex
 10
38.247006
 20
-0.427825
 30
0.0
 70
    32
  0
VERTEX
  5
3CC
330
3C3
100
AcDbEntity
  8
1
100
AcDbVertex
100
AcDb3dPolylineVertex
 10
38.25384099999999
 20
-0.4349840000000001
 30
0.0
 70
    32
  0
VERTEX
  5
3CD
330
3C3
100
AcDbEntity
  8
1
100
AcDbVertex
100
AcDb3dPolylineVertex
 10
38.258814
 20
-0.440334
 30
0.0
 70
    32
  0
VERTEX
  5
3CE
330
3C3
100
AcDbEntity
  8
1
100
AcDbVertex
100
AcDb3dPolylineVertex
 10
38.262862
 20
-0.44492
 30
0.0
 70
    32
  0
SEQEND
  5
3CF
330
3C3
100
AcDbEntity
  8
1
  0
POLYLINE
  5
3D0
330
851
100
AcDbEntity
  8
1
100
AcDb3dPolyline
 66
     1
 10
0.0
 20
0.0
 30
0.0
 70
     8
  0
VERTEX
  5
3D1
330
3D0
100
AcDbEntity
  8
1
100
AcDbVertex
100
AcDb3dPolylineVertex
 10
37.433274
 20
-6.674999999999999
 30
0.0
 70
    32
  0
VERTEX
  5
3D2
330
3D0
100
AcDbEntity
  8
1
100
AcDbVertex
100
AcDb3dPolylineVertex
 10
37.47387600000001
 20
-6.687416
 30
0.0
 70
    32
  0
VERTEX
  5
3D3
330
3D0
100
AcDbEntity
  8
1
100
AcDbVertex
100
AcDb3dPolylineVertex
 10
37.51210800000001
 20
-6.722502
 30
0.0
 70
    32
  0
VERTEX
  5
3D4
330
3D0
100
AcDbEntity
  8
1
100
AcDbVertex
100
AcDb3dPolylineVertex
 10
37.548208
 20
-6.780777999999999
 30
0.0
 70
    32
  0
VERTEX
  5
3D5
330
3D0
100
AcDbEntity
  8
1
100
AcDbVertex
100
AcDb3dPolylineVertex
 10
37.581857
 20
-6.861546
 30
0.0
 70
    32
  0
VERTEX
  5
3D6
330
3D0
100
AcDbEntity
  8
1
100
AcDbVertex
100
AcDb3dPolylineVertex
 10
37.612261
 20
-6.96307
 30
0.0
 70
    32
  0
VERTEX
  5
3D7
330
3D0
100
AcDbEntity
  8
1
100
AcDbVertex
100
AcDb3dPolylineVertex
 10
37.638733
 20
-7.083474
 30
0.0
 70
    32
  0
VERTEX
  5
3D8
330
3D0
100
AcDbEntity
  8
1
100
AcDbVertex
100
AcDb3dPolylineVertex
 10
37.660917
 20
-7.220582
 30
0.0
 70
    32
  0
VERTEX
  5
3D9
330
3D0
100
AcDbEntity
  8
1
100
AcDbVertex
100
AcDb3dPolylineVertex
 10
37.678522
 20
-7.372024
 30
0.0
 70
    32
  0
VERTEX
  5
3DA
330
3D0
100
AcDbEntity
  8
1
100
AcDbVertex
100
AcDb3dPolylineVertex
 10
37.691295
 20
-7.534047
 30
0.0
 70
    32
  0
VERTEX
  5
3DB
330
3D0
100
AcDbEntity
  8
1
100
AcDbVertex
100
AcDb3dPolylineVertex
 10
37.699009
 20
-7.702192999999999
 30
0.0
 70
    32
  0
VERTEX
  5
3DC
330
3D0
100
AcDbEntity
  8
1
100
AcDbVertex
100
AcDb3dPolylineVertex
 10
37.701591
 20
-7.875
 30
0.0
 70
    32
  0
SEQEND
  5
3DD
330
3D0
100
AcDbEntity
  8
1
  0
POLYLINE
  5
3DE
330
851
100
AcDbEntity
  8
1
100
AcDb3dPolyline
 66
     1
 10
0.0
 20
0.0
 30
0.0
 70
     8
  0
VERTEX
  5
3DF
330
3DE
100
AcDbEntity
  8
1
100
AcDbVertex
100
AcDb3dPolylineVertex
 10
37.370401
 20
-0.445278
 30
0.0
 70
    32
  0
VERTEX
  5
3E0
330
3DE
100
AcDbEntity
  8
1
100
AcDbVertex
100
AcDb3dPolylineVertex
 10
37.37169
 20
-0.437895
 30
0.0
 70
    32
  0
VERTEX
  5
3E1
330
3DE
100
AcDbEntity
  8
1
100
AcDbVertex
100
AcDb3dPolylineVertex
 10
37.369756
 20
-0.429329
 30
0.0
 70
    32
  0
VERTEX
  5
3E2
330
3DE
100
AcDbEntity
  8
1
100
AcDbVertex
100
AcDb3dPolylineVertex
 10
37.365295
 20
-0.4198570000000001
 30
0.0
 70
    32
  0
VERTEX
  5
3E3
330
3DE
100
AcDbEntity
  8
1
100
AcDbVertex
100
AcDb3dPolylineVertex
 10
37.359003
 20
-0.4097520000000001
 30
0.0
 70
    32
  0
VERTEX
  5
3E4
330
3DE
100
AcDbEntity
  8
1
100
AcDbVertex
100
AcDb3dPolylineVertex
 10
37.351567
 20
-0.399281
 30
0.0
 70
    32
  0
VERTEX
  5
3E5
330
3DE
100
AcDbEntity
  8
1
100
AcDbVertex
100
AcDb3dPolylineVertex
 10
37.3431
 20
-0.388226
 30
0.0
 70
    32
  0
VERTEX
  5
3E6
330
3DE
100
AcDbEntity
  8
1
100
AcDbVertex
100
AcDb3dPolylineVertex
 10
37.332799
 20
-0.375591
 30
0.0
 70
    32
  0
VERTEX
  5
3E7
330
3DE
100
AcDbEntity
  8
1
100
AcDbVertex
100
AcDb3dPolylineVertex
 10
37.319909
 20
-0.360478
 30
0.0
 70
    32
  0
VERTEX
  5
3E8
330
3DE
100
AcDbEntity
  8
1
100
AcDbVertex
100
AcDb3dPolylineVertex
 10
37.304676
 20
-0.343279
 30
0.0
 70
    32
  0
SEQEND
  5
3E9
330
3DE
100
AcDbEntity
  8
1
  0
POLYLINE
  5
3EA
330
851
100
AcDbEntity
  8
1
100
AcDb3dPolyline
 66
     1
 10
0.0
 20
0.0
 30
0.0
 70
     8
  0
VERTEX
  5
3EB
330
3EA
100
AcDbEntity
  8
1
100
AcDbVertex
100
AcDb3dPolylineVertex
 10
37.226452
 20
-0.343279
 30
0.0
 70
    32
  0
VERTEX
  5
3EC
330
3EA
100
AcDbEntity
  8
1
100
AcDbVertex
100
AcDb3dPolylineVertex
 10
37.245023
 20
-0.359206
 30
0.0
 70
    32
  0
VERTEX
  5
3ED
330
3EA
100
AcDbEntity
  8
1
100
AcDbVertex
100
AcDb3dPolylineVertex
 10
37.262887
 20
-0.374072
 30
0.0
 70
    32
  0
VERTEX
  5
3EE
330
3EA
100
AcDbEntity
  8
1
100
AcDbVertex
100
AcDb3dPolylineVertex
 10
37.280138
 20
-0.387975
 30
0.0
 70
    32
  0
VERTEX
  5
3EF
330
3EA
100
AcDbEntity
  8
1
100
AcDbVertex
100
AcDb3dPolylineVertex
 10
37.296854
 20
-0.4009920000000001
 30
0.0
 70
    32
  0
VERTEX
  5
3F0
330
3EA
100
AcDbEntity
  8
1
100
AcDbVertex
100
AcDb3dPolylineVertex
 10
37.312904
 20
-0.412972
 30
0.0
 70
    32
  0
VERTEX
  5
3F1
330
3EA
100
AcDbEntity
  8
1
100
AcDbVertex
100
AcDb3dPolylineVertex
 10
37.328032
 20
-0.423621
 30
0.0
 70
    32
  0
VERTEX
  5
3F2
330
3EA
100
AcDbEntity
  8
1
100
AcDbVertex
100
AcDb3dPolylineVertex
 10
37.341947
 20
-0.432636
 30
0.0
 70
    32
  0
VERTEX
  5
3F3
330
3EA
100
AcDbEntity
  8
1
100
AcDbVertex
100
AcDb3dPolylineVertex
 10
37.353733
 20
-0.439569
 30
0.0
 70
    32
  0
VERTEX
  5
3F4
330
3EA
100
AcDbEntity
  8
1
100
AcDbVertex
100
AcDb3dPolylineVertex
 10
37.361896
 20
-0.4438340000000001
 30
0.0
 70
    32
  0
VERTEX
  5
3F5
330
3EA
100
AcDbEntity
  8
1
100
AcDbVertex
100
AcDb3dPolylineVertex
 10
37.369437
 20
-0.445232
 30
0.0
 70
    32
  0
SEQEND
  5
3F6
330
3EA
100
AcDbEntity
  8
1
  0
POLYLINE
  5
3F7
330
851
100
AcDbEntity
  8
1
100
AcDb3dPolyline
 66
     1
 10
0.0
 20
0.0
 30
0.0
 70
     8
  0
VERTEX
  5
3F8
330
3F7
100
AcDbEntity
  8
1
100
AcDbVertex
100
AcDb3dPolylineVertex
 10
36.449826
 20
0.325
 30
0.0
 70
    32
  0
VERTEX
  5
3F9
330
3F7
100
AcDbEntity
  8
1
100
AcDbVertex
100
AcDb3dPolylineVertex
 10
36.708702
 20
0.10224
 30
0.0
 70
    32
  0
VERTEX
  5
3FA
330
3F7
100
AcDbEntity
  8
1
100
AcDbVertex
100
AcDb3dPolylineVertex
 10
36.967577
 20
-0.120519
 30
0.0
 70
    32
  0
VERTEX
  5
3FB
330
3F7
100
AcDbEntity
  8
1
100
AcDbVertex
100
AcDb3dPolylineVertex
 10
37.226452
 20
-0.343279
 30
0.0
 70
    32
  0
SEQEND
  5
3FC
330
3F7
100
AcDbEntity
  8
1
  0
POLYLINE
  5
3FD
330
851
100
AcDbEntity
  8
1
100
AcDb3dPolyline
 66
     1
 10
0.0
 20
0.0
 30
0.0
 70
     8
  0
VERTEX
  5
3FE
330
3FD
100
AcDbEntity
  8
1
100
AcDbVertex
100
AcDb3dPolylineVertex
 10
-37.964963
 20
-0.342532
 30
0.0
 70
    32
  0
VERTEX
  5
3FF
330
3FD
100
AcDbEntity
  8
1
100
AcDbVertex
100
AcDb3dPolylineVertex
 10
-37.98133400000001
 20
-0.357827
 30
0.0
 70
    32
  0
VERTEX
  5
400
330
3FD
100
AcDbEntity
  8
1
100
AcDbVertex
100
AcDb3dPolylineVertex
 10
-37.995899
 20
-0.371269
 30
0.0
 70
    32
  0
VERTEX
  5
401
330
3FD
100
AcDbEntity
  8
1
100
AcDbVertex
100
AcDb3dPolylineVertex
 10
-38.010123
 20
-0.384225
 30
0.0
 70
    32
  0
VERTEX
  5
402
330
3FD
100
AcDbEntity
  8
1
100
AcDbVertex
100
AcDb3dPolylineVertex
 10
-38.023818
 20
-0.396506
 30
0.0
 70
    32
  0
VERTEX
  5
403
330
3FD
100
AcDbEntity
  8
1
100
AcDbVertex
100
AcDb3dPolylineVertex
 10
-38.03679000000001
 20
-0.407921
 30
0.0
 70
    32
  0
VERTEX
  5
404
330
3FD
100
AcDbEntity
  8
1
100
AcDbVertex
100
AcDb3dPolylineVertex
 10
-38.04879099999999
 20
-0.418239
 30
0.0
 70
    32
  0
VERTEX
  5
405
330
3FD
100
AcDbEntity
  8
1
100
AcDbVertex
100
AcDb3dPolylineVertex
 10
-38.059482
 20
-0.427162
 30
0.0
 70
    32
  0
VERTEX
  5
406
330
3FD
100
AcDbEntity
  8
1
100
AcDbVertex
100
AcDb3dPolylineVertex
 10
-38.068515
 20
-0.434385
 30
0.0
 70
    32
  0
VERTEX
  5
407
330
3FD
100
AcDbEntity
  8
1
100
AcDbVertex
100
AcDb3dPolylineVertex
 10
-38.07568100000001
 20
-0.439731
 30
0.0
 70
    32
  0
VERTEX
  5
408
330
3FD
100
AcDbEntity
  8
1
100
AcDbVertex
100
AcDb3dPolylineVertex
 10
-38.081074
 20
-0.4433060000000001
 30
0.0
 70
    32
  0
VERTEX
  5
409
330
3FD
100
AcDbEntity
  8
1
100
AcDbVertex
100
AcDb3dPolylineVertex
 10
-38.088273
 20
-0.445432
 30
0.0
 70
    32
  0
SEQEND
  5
40A
330
3FD
100
AcDbEntity
  8
1
  0
POLYLINE
  5
40B
330
851
100
AcDbEntity
  8
1
100
AcDb3dPolyline
 66
     1
 10
0.0
 20
0.0
 30
0.0
 70
     8
  0
VERTEX
  5
40C
330
40B
100
AcDbEntity
  8
1
100
AcDbVertex
100
AcDb3dPolylineVertex
 10
-37.251206
 20
0.325
 30
0.0
 70
    32
  0
VERTEX
  5
40D
330
40B
100
AcDbEntity
  8
1
100
AcDbVertex
100
AcDb3dPolylineVertex
 10
-37.48939
 20
0.10224
 30
0.0
 70
    32
  0
VERTEX
  5
40E
330
40B
100
AcDbEntity
  8
1
100
AcDbVertex
100
AcDb3dPolylineVertex
 10
-37.727574
 20
-0.120519
 30
0.0
 70
    32
  0
VERTEX
  5
40F
330
40B
100
AcDbEntity
  8
1
100
AcDbVertex
100
AcDb3dPolylineVertex
 10
-37.965758
 20
-0.343279
 30
0.0
 70
    32
  0
SEQEND
  5
410
330
40B
100
AcDbEntity
  8
1
  0
POLYLINE
  5
411
330
851
100
AcDbEntity
  8
1
100
AcDb3dPolyline
 66
     1
 10
0.0
 20
0.0
 30
0.0
 70
     8
  0
VERTEX
  5
412
330
411
100
AcDbEntity
  8
1
100
AcDbVertex
100
AcDb3dPolylineVertex
 10
35.518254
 20
-0.445278
 30
0.0
 70
    32
  0
VERTEX
  5
413
330
411
100
AcDbEntity
  8
1
100
AcDbVertex
100
AcDb3dPolylineVertex
 10
35.525246
 20
-0.444399
 30
0.0
 70
    32
  0
VERTEX
  5
414
330
411
100
AcDbEntity
  8
1
100
AcDbVertex
100
AcDb3dPolylineVertex
 10
35.52999000000001
 20
-0.4414640000000001
 30
0.0
 70
    32
  0
VERTEX
  5
415
330
411
100
AcDbEntity
  8
1
100
AcDbVertex
100
AcDb3dPolylineVertex
 10
35.532511
 20
-0.436436
 30
0.0
 70
    32
  0
VERTEX
  5
416
330
411
100
AcDbEntity
  8
1
100
AcDbVertex
100
AcDb3dPolylineVertex
 10
35.532751
 20
-0.429398
 30
0.0
 70
    32
  0
VERTEX
  5
417
330
411
100
AcDbEntity
  8
1
100
AcDbVertex
100
AcDb3dPolylineVertex
 10
35.53060900000001
 20
-0.420498
 30
0.0
 70
    32
  0
VERTEX
  5
418
330
411
100
AcDbEntity
  8
1
100
AcDbVertex
100
AcDb3dPolylineVertex
 10
35.52614099999999
 20
-0.4099540000000001
 30
0.0
 70
    32
  0
VERTEX
  5
419
330
411
100
AcDbEntity
  8
1
100
AcDbVertex
100
AcDb3dPolylineVertex
 10
35.519624
 20
-0.398089
 30
0.0
 70
    32
  0
VERTEX
  5
41A
330
411
100
AcDbEntity
  8
1
100
AcDbVertex
100
AcDb3dPolylineVertex
 10
35.511355
 20
-0.3852219999999999
 30
0.0
 70
    32
  0
VERTEX
  5
41B
330
411
100
AcDbEntity
  8
1
100
AcDbVertex
100
AcDb3dPolylineVertex
 10
35.501647
 20
-0.371638
 30
0.0
 70
    32
  0
VERTEX
  5
41C
330
411
100
AcDbEntity
  8
1
100
AcDbVertex
100
AcDb3dPolylineVertex
 10
35.49081500000001
 20
-0.357617
 30
0.0
 70
    32
  0
VERTEX
  5
41D
330
411
100
AcDbEntity
  8
1
100
AcDbVertex
100
AcDb3dPolylineVertex
 10
35.478992
 20
-0.343279
 30
0.0
 70
    32
  0
SEQEND
  5
41E
330
411
100
AcDbEntity
  8
1
  0
POLYLINE
  5
41F
330
851
100
AcDbEntity
  8
1
100
AcDb3dPolyline
 66
     1
 10
0.0
 20
0.0
 30
0.0
 70
     8
  0
VERTEX
  5
420
330
41F
100
AcDbEntity
  8
1
100
AcDbVertex
100
AcDb3dPolylineVertex
 10
35.33679
 20
-0.343279
 30
0.0
 70
    32
  0
VERTEX
  5
421
330
41F
100
AcDbEntity
  8
1
100
AcDbVertex
100
AcDb3dPolylineVertex
 10
35.358537
 20
-0.359656
 30
0.0
 70
    32
  0
VERTEX
  5
422
330
41F
100
AcDbEntity
  8
1
100
AcDbVertex
100
AcDb3dPolylineVertex
 10
35.379574
 20
-0.374742
 30
0.0
 70
    32
  0
VERTEX
  5
423
330
41F
100
AcDbEntity
  8
1
100
AcDbVertex
100
AcDb3dPolylineVertex
 10
35.399968
 20
-0.38861
 30
0.0
 70
    32
  0
VERTEX
  5
424
330
41F
100
AcDbEntity
  8
1
100
AcDbVertex
100
AcDb3dPolylineVertex
 10
35.419791
 20
-0.40133
 30
0.0
 70
    32
  0
VERTEX
  5
425
330
41F
100
AcDbEntity
  8
1
100
AcDbVertex
100
AcDb3dPolylineVertex
 10
35.439106
 20
-0.412969
 30
0.0
 70
    32
  0
VERTEX
  5
426
330
41F
100
AcDbEntity
  8
1
100
AcDbVertex
100
AcDb3dPolylineVertex
 10
35.457805
 20
-0.423417
 30
0.0
 70
    32
  0
VERTEX
  5
427
330
41F
100
AcDbEntity
  8
1
100
AcDbVertex
100
AcDb3dPolylineVertex
 10
35.475518
 20
-0.4322970000000001
 30
0.0
 70
    32
  0
VERTEX
  5
428
330
41F
100
AcDbEntity
  8
1
100
AcDbVertex
100
AcDb3dPolylineVertex
 10
35.491834
 20
-0.4392120000000001
 30
0.0
 70
    32
  0
VERTEX
  5
429
330
41F
100
AcDbEntity
  8
1
100
AcDbVertex
100
AcDb3dPolylineVertex
 10
35.505453
 20
-0.443707
 30
0.0
 70
    32
  0
VERTEX
  5
42A
330
41F
100
AcDbEntity
  8
1
100
AcDbVertex
100
AcDb3dPolylineVertex
 10
35.51822700000001
 20
-0.445278
 30
0.0
 70
    32
  0
SEQEND
  5
42B
330
41F
100
AcDbEntity
  8
1
  0
POLYLINE
  5
42C
330
851
100
AcDbEntity
  8
1
100
AcDb3dPolyline
 66
     1
 10
0.0
 20
0.0
 30
0.0
 70
     8
  0
VERTEX
  5
42D
330
42C
100
AcDbEntity
  8
1
100
AcDbVertex
100
AcDb3dPolylineVertex
 10
34.450542
 20
0.325
 30
0.0
 70
    32
  0
VERTEX
  5
42E
330
42C
100
AcDbEntity
  8
1
100
AcDbVertex
100
AcDb3dPolylineVertex
 10
34.745958
 20
0.10224
 30
0.0
 70
    32
  0
VERTEX
  5
42F
330
42C
100
AcDbEntity
  8
1
100
AcDbVertex
100
AcDb3dPolylineVertex
 10
35.041374
 20
-0.120519
 30
0.0
 70
    32
  0
VERTEX
  5
430
330
42C
100
AcDbEntity
  8
1
100
AcDbVertex
100
AcDb3dPolylineVertex
 10
35.33679
 20
-0.343279
 30
0.0
 70
    32
  0
SEQEND
  5
431
330
42C
100
AcDbEntity
  8
1
  0
POLYLINE
  5
432
330
851
100
AcDbEntity
  8
1
100
AcDb3dPolyline
 66
     1
 10
0.0
 20
0.0
 30
0.0
 70
     8
  0
VERTEX
  5
433
330
432
100
AcDbEntity
  8
1
100
AcDbVertex
100
AcDb3dPolylineVertex
 10
37.965758
 20
-0.343279
 30
0.0
 70
    32
  0
VERTEX
  5
434
330
432
100
AcDbEntity
  8
1
100
AcDbVertex
100
AcDb3dPolylineVertex
 10
37.98282
 20
-0.359234
 30
0.0
 70
    32
  0
VERTEX
  5
435
330
432
100
AcDbEntity
  8
1
100
AcDbVertex
100
AcDb3dPolylineVertex
 10
37.998991
 20
-0.37413
 30
0.0
 70
    32
  0
VERTEX
  5
436
330
432
100
AcDbEntity
  8
1
100
AcDbVertex
100
AcDb3dPolylineVertex
 10
38.01436300000001
 20
-0.388059
 30
0.0
 70
    32
  0
VERTEX
  5
437
330
432
100
AcDbEntity
  8
1
100
AcDbVertex
100
AcDb3dPolylineVertex
 10
38.029021
 20
-0.4011060000000001
 30
0.0
 70
    32
  0
VERTEX
  5
438
330
432
100
AcDbEntity
  8
1
100
AcDbVertex
100
AcDb3dPolylineVertex
 10
38.04280100000001
 20
-0.413119
 30
0.0
 70
    32
  0
VERTEX
  5
439
330
432
100
AcDbEntity
  8
1
100
AcDbVertex
100
AcDb3dPolylineVertex
 10
38.055291
 20
-0.423705
 30
0.0
 70
    32
  0
VERTEX
  5
43A
330
432
100
AcDbEntity
  8
1
100
AcDbVertex
100
AcDb3dPolylineVertex
 10
38.066063
 20
-0.4324640000000001
 30
0.0
 70
    32
  0
VERTEX
  5
43B
330
432
100
AcDbEntity
  8
1
100
AcDbVertex
100
AcDb3dPolylineVertex
 10
38.07465
 20
-0.439032
 30
0.0
 70
    32
  0
VERTEX
  5
43C
330
432
100
AcDbEntity
  8
1
100
AcDbVertex
100
AcDb3dPolylineVertex
 10
38.080597
 20
-0.44309
 30
0.0
 70
    32
  0
VERTEX
  5
43D
330
432
100
AcDbEntity
  8
1
100
AcDbVertex
100
AcDb3dPolylineVertex
 10
38.087241
 20
-0.445424
 30
0.0
 70
    32
  0
SEQEND
  5
43E
330
432
100
AcDbEntity
  8
1
  0
POLYLINE
  5
43F
330
851
100
AcDbEntity
  8
1
100
AcDb3dPolyline
 66
     1
 10
0.0
 20
0.0
 30
0.0
 70
     8
  0
VERTEX
  5
440
330
43F
100
AcDbEntity
  8
1
100
AcDbVertex
100
AcDb3dPolylineVertex
 10
37.251206
 20
0.325
 30
0.0
 70
    32
  0
VERTEX
  5
441
330
43F
100
AcDbEntity
  8
1
100
AcDbVertex
100
AcDb3dPolylineVertex
 10
37.48939
 20
0.10224
 30
0.0
 70
    32
  0
VERTEX
  5
442
330
43F
100
AcDbEntity
  8
1
100
AcDbVertex
100
AcDb3dPolylineVertex
 10
37.727574
 20
-0.120519
 30
0.0
 70
    32
  0
VERTEX
  5
443
330
43F
100
AcDbEntity
  8
1
100
AcDbVertex
100
AcDb3dPolylineVertex
 10
37.965758
 20
-0.343279
 30
0.0
 70
    32
  0
SEQEND
  5
444
330
43F
100
AcDbEntity
  8
1
  0
POLYLINE
  5
445
330
851
100
AcDbEntity
  8
1
100
AcDb3dPolyline
 66
     1
 10
0.0
 20
0.0
 30
0.0
 70
     8
  0
VERTEX
  5
446
330
445
100
AcDbEntity
  8
1
100
AcDbVertex
100
AcDb3dPolylineVertex
 10
37.78053400000001
 20
-0.343279
 30
0.0
 70
    32
  0
VERTEX
  5
447
330
445
100
AcDbEntity
  8
1
100
AcDbVertex
100
AcDb3dPolylineVertex
 10
37.798062
 20
-0.359224
 30
0.0
 70
    32
  0
VERTEX
  5
448
330
445
100
AcDbEntity
  8
1
100
AcDbVertex
100
AcDb3dPolylineVertex
 10
37.814762
 20
-0.374109
 30
0.0
 70
    32
  0
VERTEX
  5
449
330
445
100
AcDbEntity
  8
1
100
AcDbVertex
100
AcDb3dPolylineVertex
 10
37.830729
 20
-0.38803
 30
0.0
 70
    32
  0
VERTEX
  5
44A
330
445
100
AcDbEntity
  8
1
100
AcDbVertex
100
AcDb3dPolylineVertex
 10
37.846042
 20
-0.401068
 30
0.0
 70
    32
  0
VERTEX
  5
44B
330
445
100
AcDbEntity
  8
1
100
AcDbVertex
100
AcDb3dPolylineVertex
 10
37.860547
 20
-0.4130760000000001
 30
0.0
 70
    32
  0
VERTEX
  5
44C
330
445
100
AcDbEntity
  8
1
100
AcDbVertex
100
AcDb3dPolylineVertex
 10
37.87388
 20
-0.4237060000000001
 30
0.0
 70
    32
  0
VERTEX
  5
44D
330
445
100
AcDbEntity
  8
1
100
AcDbVertex
100
AcDb3dPolylineVertex
 10
37.885659
 20
-0.432597
 30
0.0
 70
    32
  0
VERTEX
  5
44E
330
445
100
AcDbEntity
  8
1
100
AcDbVertex
100
AcDb3dPolylineVertex
 10
37.895269
 20
-0.4392960000000001
 30
0.0
 70
    32
  0
VERTEX
  5
44F
330
445
100
AcDbEntity
  8
1
100
AcDbVertex
100
AcDb3dPolylineVertex
 10
37.901941
 20
-0.443283
 30
0.0
 70
    32
  0
VERTEX
  5
450
330
445
100
AcDbEntity
  8
1
100
AcDbVertex
100
AcDb3dPolylineVertex
 10
37.908893
 20
-0.445334
 30
0.0
 70
    32
  0
SEQEND
  5
451
330
445
100
AcDbEntity
  8
1
  0
POLYLINE
  5
452
330
851
100
AcDbEntity
  8
1
100
AcDb3dPolyline
 66
     1
 10
0.0
 20
0.0
 30
0.0
 70
     8
  0
VERTEX
  5
453
330
452
100
AcDbEntity
  8
1
100
AcDbVertex
100
AcDb3dPolylineVertex
 10
37.046793
 20
0.325
 30
0.0
 70
    32
  0
VERTEX
  5
454
330
452
100
AcDbEntity
  8
1
100
AcDbVertex
100
AcDb3dPolylineVertex
 10
37.291373
 20
0.10224
 30
0.0
 70
    32
  0
VERTEX
  5
455
330
452
100
AcDbEntity
  8
1
100
AcDbVertex
100
AcDb3dPolylineVertex
 10
37.535954
 20
-0.120519
 30
0.0
 70
    32
  0
VERTEX
  5
456
330
452
100
AcDbEntity
  8
1
100
AcDbVertex
100
AcDb3dPolylineVertex
 10
37.78053400000001
 20
-0.343279
 30
0.0
 70
    32
  0
SEQEND
  5
457
330
452
100
AcDbEntity
  8
1
  0
POLYLINE
  5
458
330
851
100
AcDbEntity
  8
1
100
AcDb3dPolyline
 66
     1
 10
0.0
 20
0.0
 30
0.0
 70
     8
  0
VERTEX
  5
459
330
458
100
AcDbEntity
  8
1
100
AcDbVertex
100
AcDb3dPolylineVertex
 10
38.000642
 20
-0.343279
 30
0.0
 70
    32
  0
VERTEX
  5
45A
330
458
100
AcDbEntity
  8
1
100
AcDbVertex
100
AcDb3dPolylineVertex
 10
38.01379
 20
-0.357188
 30
0.0
 70
    32
  0
VERTEX
  5
45B
330
458
100
AcDbEntity
  8
1
100
AcDbVertex
100
AcDb3dPolylineVertex
 10
38.026296
 20
-0.370594
 30
0.0
 70
    32
  0
VERTEX
  5
45C
330
458
100
AcDbEntity
  8
1
100
AcDbVertex
100
AcDb3dPolylineVertex
 10
38.038196
 20
-0.383533
 30
0.0
 70
    32
  0
VERTEX
  5
45D
330
458
100
AcDbEntity
  8
1
100
AcDbVertex
100
AcDb3dPolylineVertex
 10
38.049307
 20
-0.395826
 30
0.0
 70
    32
  0
VERTEX
  5
45E
330
458
100
AcDbEntity
  8
1
100
AcDbVertex
100
AcDb3dPolylineVertex
 10
38.059426
 20
-0.40728
 30
0.0
 70
    32
  0
VERTEX
  5
45F
330
458
100
AcDbEntity
  8
1
100
AcDbVertex
100
AcDb3dPolylineVertex
 10
38.06834
 20
-0.4176820000000001
 30
0.0
 70
    32
  0
VERTEX
  5
460
330
458
100
AcDbEntity
  8
1
100
AcDbVertex
100
AcDb3dPolylineVertex
 10
38.07574000000001
 20
-0.4266770000000001
 30
0.0
 70
    32
  0
VERTEX
  5
461
330
458
100
AcDbEntity
  8
1
100
AcDbVertex
100
AcDb3dPolylineVertex
 10
38.081274
 20
-0.4338490000000001
 30
0.0
 70
    32
  0
VERTEX
  5
462
330
458
100
AcDbEntity
  8
1
100
AcDbVertex
100
AcDb3dPolylineVertex
 10
38.084951
 20
-0.439434
 30
0.0
 70
    32
  0
VERTEX
  5
463
330
458
100
AcDbEntity
  8
1
100
AcDbVertex
100
AcDb3dPolylineVertex
 10
38.087308
 20
-0.4446229999999999
 30
0.0
 70
    32
  0
SEQEND
  5
464
330
458
100
AcDbEntity
  8
1
  0
POLYLINE
  5
465
330
851
100
AcDbEntity
  8
1
100
AcDb3dPolyline
 66
     1
 10
0.0
 20
0.0
 30
0.0
 70
     8
  0
VERTEX
  5
466
330
465
100
AcDbEntity
  8
1
100
AcDbVertex
100
AcDb3dPolylineVertex
 10
-34.68657800000001
 20
-0.343279
 30
0.0
 70
    32
  0
VERTEX
  5
467
330
465
100
AcDbEntity
  8
1
100
AcDbVertex
100
AcDb3dPolylineVertex
 10
-34.70856
 20
-0.359063
 30
0.0
 70
    32
  0
VERTEX
  5
468
330
465
100
AcDbEntity
  8
1
100
AcDbVertex
100
AcDb3dPolylineVertex
 10
-34.73025999999999
 20
-0.373937
 30
0.0
 70
    32
  0
VERTEX
  5
469
330
465
100
AcDbEntity
  8
1
100
AcDbVertex
100
AcDb3dPolylineVertex
 10
-34.751742
 20
-0.38797
 30
0.0
 70
    32
  0
VERTEX
  5
46A
330
465
100
AcDbEntity
  8
1
100
AcDbVertex
100
AcDb3dPolylineVertex
 10
-34.772859
 20
-0.401004
 30
0.0
 70
    32
  0
VERTEX
  5
46B
330
465
100
AcDbEntity
  8
1
100
AcDbVertex
100
AcDb3dPolylineVertex
 10
-34.793441
 20
-0.4128580000000001
 30
0.0
 70
    32
  0
VERTEX
  5
46C
330
465
100
AcDbEntity
  8
1
100
AcDbVertex
100
AcDb3dPolylineVertex
 10
-34.813315
 20
-0.423349
 30
0.0
 70
    32
  0
VERTEX
  5
46D
330
465
100
AcDbEntity
  8
1
100
AcDbVertex
100
AcDb3dPolylineVertex
 10
-34.832259
 20
-0.432252
 30
0.0
 70
    32
  0
VERTEX
  5
46E
330
465
100
AcDbEntity
  8
1
100
AcDbVertex
100
AcDb3dPolylineVertex
 10
-34.849806
 20
-0.439154
 30
0.0
 70
    32
  0
VERTEX
  5
46F
330
465
100
AcDbEntity
  8
1
100
AcDbVertex
100
AcDb3dPolylineVertex
 10
-34.865416
 20
-0.4435810000000001
 30
0.0
 70
    32
  0
VERTEX
  5
470
330
465
100
AcDbEntity
  8
1
100
AcDbVertex
100
AcDb3dPolylineVertex
 10
-34.878796
 20
-0.4452770000000001
 30
0.0
 70
    32
  0
SEQEND
  5
471
330
465
100
AcDbEntity
  8
1
  0
POLYLINE
  5
472
330
851
100
AcDbEntity
  8
1
100
AcDb3dPolyline
 66
     1
 10
0.0
 20
0.0
 30
0.0
 70
     8
  0
VERTEX
  5
473
330
472
100
AcDbEntity
  8
1
100
AcDbVertex
100
AcDb3dPolylineVertex
 10
-34.477015
 20
-0.190104
 30
0.0
 70
    32
  0
VERTEX
  5
474
330
472
100
AcDbEntity
  8
1
100
AcDbVertex
100
AcDb3dPolylineVertex
 10
-34.54687
 20
-0.241162
 30
0.0
 70
    32
  0
VERTEX
  5
475
330
472
100
AcDbEntity
  8
1
100
AcDbVertex
100
AcDb3dPolylineVertex
 10
-34.616724
 20
-0.292221
 30
0.0
 70
    32
  0
VERTEX
  5
476
330
472
100
AcDbEntity
  8
1
100
AcDbVertex
100
AcDb3dPolylineVertex
 10
-34.68657800000001
 20
-0.343279
 30
0.0
 70
    32
  0
SEQEND
  5
477
330
472
100
AcDbEntity
  8
1
  0
POLYLINE
  5
478
330
851
100
AcDbEntity
  8
1
100
AcDb3dPolyline
 66
     1
 10
0.0
 20
0.0
 30
0.0
 70
     8
  0
VERTEX
  5
479
330
478
100
AcDbEntity
  8
1
100
AcDbVertex
100
AcDb3dPolylineVertex
 10
37.91024
 20
-0.4444510000000001
 30
0.0
 70
    32
  0
VERTEX
  5
47A
330
478
100
AcDbEntity
  8
1
100
AcDbVertex
100
AcDb3dPolylineVertex
 10
37.90990900000001
 20
-0.4395520000000001
 30
0.0
 70
    32
  0
VERTEX
  5
47B
330
478
100
AcDbEntity
  8
1
100
AcDbVertex
100
AcDb3dPolylineVertex
 10
37.907543
 20
-0.435007
 30
0.0
 70
    32
  0
VERTEX
  5
47C
330
478
100
AcDbEntity
  8
1
100
AcDbVertex
100
AcDb3dPolylineVertex
 10
37.902962
 20
-0.428549
 30
0.0
 70
    32
  0
VERTEX
  5
47D
330
478
100
AcDbEntity
  8
1
100
AcDbVertex
100
AcDb3dPolylineVertex
 10
37.89631400000001
 20
-0.419724
 30
0.0
 70
    32
  0
VERTEX
  5
47E
330
478
100
AcDbEntity
  8
1
100
AcDbVertex
100
AcDb3dPolylineVertex
 10
37.887949
 20
-0.4092030000000001
 30
0.0
 70
    32
  0
VERTEX
  5
47F
330
478
100
AcDbEntity
  8
1
100
AcDbVertex
100
AcDb3dPolylineVertex
 10
37.878179
 20
-0.397487
 30
0.0
 70
    32
  0
VERTEX
  5
480
330
478
100
AcDbEntity
  8
1
100
AcDbVertex
100
AcDb3dPolylineVertex
 10
37.86727
 20
-0.384848
 30
0.0
 70
    32
  0
VERTEX
  5
481
330
478
100
AcDbEntity
  8
1
100
AcDbVertex
100
AcDb3dPolylineVertex
 10
37.855482
 20
-0.371544
 30
0.0
 70
    32
  0
VERTEX
  5
482
330
478
100
AcDbEntity
  8
1
100
AcDbVertex
100
AcDb3dPolylineVertex
 10
37.842963
 20
-0.357723
 30
0.0
 70
    32
  0
VERTEX
  5
483
330
478
100
AcDbEntity
  8
1
100
AcDbVertex
100
AcDb3dPolylineVertex
 10
37.829602
 20
-0.343279
 30
0.0
 70
    32
  0
SEQEND
  5
484
330
478
100
AcDbEntity
  8
1
  0
POLYLINE
  5
485
330
851
100
AcDbEntity
  8
1
100
AcDb3dPolyline
 66
     1
 10
0.0
 20
0.0
 30
0.0
 70
     8
  0
VERTEX
  5
486
330
485
100
AcDbEntity
  8
1
100
AcDbVertex
100
AcDb3dPolylineVertex
 10
-37.226452
 20
-0.343279
 30
0.0
 70
    32
  0
VERTEX
  5
487
330
485
100
AcDbEntity
  8
1
100
AcDbVertex
100
AcDb3dPolylineVertex
 10
-37.244808
 20
-0.358988
 30
0.0
 70
    32
  0
VERTEX
  5
488
330
485
100
AcDbEntity
  8
1
100
AcDbVertex
100
AcDb3dPolylineVertex
 10
-37.262633
 20
-0.373815
 30
0.0
 70
    32
  0
VERTEX
  5
489
330
485
100
AcDbEntity
  8
1
100
AcDbVertex
100
AcDb3dPolylineVertex
 10
-37.280037
 20
-0.387874
 30
0.0
 70
    32
  0
VERTEX
  5
48A
330
485
100
AcDbEntity
  8
1
100
AcDbVertex
100
AcDb3dPolylineVertex
 10
-37.296882
 20
-0.401021
 30
0.0
 70
    32
  0
VERTEX
  5
48B
330
485
100
AcDbEntity
  8
1
100
AcDbVertex
100
AcDb3dPolylineVertex
 10
-37.312942
 20
-0.413022
 30
0.0
 70
    32
  0
VERTEX
  5
48C
330
485
100
AcDbEntity
  8
1
100
AcDbVertex
100
AcDb3dPolylineVertex
 10
-37.327991
 20
-0.423642
 30
0.0
 70
    32
  0
VERTEX
  5
48D
330
485
100
AcDbEntity
  8
1
100
AcDbVertex
100
AcDb3dPolylineVertex
 10
-37.341697
 20
-0.4325770000000001
 30
0.0
 70
    32
  0
VERTEX
  5
48E
330
485
100
AcDbEntity
  8
1
100
AcDbVertex
100
AcDb3dPolylineVertex
 10
-37.353486
 20
-0.439373
 30
0.0
 70
    32
  0
VERTEX
  5
48F
330
485
100
AcDbEntity
  8
1
100
AcDbVertex
100
AcDb3dPolylineVertex
 10
-37.362865
 20
-0.4435890000000001
 30
0.0
 70
    32
  0
VERTEX
  5
490
330
485
100
AcDbEntity
  8
1
100
AcDbVertex
100
AcDb3dPolylineVertex
 10
-37.37107
 20
-0.445323
 30
0.0
 70
    32
  0
SEQEND
  5
491
330
485
100
AcDbEntity
  8
1
  0
POLYLINE
  5
492
330
851
100
AcDbEntity
  8
1
100
AcDb3dPolyline
 66
     1
 10
0.0
 20
0.0
 30
0.0
 70
     8
  0
VERTEX
  5
493
330
492
100
AcDbEntity
  8
1
100
AcDbVertex
100
AcDb3dPolylineVertex
 10
-36.449826
 20
0.325
 30
0.0
 70
    32
  0
VERTEX
  5
494
330
492
100
AcDbEntity
  8
1
100
AcDbVertex
100
AcDb3dPolylineVertex
 10
-36.708702
 20
0.10224
 30
0.0
 70
    32
  0
VERTEX
  5
495
330
492
100
AcDbEntity
  8
1
100
AcDbVertex
100
AcDb3dPolylineVertex
 10
-36.967577
 20
-0.120519
 30
0.0
 70
    32
  0
VERTEX
  5
496
330
492
100
AcDbEntity
  8
1
100
AcDbVertex
100
AcDb3dPolylineVertex
 10
-37.226452
 20
-0.343279
 30
0.0
 70
    32
  0
SEQEND
  5
497
330
492
100
AcDbEntity
  8
1
  0
POLYLINE
  5
498
330
851
100
AcDbEntity
  8
1
100
AcDb3dPolyline
 66
     1
 10
0.0
 20
0.0
 30
0.0
 70
     8
  0
VERTEX
  5
499
330
498
100
AcDbEntity
  8
1
100
AcDbVertex
100
AcDb3dPolylineVertex
 10
38.204598
 20
-0.444823
 30
0.0
 70
    32
  0
VERTEX
  5
49A
330
498
100
AcDbEntity
  8
1
100
AcDbVertex
100
AcDb3dPolylineVertex
 10
38.201363
 20
-0.439894
 30
0.0
 70
    32
  0
VERTEX
  5
49B
330
498
100
AcDbEntity
  8
1
100
AcDbVertex
100
AcDb3dPolylineVertex
 10
38.197055
 20
-0.434428
 30
0.0
 70
    32
  0
VERTEX
  5
49C
330
498
100
AcDbEntity
  8
1
100
AcDbVertex
100
AcDb3dPolylineVertex
 10
38.190898
 20
-0.4272660000000001
 30
0.0
 70
    32
  0
VERTEX
  5
49D
330
498
100
AcDbEntity
  8
1
100
AcDbVertex
100
AcDb3dPolylineVertex
 10
38.182857
 20
-0.4182560000000001
 30
0.0
 70
    32
  0
VERTEX
  5
49E
330
498
100
AcDbEntity
  8
1
100
AcDbVertex
100
AcDb3dPolylineVertex
 10
38.173323
 20
-0.407824
 30
0.0
 70
    32
  0
VERTEX
  5
49F
330
498
100
AcDbEntity
  8
1
100
AcDbVertex
100
AcDb3dPolylineVertex
 10
38.162618
 20
-0.396316
 30
0.0
 70
    32
  0
VERTEX
  5
4A0
330
498
100
AcDbEntity
  8
1
100
AcDbVertex
100
AcDb3dPolylineVertex
 10
38.150955
 20
-0.383941
 30
0.0
 70
    32
  0
VERTEX
  5
4A1
330
498
100
AcDbEntity
  8
1
100
AcDbVertex
100
AcDb3dPolylineVertex
 10
38.138537
 20
-0.370897
 30
0.0
 70
    32
  0
VERTEX
  5
4A2
330
498
100
AcDbEntity
  8
1
100
AcDbVertex
100
AcDb3dPolylineVertex
 10
38.125543
 20
-0.357358
 30
0.0
 70
    32
  0
VERTEX
  5
4A3
330
498
100
AcDbEntity
  8
1
100
AcDbVertex
100
AcDb3dPolylineVertex
 10
38.111924
 20
-0.343279
 30
0.0
 70
    32
  0
SEQEND
  5
4A4
330
498
100
AcDbEntity
  8
1
  0
POLYLINE
  5
4A5
330
851
100
AcDbEntity
  8
1
100
AcDb3dPolyline
 66
     1
 10
0.0
 20
0.0
 30
0.0
 70
     8
  0
VERTEX
  5
4A6
330
4A5
100
AcDbEntity
  8
1
100
AcDbVertex
100
AcDb3dPolylineVertex
 10
-36.417698
 20
-0.343279
 30
0.0
 70
    32
  0
VERTEX
  5
4A7
330
4A5
100
AcDbEntity
  8
1
100
AcDbVertex
100
AcDb3dPolylineVertex
 10
-36.437303
 20
-0.358995
 30
0.0
 70
    32
  0
VERTEX
  5
4A8
330
4A5
100
AcDbEntity
  8
1
100
AcDbVertex
100
AcDb3dPolylineVertex
 10
-36.456512
 20
-0.37385
 30
0.0
 70
    32
  0
VERTEX
  5
4A9
330
4A5
100
AcDbEntity
  8
1
100
AcDbVertex
100
AcDb3dPolylineVertex
 10
-36.475392
 20
-0.387916
 30
0.0
 70
    32
  0
VERTEX
  5
4AA
330
4A5
100
AcDbEntity
  8
1
100
AcDbVertex
100
AcDb3dPolylineVertex
 10
-36.493783
 20
-0.401023
 30
0.0
 70
    32
  0
VERTEX
  5
4AB
330
4A5
100
AcDbEntity
  8
1
100
AcDbVertex
100
AcDb3dPolylineVertex
 10
-36.511494
 20
-0.412969
 30
0.0
 70
    32
  0
VERTEX
  5
4AC
330
4A5
100
AcDbEntity
  8
1
100
AcDbVertex
100
AcDb3dPolylineVertex
 10
-36.528331
 20
-0.42355
 30
0.0
 70
    32
  0
VERTEX
  5
4AD
330
4A5
100
AcDbEntity
  8
1
100
AcDbVertex
100
AcDb3dPolylineVertex
 10
-36.543995
 20
-0.432482
 30
0.0
 70
    32
  0
VERTEX
  5
4AE
330
4A5
100
AcDbEntity
  8
1
100
AcDbVertex
100
AcDb3dPolylineVertex
 10
-36.557966
 20
-0.439318
 30
0.0
 70
    32
  0
VERTEX
  5
4AF
330
4A5
100
AcDbEntity
  8
1
100
AcDbVertex
100
AcDb3dPolylineVertex
 10
-36.56972899999999
 20
-0.4436080000000001
 30
0.0
 70
    32
  0
VERTEX
  5
4B0
330
4A5
100
AcDbEntity
  8
1
100
AcDbVertex
100
AcDb3dPolylineVertex
 10
-36.579465
 20
-0.4452850000000001
 30
0.0
 70
    32
  0
SEQEND
  5
4B1
330
4A5
100
AcDbEntity
  8
1
  0
POLYLINE
  5
4B2
330
851
100
AcDbEntity
  8
1
100
AcDb3dPolyline
 66
     1
 10
0.0
 20
0.0
 30
0.0
 70
     8
  0
VERTEX
  5
4B3
330
4B2
100
AcDbEntity
  8
1
100
AcDbVertex
100
AcDb3dPolylineVertex
 10
-35.590938
 20
0.325
 30
0.0
 70
    32
  0
VERTEX
  5
4B4
330
4B2
100
AcDbEntity
  8
1
100
AcDbVertex
100
AcDb3dPolylineVertex
 10
-35.866524
 20
0.10224
 30
0.0
 70
    32
  0
VERTEX
  5
4B5
330
4B2
100
AcDbEntity
  8
1
100
AcDbVertex
100
AcDb3dPolylineVertex
 10
-36.142111
 20
-0.120519
 30
0.0
 70
    32
  0
VERTEX
  5
4B6
330
4B2
100
AcDbEntity
  8
1
100
AcDbVertex
100
AcDb3dPolylineVertex
 10
-36.417698
 20
-0.343279
 30
0.0
 70
    32
  0
SEQEND
  5
4B7
330
4B2
100
AcDbEntity
  8
1
  0
POLYLINE
  5
4B8
330
851
100
AcDbEntity
  8
1
100
AcDb3dPolyline
 66
     1
 10
0.0
 20
0.0
 30
0.0
 70
     8
  0
VERTEX
  5
4B9
330
4B8
100
AcDbEntity
  8
1
100
AcDbVertex
100
AcDb3dPolylineVertex
 10
38.5
 20
-0.725
 30
0.0
 70
    32
  0
VERTEX
  5
4BA
330
4B8
100
AcDbEntity
  8
1
100
AcDbVertex
100
AcDb3dPolylineVertex
 10
38.496774
 20
-0.766845
 30
0.0
 70
    32
  0
VERTEX
  5
4BB
330
4B8
100
AcDbEntity
  8
1
100
AcDbVertex
100
AcDb3dPolylineVertex
 10
38.490444
 20
-0.8502229999999999
 30
0.0
 70
    32
  0
VERTEX
  5
4BC
330
4B8
100
AcDbEntity
  8
1
100
AcDbVertex
100
AcDb3dPolylineVertex
 10
38.481651
 20
-0.9695950000000001
 30
0.0
 70
    32
  0
VERTEX
  5
4BD
330
4B8
100
AcDbEntity
  8
1
100
AcDbVertex
100
AcDb3dPolylineVertex
 10
38.469637
 20
-1.141394
 30
0.0
 70
    32
  0
VERTEX
  5
4BE
330
4B8
100
AcDbEntity
  8
1
100
AcDbVertex
100
AcDb3dPolylineVertex
 10
38.455066
 20
-1.364532999999999
 30
0.0
 70
    32
  0
VERTEX
  5
4BF
330
4B8
100
AcDbEntity
  8
1
100
AcDbVertex
100
AcDb3dPolylineVertex
 10
38.43935399999999
 20
-1.628533999999999
 30
0.0
 70
    32
  0
VERTEX
  5
4C0
330
4B8
100
AcDbEntity
  8
1
100
AcDbVertex
100
AcDb3dPolylineVertex
 10
38.423538
 20
-1.928168
 30
0.0
 70
    32
  0
VERTEX
  5
4C1
330
4B8
100
AcDbEntity
  8
1
100
AcDbVertex
100
AcDb3dPolylineVertex
 10
38.408599
 20
-2.258265
 30
0.0
 70
    32
  0
VERTEX
  5
4C2
330
4B8
100
AcDbEntity
  8
1
100
AcDbVertex
100
AcDb3dPolylineVertex
 10
38.395441
 20
-2.613506
 30
0.0
 70
    32
  0
VERTEX
  5
4C3
330
4B8
100
AcDbEntity
  8
1
100
AcDbVertex
100
AcDb3dPolylineVertex
 10
38.384842
 20
-2.988459999999999
 30
0.0
 70
    32
  0
VERTEX
  5
4C4
330
4B8
100
AcDbEntity
  8
1
100
AcDbVertex
100
AcDb3dPolylineVertex
 10
38.37742
 20
-3.377505999999999
 30
0.0
 70
    32
  0
VERTEX
  5
4C5
330
4B8
100
AcDbEntity
  8
1
100
AcDbVertex
100
AcDb3dPolylineVertex
 10
38.373601
 20
-3.775034999999999
 30
0.0
 70
    32
  0
VERTEX
  5
4C6
330
4B8
100
AcDbEntity
  8
1
100
AcDbVertex
100
AcDb3dPolylineVertex
 10
38.373601
 20
-4.175408
 30
0.0
 70
    32
  0
VERTEX
  5
4C7
330
4B8
100
AcDbEntity
  8
1
100
AcDbVertex
100
AcDb3dPolylineVertex
 10
38.377426
 20
-4.572919999999999
 30
0.0
 70
    32
  0
VERTEX
  5
4C8
330
4B8
100
AcDbEntity
  8
1
100
AcDbVertex
100
AcDb3dPolylineVertex
 10
38.384852
 20
-4.96193
 30
0.0
 70
    32
  0
VERTEX
  5
4C9
330
4B8
100
AcDbEntity
  8
1
100
AcDbVertex
100
AcDb3dPolylineVertex
 10
38.395452
 20
-5.336819
 30
0.0
 70
    32
  0
VERTEX
  5
4CA
330
4B8
100
AcDbEntity
  8
1
100
AcDbVertex
100
AcDb3dPolylineVertex
 10
38.40861
 20
-5.692007
 30
0.0
 70
    32
  0
VERTEX
  5
4CB
330
4B8
100
AcDbEntity
  8
1
100
AcDbVertex
100
AcDb3dPolylineVertex
 10
38.423548
 20
-6.022037999999999
 30
0.0
 70
    32
  0
VERTEX
  5
4CC
330
4B8
100
AcDbEntity
  8
1
100
AcDbVertex
100
AcDb3dPolylineVertex
 10
38.439361
 20
-6.321582
 30
0.0
 70
    32
  0
VERTEX
  5
4CD
330
4B8
100
AcDbEntity
  8
1
100
AcDbVertex
100
AcDb3dPolylineVertex
 10
38.45507
 20
-6.585538
 30
0.0
 70
    32
  0
VERTEX
  5
4CE
330
4B8
100
AcDbEntity
  8
1
100
AcDbVertex
100
AcDb3dPolylineVertex
 10
38.469677
 20
-6.809141999999999
 30
0.0
 70
    32
  0
VERTEX
  5
4CF
330
4B8
100
AcDbEntity
  8
1
100
AcDbVertex
100
AcDb3dPolylineVertex
 10
38.482221
 20
-6.988077
 30
0.0
 70
    32
  0
VERTEX
  5
4D0
330
4B8
100
AcDbEntity
  8
1
100
AcDbVertex
100
AcDb3dPolylineVertex
 10
38.491848
 20
-7.118583
 30
0.0
 70
    32
  0
VERTEX
  5
4D1
330
4B8
100
AcDbEntity
  8
1
100
AcDbVertex
100
AcDb3dPolylineVertex
 10
38.497786
 20
-7.196546999999999
 30
0.0
 70
    32
  0
VERTEX
  5
4D2
330
4B8
100
AcDbEntity
  8
1
100
AcDbVertex
100
AcDb3dPolylineVertex
 10
38.50125100000001
 20
-7.228111999999999
 30
0.0
 70
    32
  0
SEQEND
  5
4D3
330
4B8
100
AcDbEntity
  8
1
  0
INSERT
  5
4D4
330
851
100
AcDbEntity
  8
2L
100
AcDbBlockReference
  2
ASSORTEDPART1
 10
0.0
 20
0.0
 30
0.0
  0
INSERT
  5
4D5
330
851
100
AcDbEntity
  8
SK2
100
AcDbBlockReference
  2
ASSORTEDPART2
 10
0.0
 20
0.0
 30
0.0
  0
INSERT
  5
4D6
330
851
100
AcDbEntity
  8
2L
100
AcDbBlockReference
  2
ASSORTEDPART3
 10
0.0
 20
0.0
 30
0.0
  0
INSERT
  5
4D7
330
851
100
AcDbEntity
  8
SK2
100
AcDbBlockReference
  2
ASSORTEDPART4
 10
0.0
 20
0.0
 30
0.0
  0
ENDSEC
  0
SECTION
  2
OBJECTS
  0
DICTIONARY
  5
7ED
330
0
100
AcDbDictionary
281
     1
  3
ACAD_CIP_PREVIOUS_PRODUCT_INFO
350
886
  3
ACAD_COLOR
350
843
  3
ACAD_DETAILVIEWSTYLE
350
84B
  3
ACAD_GROUP
350
7EE
  3
ACAD_LAYOUT
350
842
  3
ACAD_MATERIAL
350
7F1
  3
ACAD_MLEADERSTYLE
350
846
  3
ACAD_MLINESTYLE
350
83F
  3
ACAD_PLOTSETTINGS
350
841
  3
ACAD_PLOTSTYLENAME
350
7EF
  3
ACAD_SCALELIST
350
823
  3
ACAD_SECTIONVIEWSTYLE
350
848
  3
ACAD_TABLESTYLE
350
844
  3
ACAD_VISUALSTYLE
350
80A
  3
ACDB_RECOMPOSE_DATA
350
8E2
  3
AcDbVariableDictionary
350
8D5
  3
DWGPROPS
350
8E3
  0
DICTIONARY
  5
889
330
835
100
AcDbDictionary
280
     1
281
     1
  3
ADSK_XREC_LAYER_RECONCILED
360
88A
  0
DICTIONARY
  5
88B
330
855
100
AcDbDictionary
280
     1
281
     1
  3
ADSK_XREC_LAYER_RECONCILED
360
88C
  0
DICTIONARY
  5
88D
330
859
100
AcDbDictionary
280
     1
281
     1
  3
ADSK_XREC_LAYER_RECONCILED
360
88E
  0
DICTIONARY
  5
88F
330
85A
100
AcDbDictionary
280
     1
281
     1
  3
ADSK_XREC_LAYER_RECONCILED
360
890
  0
DICTIONARY
  5
891
330
85B
100
AcDbDictionary
280
     1
281
     1
  3
ADSK_XREC_LAYER_RECONCILED
360
892
  0
DICTIONARY
  5
893
330
85C
100
AcDbDictionary
280
     1
281
     1
  3
ADSK_XREC_LAYER_RECONCILED
360
894
  0
DICTIONARY
  5
895
330
85D
100
AcDbDictionary
280
     1
281
     1
  3
ADSK_XREC_LAYER_RECONCILED
360
896
  0
DICTIONARY
  5
897
330
85E
100
AcDbDictionary
280
     1
281
     1
  3
ADSK_XREC_LAYER_RECONCILED
360
898
  0
DICTIONARY
  5
899
330
85F
100
AcDbDictionary
280
     1
281
     1
  3
ADSK_XREC_LAYER_RECONCILED
360
89A
  0
DICTIONARY
  5
89B
330
860
100
AcDbDictionary
280
     1
281
     1
  3
ADSK_XREC_LAYER_RECONCILED
360
89C
  0
DICTIONARY
  5
89D
330
861
100
AcDbDictionary
280
     1
281
     1
  3
ADSK_XREC_LAYER_RECONCILED
360
89E
  0
DICTIONARY
  5
89F
330
862
100
AcDbDictionary
280
     1
281
     1
  3
ADSK_XREC_LAYER_RECONCILED
360
8A0
  0
DICTIONARY
  5
8A1
330
863
100
AcDbDictionary
280
     1
281
     1
  3
ADSK_XREC_LAYER_RECONCILED
360
8A2
  0
DICTIONARY
  5
8A3
330
864
100
AcDbDictionary
280
     1
281
     1
  3
ADSK_XREC_LAYER_RECONCILED
360
8A4
  0
DICTIONARY
  5
8A5
330
865
100
AcDbDictionary
280
     1
281
     1
  3
ADSK_XREC_LAYER_RECONCILED
360
8A6
  0
DICTIONARY
  5
8A7
330
866
100
AcDbDictionary
280
     1
281
     1
  3
ADSK_XREC_LAYER_RECONCILED
360
8A8
  0
DICTIONARY
  5
8A9
330
867
100
AcDbDictionary
280
     1
281
     1
  3
ADSK_XREC_LAYER_RECONCILED
360
8AA
  0
DICTIONARY
  5
8AB
330
868
100
AcDbDictionary
280
     1
281
     1
  3
ADSK_XREC_LAYER_RECONCILED
360
8AC
  0
DICTIONARY
  5
8AD
330
869
100
AcDbDictionary
280
     1
281
     1
  3
ADSK_XREC_LAYER_RECONCILED
360
8AE
  0
DICTIONARY
  5
8AF
330
86A
100
AcDbDictionary
280
     1
281
     1
  3
ADSK_XREC_LAYER_RECONCILED
360
8B0
  0
DICTIONARY
  5
8B1
330
86B
100
AcDbDictionary
280
     1
281
     1
  3
ADSK_XREC_LAYER_RECONCILED
360
8B2
  0
DICTIONARY
  5
8B3
330
86C
100
AcDbDictionary
280
     1
281
     1
  3
ADSK_XREC_LAYER_RECONCILED
360
8B4
  0
DICTIONARY
  5
8B5
330
86D
100
AcDbDictionary
280
     1
281
     1
  3
ADSK_XREC_LAYER_RECONCILED
360
8B6
  0
DICTIONARY
  5
8B7
330
86E
100
AcDbDictionary
280
     1
281
     1
  3
ADSK_XREC_LAYER_RECONCILED
360
8B8
  0
DICTIONARY
  5
8B9
330
86F
100
AcDbDictionary
280
     1
281
     1
  3
ADSK_XREC_LAYER_RECONCILED
360
8BA
  0
DICTIONARY
  5
8BB
330
870
100
AcDbDictionary
280
     1
281
     1
  3
ADSK_XREC_LAYER_RECONCILED
360
8BC
  0
DICTIONARY
  5
8BD
330
871
100
AcDbDictionary
280
     1
281
     1
  3
ADSK_XREC_LAYER_RECONCILED
360
8BE
  0
DICTIONARY
  5
8BF
330
872
100
AcDbDictionary
280
     1
281
     1
  3
ADSK_XREC_LAYER_RECONCILED
360
8C0
  0
DICTIONARY
  5
8C1
330
873
100
AcDbDictionary
280
     1
281
     1
  3
ADSK_XREC_LAYER_RECONCILED
360
8C2
  0
DICTIONARY
  5
8C3
330
874
100
AcDbDictionary
280
     1
281
     1
  3
ADSK_XREC_LAYER_RECONCILED
360
8C4
  0
DICTIONARY
  5
8C5
330
875
100
AcDbDictionary
280
     1
281
     1
  3
ADSK_XREC_LAYER_RECONCILED
360
8C6
  0
DICTIONARY
  5
8C7
330
876
100
AcDbDictionary
280
     1
281
     1
  3
ADSK_XREC_LAYER_RECONCILED
360
8C8
  0
DICTIONARY
  5
8C9
330
877
100
AcDbDictionary
280
     1
281
     1
  3
ADSK_XREC_LAYER_RECONCILED
360
8CA
  0
DICTIONARY
  5
8CB
330
878
100
AcDbDictionary
280
     1
281
     1
  3
ADSK_XREC_LAYER_RECONCILED
360
8CC
  0
DICTIONARY
  5
8CD
330
879
100
AcDbDictionary
280
     1
281
     1
  3
ADSK_XREC_LAYER_RECONCILED
360
8CE
  0
DICTIONARY
  5
8CF
330
87A
100
AcDbDictionary
280
     1
281
     1
  3
ADSK_XREC_LAYER_RECONCILED
360
8D0
  0
DICTIONARY
  5
8D1
330
87B
100
AcDbDictionary
280
     1
281
     1
  3
ADSK_XREC_LAYER_RECONCILED
360
8D2
  0
DICTIONARY
  5
8D3
330
87C
100
AcDbDictionary
280
     1
281
     1
  3
ADSK_XREC_LAYER_RECONCILED
360
8D4
  0
XRECORD
  5
886
102
{ACAD_REACTORS
330
7ED
102
}
330
7ED
100
AcDbXrecord
280
     1
300
AMECH_PP
300
2013
300
PDSU_F_S
  0
DICTIONARY
  5
843
102
{ACAD_REACTORS
330
7ED
102
}
330
7ED
100
AcDbDictionary
281
     1
  0
DICTIONARY
  5
84B
102
{ACAD_REACTORS
330
7ED
102
}
330
7ED
100
AcDbDictionary
281
     1
  3
Imperial24
350
84C
  0
DICTIONARY
  5
7EE
102
{ACAD_REACTORS
330
7ED
102
}
330
7ED
100
AcDbDictionary
281
     1
  0
DICTIONARY
  5
842
102
{ACAD_REACTORS
330
7ED
102
}
330
7ED
100
AcDbDictionary
281
     1
  3
Layout1
350
850
  3
Model
350
854
  0
DICTIONARY
  5
7F1
102
{ACAD_REACTORS
330
7ED
102
}
330
7ED
100
AcDbDictionary
281
     1
  3
ByBlock
350
7FA
  3
ByLayer
350
7F2
  3
Global
350
802
  0
DICTIONARY
  5
846
102
{ACAD_REACTORS
330
7ED
102
}
330
7ED
100
AcDbDictionary
281
     1
  3
Standard
350
847
  0
DICTIONARY
  5
83F
102
{ACAD_REACTORS
330
7ED
102
}
330
7ED
100
AcDbDictionary
281
     1
  3
Standard
350
840
  0
DICTIONARY
  5
841
102
{ACAD_REACTORS
330
7ED
102
}
330
7ED
100
AcDbDictionary
281
     1
  0
ACDBDICTIONARYWDFLT
  5
7EF
102
{ACAD_REACTORS
330
7ED
102
}
330
7ED
100
AcDbDictionary
281
     1
  3
Normal
350
7F0
100
AcDbDictionaryWithDefault
340
7F0
  0
DICTIONARY
  5
823
102
{ACAD_REACTORS
330
7ED
102
}
330
7ED
100
AcDbDictionary
281
     1
  3
A0
350
824
  3
A1
350
825
  3
A2
350
826
  3
A3
350
827
  3
A4
350
828
  3
A5
350
829
  3
A6
350
82A
  3
A7
350
82B
  3
A8
350
82C
  3
A9
350
82D
  3
B0
350
82E
  3
B1
350
82F
  3
B2
350
830
  3
B3
350
831
  3
B4
350
832
  3
B5
350
833
  3
B6
350
834
  0
DICTIONARY
  5
848
102
{ACAD_REACTORS
330
7ED
102
}
330
7ED
100
AcDbDictionary
281
     1
  3
Imperial24
350
84A
  0
DICTIONARY
  5
844
102
{ACAD_REACTORS
330
7ED
102
}
330
7ED
100
AcDbDictionary
281
     1
  3
Standard
350
845
  0
DICTIONARY
  5
80A
102
{ACAD_REACTORS
330
7ED
102
}
330
7ED
100
AcDbDictionary
281
     1
  3
2dWireframe
350
810
  3
Basic
350
80F
  3
Brighten
350
816
  3
ColorChange
350
81A
  3
Conceptual
350
813
  3
Dim
350
815
  3
EdgeColorOff
350
822
  3
Facepattern
350
819
  3
Flat
350
80B
  3
FlatWithEdges
350
80C
  3
Gouraud
350
80D
  3
GouraudWithEdges
350
80E
  3
Hidden
350
812
  3
JitterOff
350
820
  3
Linepattern
350
818
  3
OverhangOff
350
821
  3
Realistic
350
814
  3
Shaded
350
81F
  3
Shaded with edges
350
81E
  3
Shades of Gray
350
81B
  3
Sketchy
350
81C
  3
Thicken
350
817
  3
Wireframe
350
811
  3
X-Ray
350
81D
  0
XRECORD
  5
8E2
102
{ACAD_REACTORS
330
7ED
102
}
330
7ED
100
AcDbXrecord
280
     1
 90
        1
330
845
  0
DICTIONARY
  5
8D5
102
{ACAD_REACTORS
330
7ED
102
}
330
7ED
100
AcDbDictionary
281
     1
  3
CANNOSCALE
350
8DA
  3
CMLEADERSTYLE
350
8D7
  3
CTABLESTYLE
350
8D6
  3
CVIEWDETAILSTYLE
350
8D8
  3
CVIEWSECTIONSTYLE
350
8D9
  3
DIMASSOC
350
8DD
  3
INDEXCTL
350
8DC
  3
SORTENTS
350
8DB
  3
XCLIPFRAME
350
8DE
  0
XRECORD
  5
8E3
102
{ACAD_REACTORS
330
7ED
102
}
330
7ED
100
AcDbXrecord
280
     1
  1
DWGPROPS COOKIE
  2

  3

  4

  6

  7

  8
Micke
  9

300
=
301
=
302
=
303
=
304
=
305
=
306
=
307
=
308
=
309
=
 40
0.0000065393518519
 41
2456818.35668022
 42
2456818.356686574
  1

 90
        0
  0
XRECORD
  5
88A
102
{ACAD_REACTORS
330
889
102
}
330
889
100
AcDbXrecord
280
     1
290
     1
  0
XRECORD
  5
88C
102
{ACAD_REACTORS
330
88B
102
}
330
88B
100
AcDbXrecord
280
     1
290
     1
  0
XRECORD
  5
88E
102
{ACAD_REACTORS
330
88D
102
}
330
88D
100
AcDbXrecord
280
     1
290
     1
  0
XRECORD
  5
890
102
{ACAD_REACTORS
330
88F
102
}
330
88F
100
AcDbXrecord
280
     1
290
     1
  0
XRECORD
  5
892
102
{ACAD_REACTORS
330
891
102
}
330
891
100
AcDbXrecord
280
     1
290
     1
  0
XRECORD
  5
894
102
{ACAD_REACTORS
330
893
102
}
330
893
100
AcDbXrecord
280
     1
290
     1
  0
XRECORD
  5
896
102
{ACAD_REACTORS
330
895
102
}
330
895
100
AcDbXrecord
280
     1
290
     1
  0
XRECORD
  5
898
102
{ACAD_REACTORS
330
897
102
}
330
897
100
AcDbXrecord
280
     1
290
     1
  0
XRECORD
  5
89A
102
{ACAD_REACTORS
330
899
102
}
330
899
100
AcDbXrecord
280
     1
290
     1
  0
XRECORD
  5
89C
102
{ACAD_REACTORS
330
89B
102
}
330
89B
100
AcDbXrecord
280
     1
290
     1
  0
XRECORD
  5
89E
102
{ACAD_REACTORS
330
89D
102
}
330
89D
100
AcDbXrecord
280
     1
290
     1
  0
XRECORD
  5
8A0
102
{ACAD_REACTORS
330
89F
102
}
330
89F
100
AcDbXrecord
280
     1
290
     1
  0
XRECORD
  5
8A2
102
{ACAD_REACTORS
330
8A1
102
}
330
8A1
100
AcDbXrecord
280
     1
290
     1
  0
XRECORD
  5
8A4
102
{ACAD_REACTORS
330
8A3
102
}
330
8A3
100
AcDbXrecord
280
     1
290
     1
  0
XRECORD
  5
8A6
102
{ACAD_REACTORS
330
8A5
102
}
330
8A5
100
AcDbXrecord
280
     1
290
     1
  0
XRECORD
  5
8A8
102
{ACAD_REACTORS
330
8A7
102
}
330
8A7
100
AcDbXrecord
280
     1
290
     1
  0
XRECORD
  5
8AA
102
{ACAD_REACTORS
330
8A9
102
}
330
8A9
100
AcDbXrecord
280
     1
290
     1
  0
XRECORD
  5
8AC
102
{ACAD_REACTORS
330
8AB
102
}
330
8AB
100
AcDbXrecord
280
     1
290
     1
  0
XRECORD
  5
8AE
102
{ACAD_REACTORS
330
8AD
102
}
330
8AD
100
AcDbXrecord
280
     1
290
     1
  0
XRECORD
  5
8B0
102
{ACAD_REACTORS
330
8AF
102
}
330
8AF
100
AcDbXrecord
280
     1
290
     1
  0
XRECORD
  5
8B2
102
{ACAD_REACTORS
330
8B1
102
}
330
8B1
100
AcDbXrecord
280
     1
290
     1
  0
XRECORD
  5
8B4
102
{ACAD_REACTORS
330
8B3
102
}
330
8B3
100
AcDbXrecord
280
     1
290
     1
  0
XRECORD
  5
8B6
102
{ACAD_REACTORS
330
8B5
102
}
330
8B5
100
AcDbXrecord
280
     1
290
     1
  0
XRECORD
  5
8B8
102
{ACAD_REACTORS
330
8B7
102
}
330
8B7
100
AcDbXrecord
280
     1
290
     1
  0
XRECORD
  5
8BA
102
{ACAD_REACTORS
330
8B9
102
}
330
8B9
100
AcDbXrecord
280
     1
290
     1
  0
XRECORD
  5
8BC
102
{ACAD_REACTORS
330
8BB
102
}
330
8BB
100
AcDbXrecord
280
     1
290
     1
  0
XRECORD
  5
8BE
102
{ACAD_REACTORS
330
8BD
102
}
330
8BD
100
AcDbXrecord
280
     1
290
     1
  0
XRECORD
  5
8C0
102
{ACAD_REACTORS
330
8BF
102
}
330
8BF
100
AcDbXrecord
280
     1
290
     1
  0
XRECORD
  5
8C2
102
{ACAD_REACTORS
330
8C1
102
}
330
8C1
100
AcDbXrecord
280
     1
290
     1
  0
XRECORD
  5
8C4
102
{ACAD_REACTORS
330
8C3
102
}
330
8C3
100
AcDbXrecord
280
     1
290
     1
  0
XRECORD
  5
8C6
102
{ACAD_REACTORS
330
8C5
102
}
330
8C5
100
AcDbXrecord
280
     1
290
     1
  0
XRECORD
  5
8C8
102
{ACAD_REACTORS
330
8C7
102
}
330
8C7
100
AcDbXrecord
280
     1
290
     1
  0
XRECORD
  5
8CA
102
{ACAD_REACTORS
330
8C9
102
}
330
8C9
100
AcDbXrecord
280
     1
290
     1
  0
XRECORD
  5
8CC
102
{ACAD_REACTORS
330
8CB
102
}
330
8CB
100
AcDbXrecord
280
     1
290
     1
  0
XRECORD
  5
8CE
102
{ACAD_REACTORS
330
8CD
102
}
330
8CD
100
AcDbXrecord
280
     1
290
     1
  0
XRECORD
  5
8D0
102
{ACAD_REACTORS
330
8CF
102
}
330
8CF
100
AcDbXrecord
280
     1
290
     1
  0
XRECORD
  5
8D2
102
{ACAD_REACTORS
330
8D1
102
}
330
8D1
100
AcDbXrecord
280
     1
290
     1
  0
XRECORD
  5
8D4
102
{ACAD_REACTORS
330
8D3
102
}
330
8D3
100
AcDbXrecord
280
     1
290
     1
  0
ACDBDETAILVIEWSTYLE
  5
84C
102
{ACAD_REACTORS
330
84B
102
}
330
84B
100
AcDbModelDocViewStyle
 70
     0
  3
Imperial24
290
     0
100
AcDbDetailViewStyle
 70
     0
 71
     0
 90
        3
 71
     1
340
836
 40
0.24
340
0
 40
0.24
300

 40
0.36
280
     3
 71
     2
340
83D
 90
       25
 71
     3
340
836
 40
0.24
 90
        1
 40
0.75
 90
        1
300
%<\AcVar ViewType \f "%tc1">% %<\AcVar ViewDetailId>%\PSCALE %<\AcVar ViewScale \f "%sn">%
 71
     4
340
83D
 90
       25
340
83D
 90
       25
280
     0
  0
LAYOUT
  5
850
102
{ACAD_XDICTIONARY
360
919
102
}
102
{ACAD_REACTORS
330
842
102
}
330
842
100
AcDbPlotSettings
  1

  2
Brother DCP-9020CDW Printer
  4

  6

 40
0.0
 41
0.0
 42
0.0
 43
0.0
 44
0.0
 45
0.0
 46
0.0
 47
0.0
 48
0.0
 49
0.0
140
0.0
141
0.0
142
1.0
143
1.0
 70
   688
 72
     0
 73
     0
 74
     5
  7

 75
    16
147
1.0
148
0.0
149
0.0
100
AcDbLayout
  1
Layout1
 70
     1
 71
     1
 10
0.0
 20
0.0
 11
12.0
 21
9.0
 12
0.0
 22
0.0
 32
0.0
 14
1.000000000000000E+20
 24
1.000000000000000E+20
 34
1.000000000000000E+20
 15
-1.000000000000000E+20
 25
-1.000000000000000E+20
 35
-1.000000000000000E+20
146
0.0
 13
0.0
 23
0.0
 33
0.0
 16
1.0
 26
0.0
 36
0.0
 17
0.0
 27
1.0
 37
0.0
 76
     0
330
84D
  0
LAYOUT
  5
854
102
{ACAD_XDICTIONARY
360
91B
102
}
102
{ACAD_REACTORS
330
842
102
}
330
842
100
AcDbPlotSettings
  1

  2
Brother DCP-9020CDW Printer
  4

  6

 40
0.0
 41
0.0
 42
0.0
 43
0.0
 44
0.0
 45
0.0
 46
0.0
 47
0.0
 48
0.0
 49
0.0
140
0.0
141
0.0
142
1.0
143
1.0
 70
  1712
 72
     0
 73
     0
 74
     0
  7

 75
     0
147
1.0
148
0.0
149
0.0
100
AcDbLayout
  1
Model
 70
     1
 71
     0
 10
0.0
 20
0.0
 11
12.0
 21
9.0
 12
0.0
 22
0.0
 32
0.0
 14
0.0
 24
0.0
 34
0.0
 15
0.0
 25
0.0
 35
0.0
146
0.0
 13
0.0
 23
0.0
 33
0.0
 16
1.0
 26
0.0
 36
0.0
 17
0.0
 27
1.0
 37
0.0
 76
     0
330
851
331
880
  0
MATERIAL
  5
7FA
102
{ACAD_XDICTIONARY
360
7FB
102
}
102
{ACAD_REACTORS
330
7F1
102
}
330
7F1
100
AcDbMaterial
  1
ByBlock
 72
     0
 43
0.0208333333333333
 43
0.0
 43
0.0
 43
0.0
 43
0.0
 43
0.0208333333333333
 43
0.0
 43
0.0
 43
0.0
 43
0.0
 43
1.0
 43
0.0
 43
0.0
 43
0.0
 43
0.0
 43
1.0
 77
     0
 47
0.0208333333333333
 47
0.0
 47
0.0
 47
0.0
 47
0.0
 47
0.0208333333333333
 47
0.0
 47
0.0
 47
0.0
 47
0.0
 47
1.0
 47
0.0
 47
0.0
 47
0.0
 47
0.0
 47
1.0
171
     0
 49
0.0208333333333333
 49
0.0
 49
0.0
 49
0.0
 49
0.0
 49
0.0208333333333333
 49
0.0
 49
0.0
 49
0.0
 49
0.0
 49
1.0
 49
0.0
 49
0.0
 49
0.0
 49
0.0
 49
1.0
175
     0
142
0.0208333333333333
142
0.0
142
0.0
142
0.0
142
0.0
142
0.0208333333333333
142
0.0
142
0.0
142
0.0
142
0.0
142
1.0
142
0.0
142
0.0
142
0.0
142
0.0
142
1.0
179
     0
144
0.0208333333333333
144
0.0
144
0.0
144
0.0
144
0.0
144
0.0208333333333333
144
0.0
144
0.0
144
0.0
144
0.0
144
1.0
144
0.0
144
0.0
144
0.0
144
0.0
144
1.0
147
0.0208333333333333
147
0.0
147
0.0
147
0.0
147
0.0
147
0.0208333333333333
147
0.0
147
0.0
147
0.0
147
0.0
147
1.0
147
0.0
147
0.0
147
0.0
147
0.0
147
1.0
  0
MATERIAL
  5
7F2
102
{ACAD_XDICTIONARY
360
7F3
102
}
102
{ACAD_REACTORS
330
7F1
102
}
330
7F1
100
AcDbMaterial
  1
ByLayer
 72
     0
 43
0.0208333333333333
 43
0.0
 43
0.0
 43
0.0
 43
0.0
 43
0.0208333333333333
 43
0.0
 43
0.0
 43
0.0
 43
0.0
 43
1.0
 43
0.0
 43
0.0
 43
0.0
 43
0.0
 43
1.0
 77
     0
 47
0.0208333333333333
 47
0.0
 47
0.0
 47
0.0
 47
0.0
 47
0.0208333333333333
 47
0.0
 47
0.0
 47
0.0
 47
0.0
 47
1.0
 47
0.0
 47
0.0
 47
0.0
 47
0.0
 47
1.0
171
     0
 49
0.0208333333333333
 49
0.0
 49
0.0
 49
0.0
 49
0.0
 49
0.0208333333333333
 49
0.0
 49
0.0
 49
0.0
 49
0.0
 49
1.0
 49
0.0
 49
0.0
 49
0.0
 49
0.0
 49
1.0
175
     0
142
0.0208333333333333
142
0.0
142
0.0
142
0.0
142
0.0
142
0.0208333333333333
142
0.0
142
0.0
142
0.0
142
0.0
142
1.0
142
0.0
142
0.0
142
0.0
142
0.0
142
1.0
179
     0
144
0.0208333333333333
144
0.0
144
0.0
144
0.0
144
0.0
144
0.0208333333333333
144
0.0
144
0.0
144
0.0
144
0.0
144
1.0
144
0.0
144
0.0
144
0.0
144
0.0
144
1.0
147
0.0208333333333333
147
0.0
147
0.0
147
0.0
147
0.0
147
0.0208333333333333
147
0.0
147
0.0
147
0.0
147
0.0
147
1.0
147
0.0
147
0.0
147
0.0
147
0.0
147
1.0
  0
MATERIAL
  5
802
102
{ACAD_XDICTIONARY
360
803
102
}
102
{ACAD_REACTORS
330
7F1
102
}
330
7F1
100
AcDbMaterial
  1
Global
 72
     0
 43
0.0208333333333333
 43
0.0
 43
0.0
 43
0.0
 43
0.0
 43
0.0208333333333333
 43
0.0
 43
0.0
 43
0.0
 43
0.0
 43
1.0
 43
0.0
 43
0.0
 43
0.0
 43
0.0
 43
1.0
 77
     0
 47
0.0208333333333333
 47
0.0
 47
0.0
 47
0.0
 47
0.0
 47
0.0208333333333333
 47
0.0
 47
0.0
 47
0.0
 47
0.0
 47
1.0
 47
0.0
 47
0.0
 47
0.0
 47
0.0
 47
1.0
171
     0
 49
0.0208333333333333
 49
0.0
 49
0.0
 49
0.0
 49
0.0
 49
0.0208333333333333
 49
0.0
 49
0.0
 49
0.0
 49
0.0
 49
1.0
 49
0.0
 49
0.0
 49
0.0
 49
0.0
 49
1.0
175
     0
142
0.0208333333333333
142
0.0
142
0.0
142
0.0
142
0.0
142
0.0208333333333333
142
0.0
142
0.0
142
0.0
142
0.0
142
1.0
142
0.0
142
0.0
142
0.0
142
0.0
142
1.0
179
     0
144
0.0208333333333333
144
0.0
144
0.0
144
0.0
144
0.0
144
0.0208333333333333
144
0.0
144
0.0
144
0.0
144
0.0
144
1.0
144
0.0
144
0.0
144
0.0
144
0.0
144
1.0
147
0.0208333333333333
147
0.0
147
0.0
147
0.0
147
0.0
147
0.0208333333333333
147
0.0
147
0.0
147
0.0
147
0.0
147
1.0
147
0.0
147
0.0
147
0.0
147
0.0
147
1.0
  0
MLEADERSTYLE
  5
847
102
{ACAD_REACTORS
330
846
102
}
330
846
100
AcDbMLeaderStyle
170
     2
171
     1
172
     0
 90
        2
 40
0.0
 41
0.0
173
     1
 91
-1056964608
340
83B
 92
       -2
290
     1
 42
0.09
291
     1
 43
0.36
  3
Standard
 44
0.18
300

342
836
174
     1
178
     6
175
     1
176
     0
 93
-1056964608
 45
0.18
292
     0
297
     0
 46
0.18
 94
-1056964608
 47
1.0
 49
1.0
140
1.0
293
     1
141
0.0
294
     1
177
     0
142
1.0
295
     0
296
     0
143
0.125
1001
ACAD_MLEADERVER
1070
     2
  0
MLINESTYLE
  5
840
102
{ACAD_REACTORS
330
83F
102
}
330
83F
100
AcDbMlineStyle
  2
STANDARD
 70
     0
  3

 62
   256
 51
90.0
 52
90.0
 71
     2
 49
0.5
 62
   256
  6
BYLAYER
 49
-0.5
 62
   256
  6
BYLAYER
  0
ACDBPLACEHOLDER
  5
7F0
102
{ACAD_REACTORS
330
7EF
102
}
330
7EF
  0
SCALE
  5
824
102
{ACAD_REACTORS
330
823
102
}
330
823
100
AcDbScale
 70
     0
300
1:1
140
1.0
141
1.0
290
     1
  0
SCALE
  5
825
102
{ACAD_REACTORS
330
823
102
}
330
823
100
AcDbScale
 70
     0
300
1/128" = 1'-0"
140
0.0078125
141
12.0
290
     0
  0
SCALE
  5
826
102
{ACAD_REACTORS
330
823
102
}
330
823
100
AcDbScale
 70
     0
300
1/64" = 1'-0"
140
0.015625
141
12.0
290
     0
  0
SCALE
  5
827
102
{ACAD_REACTORS
330
823
102
}
330
823
100
AcDbScale
 70
     0
300
1/32" = 1'-0"
140
0.03125
141
12.0
290
     0
  0
SCALE
  5
828
102
{ACAD_REACTORS
330
823
102
}
330
823
100
AcDbScale
 70
     0
300
1/16" = 1'-0"
140
0.0625
141
12.0
290
     0
  0
SCALE
  5
829
102
{ACAD_REACTORS
330
823
102
}
330
823
100
AcDbScale
 70
     0
300
3/32" = 1'-0"
140
0.09375
141
12.0
290
     0
  0
SCALE
  5
82A
102
{ACAD_REACTORS
330
823
102
}
330
823
100
AcDbScale
 70
     0
300
1/8" = 1'-0"
140
0.125
141
12.0
290
     0
  0
SCALE
  5
82B
102
{ACAD_REACTORS
330
823
102
}
330
823
100
AcDbScale
 70
     0
300
3/16" = 1'-0"
140
0.1875
141
12.0
290
     0
  0
SCALE
  5
82C
102
{ACAD_REACTORS
330
823
102
}
330
823
100
AcDbScale
 70
     0
300
1/4" = 1'-0"
140
0.25
141
12.0
290
     0
  0
SCALE
  5
82D
102
{ACAD_REACTORS
330
823
102
}
330
823
100
AcDbScale
 70
     0
300
3/8" = 1'-0"
140
0.375
141
12.0
290
     0
  0
SCALE
  5
82E
102
{ACAD_REACTORS
330
823
102
}
330
823
100
AcDbScale
 70
     0
300
1/2" = 1'-0"
140
0.5
141
12.0
290
     0
  0
SCALE
  5
82F
102
{ACAD_REACTORS
330
823
102
}
330
823
100
AcDbScale
 70
     0
300
3/4" = 1'-0"
140
0.75
141
12.0
290
     0
  0
SCALE
  5
830
102
{ACAD_REACTORS
330
823
102
}
330
823
100
AcDbScale
 70
     0
300
1" = 1'-0"
140
1.0
141
12.0
290
     0
  0
SCALE
  5
831
102
{ACAD_REACTORS
330
823
102
}
330
823
100
AcDbScale
 70
     0
300
1-1/2" = 1'-0"
140
1.5
141
12.0
290
     0
  0
SCALE
  5
832
102
{ACAD_REACTORS
330
823
102
}
330
823
100
AcDbScale
 70
     0
300
3" = 1'-0"
140
3.0
141
12.0
290
     0
  0
SCALE
  5
833
102
{ACAD_REACTORS
330
823
102
}
330
823
100
AcDbScale
 70
     0
300
6" = 1'-0"
140
6.0
141
12.0
290
     0
  0
SCALE
  5
834
102
{ACAD_REACTORS
330
823
102
}
330
823
100
AcDbScale
 70
     0
300
1'-0" = 1'-0"
140
12.0
141
12.0
290
     0
  0
ACDBSECTIONVIEWSTYLE
  5
84A
102
{ACAD_REACTORS
330
848
102
}
330
848
100
AcDbModelDocViewStyle
 70
     0
  3
Imperial24
290
     0
100
AcDbSectionViewStyle
 70
     0
 71
     0
 90
       78
 71
     1
340
836
 40
0.24
340
0
340
0
 40
0.24
300
I, O, Q, S, X, Z
 40
0.48
 90
        3
 40
0.18
 90
        1
 71
     2
340
849
 90
       25
340
83D
 90
       50
 40
0.24
 40
0.0
 40
0.24
 71
     3
340
836
 40
0.24
 90
        1
 40
0.75
 90
        1
300
%<\AcVar ViewType \f "%tc1">% %<\AcVar ViewSectionStartId>%-%<\AcVar ViewSectionEndId>%\PSCALE %<\AcVar ViewScale \f "%sn">%
 71
     4
300
ANSI31
 40
1.0
 90
        0
290
     0
290
     0
 90
        6
 40
0.0
 40
1.570796326794896
 40
0.2617993877991494
 40
1.308996938995747
 40
-0.2617993877991494
 40
1.832595714594046
  0
TABLESTYLE
  5
845
102
{ACAD_XDICTIONARY
360
8E0
102
}
102
{ACAD_REACTORS
330
844
102
}
330
844
100
AcDbTableStyle
  3
Standard
 70
     0
 71
     0
 40
0.06
 41
0.06
280
     0
281
     0
  7
STANDARD
140
0.18
170
     2
 62
     0
 63
     7
283
     0
274
    -2
284
     1
 64
     0
275
    -2
285
     1
 65
     0
276
    -2
286
     1
 66
     0
277
    -2
287
     1
 67
     0
278
    -2
288
     1
 68
     0
279
    -2
289
     1
 69
     0
  7
STANDARD
140
0.25
170
     5
 62
     0
 63
     7
283
     0
274
    -2
284
     1
 64
     0
275
    -2
285
     1
 65
     0
276
    -2
286
     1
 66
     0
277
    -2
287
     1
 67
     0
278
    -2
288
     1
 68
     0
279
    -2
289
     1
 69
     0
  7
STANDARD
140
0.18
170
     5
 62
     0
 63
     7
283
     0
274
    -2
284
     1
 64
     0
275
    -2
285
     1
 65
     0
276
    -2
286
     1
 66
     0
277
    -2
287
     1
 67
     0
278
    -2
288
     1
 68
     0
279
    -2
289
     1
 69
     0
  0
VISUALSTYLE
  5
810
102
{ACAD_XDICTIONARY
360
8F1
102
}
102
{ACAD_REACTORS
330
80A
102
}
330
80A
100
AcDbVisualStyle
  2
2dWireframe
 70
     4
 71
     0
 72
     2
 73
     0
 90
        0
 40
-0.6
 41
-30.0
 62
     5
 63
     7
 74
     1
 91
        4
 64
     7
 65
   257
 75
     1
175
     1
 42
1.0
 92
        0
 66
   257
 43
1.0
 76
     1
 77
     6
 78
     2
 67
     7
 79
     5
170
     0
171
     0
290
     0
174
     0
 93
        1
 44
0.0
173
     0
291
     0
 45
0.0
1001
ACAD
1000
AcDbSavedByObjectVersion
1070
     0
  0
VISUALSTYLE
  5
80F
102
{ACAD_XDICTIONARY
360
8EF
102
}
102
{ACAD_REACTORS
330
80A
102
}
330
80A
100
AcDbVisualStyle
  2
Basic
 70
     7
 71
     1
 72
     0
 73
     1
 90
        0
 40
-0.6
 41
-30.0
 62
     5
 63
     7
 74
     0
 91
        4
 64
     7
 65
   257
 75
     1
175
     1
 42
1.0
 92
        8
 66
     7
 43
1.0
 76
     1
 77
     6
 78
     2
 67
     7
 79
     5
170
     0
171
     0
290
     0
174
     0
 93
        1
 44
0.0
173
     0
291
     1
 45
0.0
1001
ACAD
1000
AcDbSavedByObjectVersion
1070
     0
  0
VISUALSTYLE
  5
816
102
{ACAD_XDICTIONARY
360
8FD
102
}
102
{ACAD_REACTORS
330
80A
102
}
330
80A
100
AcDbVisualStyle
  2
Brighten
 70
    12
 71
     2
 72
     2
 73
     0
 90
        0
 40
-0.6
 41
-30.0
 62
     5
 63
     7
 74
     1
 91
        4
 64
     7
 65
   257
 75
     1
175
     1
 42
1.0
 92
        8
 66
     7
 43
1.0
 76
     1
 77
     6
 78
     2
 67
     7
 79
     5
170
     0
171
     0
290
     0
174
     0
 93
        1
 44
50.0
173
     0
291
     1
 45
0.0
1001
ACAD
1000
AcDbSavedByObjectVersion
1070
     0
  0
VISUALSTYLE
  5
81A
102
{ACAD_XDICTIONARY
360
905
102
}
102
{ACAD_REACTORS
330
80A
102
}
330
80A
100
AcDbVisualStyle
  2
ColorChange
 70
    16
 71
     2
 72
     2
 73
     3
 90
        0
 40
-0.6
 41
-30.0
 62
     5
 63
     8
 74
     1
 91
        4
 64
     7
 65
   257
 75
     1
175
     1
 42
1.0
 92
        8
 66
     8
 43
1.0
 76
     1
 77
     6
 78
     2
 67
     7
 79
     5
170
     0
171
     0
290
     0
174
     0
 93
        1
 44
0.0
173
     0
291
     1
 45
0.0
1001
ACAD
1000
AcDbSavedByObjectVersion
1070
     0
  0
VISUALSTYLE
  5
813
102
{ACAD_XDICTIONARY
360
8F7
102
}
102
{ACAD_REACTORS
330
80A
102
}
330
80A
100
AcDbVisualStyle
  2
Conceptual
 70
     9
 71
     3
 72
     2
 73
     0
 90
        0
 40
-0.6
 41
-30.0
 62
     5
 63
     7
 74
     2
 91
        2
 64
     7
 65
   257
 75
     1
175
     1
 42
179.0
 92
        8
 66
     7
 43
1.0
 76
     1
 77
     6
 78
     2
 67
     7
 79
     3
170
     0
171
     0
290
     0
174
     0
 93
        1
 44
0.0
173
     0
291
     0
 45
0.0
1001
ACAD
1000
AcDbSavedByObjectVersion
1070
     0
  0
VISUALSTYLE
  5
815
102
{ACAD_XDICTIONARY
360
8FB
102
}
102
{ACAD_REACTORS
330
80A
102
}
330
80A
100
AcDbVisualStyle
  2
Dim
 70
    11
 71
     2
 72
     2
 73
     0
 90
        0
 40
-0.6
 41
-30.0
 62
     5
 63
     7
 74
     1
 91
        4
 64
     7
 65
   257
 75
     1
175
     1
 42
1.0
 92
        8
 66
     7
 43
1.0
 76
     1
 77
     6
 78
     2
 67
     7
 79
     5
170
     0
171
     0
290
     0
174
     0
 93
        1
 44
-50.0
173
     0
291
     1
 45
0.0
1001
ACAD
1000
AcDbSavedByObjectVersion
1070
     0
  0
VISUALSTYLE
  5
822
102
{ACAD_XDICTIONARY
360
915
102
}
102
{ACAD_REACTORS
330
80A
102
}
330
80A
100
AcDbVisualStyle
  2
EdgeColorOff
 70
    22
 71
     2
 72
     2
 73
     0
 90
        0
 40
-0.6
 41
-30.0
 62
     5
 63
     7
 74
     1
 91
        4
 64
     7
 65
   257
 75
     1
175
     1
 42
1.0
 92
        8
 66
     7
 43
1.0
 76
     1
 77
     6
 78
     2
 67
     7
 79
     5
170
     0
171
     0
290
     0
174
     0
 93
        1
 44
0.0
173
     0
291
     1
 45
0.0
1001
ACAD
1000
AcDbSavedByObjectVersion
1070
     0
  0
VISUALSTYLE
  5
819
102
{ACAD_XDICTIONARY
360
903
102
}
102
{ACAD_REACTORS
330
80A
102
}
330
80A
100
AcDbVisualStyle
  2
Facepattern
 70
    15
 71
     2
 72
     2
 73
     0
 90
        0
 40
-0.6
 41
-30.0
 62
     5
 63
     7
 74
     1
 91
        4
 64
     7
 65
   257
 75
     1
175
     1
 42
1.0
 92
        8
 66
     7
 43
1.0
 76
     1
 77
     6
 78
     2
 67
     7
 79
     5
170
     0
171
     0
290
     0
174
     0
 93
        1
 44
0.0
173
     0
291
     1
 45
0.0
1001
ACAD
1000
AcDbSavedByObjectVersion
1070
     0
  0
VISUALSTYLE
  5
80B
102
{ACAD_XDICTIONARY
360
8E7
102
}
102
{ACAD_REACTORS
330
80A
102
}
330
80A
100
AcDbVisualStyle
  2
Flat
 70
     0
 71
     2
 72
     1
 73
     1
 90
        2
 40
-0.6
 41
30.0
 62
     5
 63
     7
 74
     0
 91
        0
 64
     7
 65
   257
 75
     1
175
     1
 42
1.0
 92
        8
 66
     7
 43
1.0
 76
     1
 77
     6
 78
     2
 67
     7
 79
     5
170
     0
171
     0
290
     0
174
     0
 93
       13
 44
0.0
173
     0
291
     1
 45
0.0
1001
ACAD
1000
AcDbSavedByObjectVersion
1070
     0
  0
VISUALSTYLE
  5
80C
102
{ACAD_XDICTIONARY
360
8E9
102
}
102
{ACAD_REACTORS
330
80A
102
}
330
80A
100
AcDbVisualStyle
  2
FlatWithEdges
 70
     1
 71
     2
 72
     1
 73
     1
 90
        2
 40
-0.6
 41
30.0
 62
     5
 63
     7
 74
     1
 91
        0
 64
     7
 65
   257
 75
     1
175
     1
 42
1.0
 92
        0
 66
   257
 43
1.0
 76
     1
 77
     6
 78
     2
 67
     7
 79
     5
170
     0
171
     0
290
     0
174
     0
 93
       13
 44
0.0
173
     0
291
     1
 45
0.0
1001
ACAD
1000
AcDbSavedByObjectVersion
1070
     0
  0
VISUALSTYLE
  5
80D
102
{ACAD_XDICTIONARY
360
8EB
102
}
102
{ACAD_REACTORS
330
80A
102
}
330
80A
100
AcDbVisualStyle
  2
Gouraud
 70
     2
 71
     2
 72
     2
 73
     1
 90
        2
 40
-0.6
 41
30.0
 62
     5
 63
     7
 74
     0
 91
        0
 64
     7
 65
   257
 75
     1
175
     1
 42
1.0
 92
        0
 66
     7
 43
1.0
 76
     1
 77
     6
 78
     2
 67
     7
 79
     5
170
     0
171
     0
290
     0
174
     0
 93
       13
 44
0.0
173
     0
291
     1
 45
0.0
1001
ACAD
1000
AcDbSavedByObjectVersion
1070
     0
  0
VISUALSTYLE
  5
80E
102
{ACAD_XDICTIONARY
360
8ED
102
}
102
{ACAD_REACTORS
330
80A
102
}
330
80A
100
AcDbVisualStyle
  2
GouraudWithEdges
 70
     3
 71
     2
 72
     2
 73
     1
 90
        2
 40
-0.6
 41
30.0
 62
     5
 63
     7
 74
     1
 91
        0
 64
     7
 65
   257
 75
     1
175
     1
 42
1.0
 92
        0
 66
   257
 43
1.0
 76
     1
 77
     6
 78
     2
 67
     7
 79
     5
170
     0
171
     0
290
     0
174
     0
 93
       13
 44
0.0
173
     0
291
     1
 45
0.0
1001
ACAD
1000
AcDbSavedByObjectVersion
1070
     0
  0
VISUALSTYLE
  5
812
102
{ACAD_XDICTIONARY
360
8F5
102
}
102
{ACAD_REACTORS
330
80A
102
}
330
80A
100
AcDbVisualStyle
  2
Hidden
 70
     6
 71
     1
 72
     2
 73
     2
 90
        0
 40
-0.6
 41
-30.0
 62
     5
 63
     7
 74
     2
 91
        2
 64
     7
 65
   257
 75
     2
175
     1
 42
40.0
 92
        0
 66
   257
 43
1.0
 76
     1
 77
     6
 78
     2
 67
     7
 79
     3
170
     0
171
     0
290
     0
174
     0
 93
        1
 44
0.0
173
     0
291
     0
 45
0.0
1001
ACAD
1000
AcDbSavedByObjectVersion
1070
     0
  0
VISUALSTYLE
  5
820
102
{ACAD_XDICTIONARY
360
911
102
}
102
{ACAD_REACTORS
330
80A
102
}
330
80A
100
AcDbVisualStyle
  2
JitterOff
 70
    20
 71
     2
 72
     2
 73
     0
 90
        0
 40
-0.6
 41
-30.0
 62
     5
 63
     7
 74
     1
 91
        4
 64
     7
 65
   257
 75
     1
175
     1
 42
1.0
 92
       10
 66
     7
 43
1.0
 76
     1
 77
     6
 78
     2
 67
     7
 79
     5
170
     0
171
     0
290
     0
174
     0
 93
        1
 44
0.0
173
     0
291
     1
 45
0.0
1001
ACAD
1000
AcDbSavedByObjectVersion
1070
     0
  0
VISUALSTYLE
  5
818
102
{ACAD_XDICTIONARY
360
901
102
}
102
{ACAD_REACTORS
330
80A
102
}
330
80A
100
AcDbVisualStyle
  2
Linepattern
 70
    14
 71
     2
 72
     2
 73
     0
 90
        0
 40
-0.6
 41
-30.0
 62
     5
 63
     7
 74
     1
 91
        4
 64
     7
 65
   257
 75
     7
175
     7
 42
1.0
 92
        8
 66
     7
 43
1.0
 76
     1
 77
     6
 78
     2
 67
     7
 79
     5
170
     0
171
     0
290
     0
174
     0
 93
        1
 44
0.0
173
     0
291
     1
 45
0.0
1001
ACAD
1000
AcDbSavedByObjectVersion
1070
     0
  0
VISUALSTYLE
  5
821
102
{ACAD_XDICTIONARY
360
913
102
}
102
{ACAD_REACTORS
330
80A
102
}
330
80A
100
AcDbVisualStyle
  2
OverhangOff
 70
    21
 71
     2
 72
     2
 73
     0
 90
        0
 40
-0.6
 41
-30.0
 62
     5
 63
     7
 74
     1
 91
        4
 64
     7
 65
   257
 75
     1
175
     1
 42
1.0
 92
        9
 66
     7
 43
1.0
 76
     1
 77
     6
 78
     2
 67
     7
 79
     5
170
     0
171
     0
290
     0
174
     0
 93
        1
 44
0.0
173
     0
291
     1
 45
0.0
1001
ACAD
1000
AcDbSavedByObjectVersion
1070
     0
  0
VISUALSTYLE
  5
814
102
{ACAD_XDICTIONARY
360
8F9
102
}
102
{ACAD_REACTORS
330
80A
102
}
330
80A
100
AcDbVisualStyle
  2
Realistic
 70
     8
 71
     2
 72
     3
 73
     0
 90
        2
 40
-0.6
 41
30.0
 62
     5
 63
     7
 74
     0
 91
        0
 64
     7
 65
   257
 75
     1
175
     1
 42
1.0
 92
        8
 66
   257
 43
1.0
 76
     1
 77
     6
 78
     2
 67
     7
 79
     3
170
     0
171
     0
290
     0
174
     0
 93
       13
 44
0.0
173
     0
291
     0
 45
0.0
1001
ACAD
1000
AcDbSavedByObjectVersion
1070
     0
  0
VISUALSTYLE
  5
81F
102
{ACAD_XDICTIONARY
360
90F
102
}
102
{ACAD_REACTORS
330
80A
102
}
330
80A
100
AcDbVisualStyle
  2
Shaded
 70
    27
 71
     2
 72
     2
 73
     1
 90
        2
 40
-0.6
 41
30.0
 62
     5
 63
     7
 74
     0
 91
        4
 64
     7
 65
   257
 75
     1
175
     1
 42
1.0
 92
        8
 66
   257
 43
1.0
 76
     1
 77
     6
 78
     2
 67
     8
 79
     3
170
     0
171
     0
290
     0
174
     0
 93
        5
 44
0.0
173
     0
291
     0
 45
0.0
1001
ACAD
1000
AcDbSavedByObjectVersion
1070
     0
  0
VISUALSTYLE
  5
81E
102
{ACAD_XDICTIONARY
360
90D
102
}
102
{ACAD_REACTORS
330
80A
102
}
330
80A
100
AcDbVisualStyle
  2
Shaded with edges
 70
    26
 71
     2
 72
     2
 73
     1
 90
        2
 40
-0.6
 41
30.0
 62
     5
 63
     7
 74
     1
 91
       10
 64
     7
 65
   257
 75
     2
175
     1
 42
1.0
 92
        8
 66
   257
 43
1.0
 76
     1
 77
     6
 78
     2
 67
     7
 79
     3
170
     0
171
     0
290
     0
174
     0
 93
        5
 44
0.0
173
     0
291
     0
 45
0.0
1001
ACAD
1000
AcDbSavedByObjectVersion
1070
     0
  0
VISUALSTYLE
  5
81B
102
{ACAD_XDICTIONARY
360
907
102
}
102
{ACAD_REACTORS
330
80A
102
}
330
80A
100
AcDbVisualStyle
  2
Shades of Gray
 70
    23
 71
     2
 72
     2
 73
     3
 90
        0
 40
-0.6
 41
-30.0
 62
     5
 63
     7
 74
     2
 91
        2
 64
     7
 65
     7
 75
     1
175
     1
 42
40.0
 92
        8
 66
     7
 43
1.0
 76
     1
 77
     6
 78
     2
 67
     7
 79
     3
170
     0
171
     0
290
     0
174
     0
 93
        1
 44
0.0
173
     0
291
     0
 45
0.0
1001
ACAD
1000
AcDbSavedByObjectVersion
1070
     0
  0
VISUALSTYLE
  5
81C
102
{ACAD_XDICTIONARY
360
909
102
}
102
{ACAD_REACTORS
330
80A
102
}
330
80A
100
AcDbVisualStyle
  2
Sketchy
 70
    24
 71
     1
 72
     2
 73
     2
 90
        0
 40
-0.6
 41
-30.0
 62
     5
 63
     7
 74
     2
 91
        2
 64
     7
 65
     7
 75
     1
175
     1
 42
40.0
 92
       11
 66
     7
 43
1.0
 76
     1
 77
     6
 78
     2
 67
     7
 79
     6
170
     0
171
     0
290
     0
174
     0
 93
        1
 44
0.0
173
     0
291
     0
 45
0.0
1001
ACAD
1000
AcDbSavedByObjectVersion
1070
     0
  0
VISUALSTYLE
  5
817
102
{ACAD_XDICTIONARY
360
8FF
102
}
102
{ACAD_REACTORS
330
80A
102
}
330
80A
100
AcDbVisualStyle
  2
Thicken
 70
    13
 71
     2
 72
     2
 73
     0
 90
        0
 40
-0.6
 41
-30.0
 62
     5
 63
     7
 74
     1
 91
        4
 64
     7
 65
   257
 75
     1
175
     1
 42
1.0
 92
       12
 66
     7
 43
1.0
 76
     1
 77
     6
 78
     2
 67
     7
 79
     5
170
     0
171
     0
290
     0
174
     0
 93
        1
 44
0.0
173
     0
291
     1
 45
0.0
1001
ACAD
1000
AcDbSavedByObjectVersion
1070
     0
  0
VISUALSTYLE
  5
811
102
{ACAD_XDICTIONARY
360
8F3
102
}
102
{ACAD_REACTORS
330
80A
102
}
330
80A
100
AcDbVisualStyle
  2
Wireframe
 70
     5
 71
     0
 72
     2
 73
     0
 90
        0
 40
-0.6
 41
-30.0
 62
     5
 63
     7
 74
     1
 91
        4
 64
     7
 65
   257
 75
     1
175
     1
 42
1.0
 92
        0
 66
   257
 43
1.0
 76
     1
 77
     6
 78
     2
 67
     7
 79
     3
170
     0
171
     0
290
     0
174
     0
 93
        1
 44
0.0
173
     0
291
     0
 45
0.0
1001
ACAD
1000
AcDbSavedByObjectVersion
1070
     0
  0
VISUALSTYLE
  5
81D
102
{ACAD_XDICTIONARY
360
90B
102
}
102
{ACAD_REACTORS
330
80A
102
}
330
80A
100
AcDbVisualStyle
  2
X-Ray
 70
    25
 71
     2
 72
     2
 73
     1
 90
        1
 40
0.5
 41
-30.0
 62
     5
 63
     7
 74
     1
 91
        0
 64
     7
 65
   257
 75
     1
175
     1
 42
1.0
 92
        8
 66
     7
 43
1.0
 76
     1
 77
     6
 78
     2
 67
     7
 79
     3
170
     0
171
     0
290
     0
174
     0
 93
       13
 44
0.0
173
     0
291
     0
 45
0.0
1001
ACAD
1000
AcDbSavedByObjectVersion
1070
     0
  0
DICTIONARYVAR
  5
8DA
102
{ACAD_REACTORS
330
8D5
102
}
330
8D5
100
DictionaryVariables
280
     0
  1
1:1
  0
DICTIONARYVAR
  5
8D7
102
{ACAD_REACTORS
330
8D5
102
}
330
8D5
100
DictionaryVariables
280
     0
  1
STANDARD
  0
DICTIONARYVAR
  5
8D6
102
{ACAD_REACTORS
330
8D5
102
}
330
8D5
100
DictionaryVariables
280
     0
  1
STANDARD
  0
DICTIONARYVAR
  5
8D8
102
{ACAD_REACTORS
330
8D5
102
}
330
8D5
100
DictionaryVariables
280
     0
  1
Imperial24
  0
DICTIONARYVAR
  5
8D9
102
{ACAD_REACTORS
330
8D5
102
}
330
8D5
100
DictionaryVariables
280
     0
  1
Imperial24
  0
DICTIONARYVAR
  5
8DD
102
{ACAD_REACTORS
330
8D5
102
}
330
8D5
100
DictionaryVariables
280
     0
  1
1
  0
DICTIONARYVAR
  5
8DC
102
{ACAD_REACTORS
330
8D5
102
}
330
8D5
100
DictionaryVariables
280
     0
  1
0
  0
DICTIONARYVAR
  5
8DB
102
{ACAD_REACTORS
330
8D5
102
}
330
8D5
100
DictionaryVariables
280
     0
  1
127
  0
DICTIONARYVAR
  5
8DE
102
{ACAD_REACTORS
330
8D5
102
}
330
8D5
100
DictionaryVariables
280
     0
  1
2
  0
DICTIONARY
  5
919
330
850
100
AcDbDictionary
280
     1
281
     1
  3
ACAD_XREC_ROUNDTRIP
360
91A
  0
DICTIONARY
  5
91B
330
854
100
AcDbDictionary
280
     1
281
     1
  3
ACAD_XREC_ROUNDTRIP
360
91C
  0
DICTIONARY
  5
7FB
330
7FA
100
AcDbDictionary
280
     1
281
     1
  3
ACAD_XREC_ROUNDTRIP
360
8E5
  3
BUMPTILE
360
7FD
  3
DIFFUSETILE
360
7FC
  3
OPACITYTILE
360
800
  3
REFLECTIONTILE
360
7FF
  3
REFRACTIONTILE
360
801
  3
SPECULARTILE
360
7FE
  0
DICTIONARY
  5
7F3
330
7F2
100
AcDbDictionary
280
     1
281
     1
  3
ACAD_XREC_ROUNDTRIP
360
8E4
  3
BUMPTILE
360
7F5
  3
DIFFUSETILE
360
7F4
  3
OPACITYTILE
360
7F8
  3
REFLECTIONTILE
360
7F7
  3
REFRACTIONTILE
360
7F9
  3
SPECULARTILE
360
7F6
  0
DICTIONARY
  5
803
330
802
100
AcDbDictionary
280
     1
281
     1
  3
ACAD_XREC_ROUNDTRIP
360
8E6
  3
BUMPTILE
360
805
  3
DIFFUSETILE
360
804
  3
OPACITYTILE
360
808
  3
REFLECTIONTILE
360
807
  3
REFRACTIONTILE
360
809
  3
SPECULARTILE
360
806
  0
DICTIONARY
  5
8E0
330
845
100
AcDbDictionary
280
     1
281
     1
  3
ACAD_ROUNDTRIP_2008_TABLESTYLE_CELLSTYLEMAP
360
8E1
  3
ACAD_XREC_ROUNDTRIP
360
917
  0
DICTIONARY
  5
8F1
330
810
100
AcDbDictionary
280
     1
281
     1
  3
ACAD_XREC_ROUNDTRIP
360
8F2
  0
DICTIONARY
  5
8EF
330
80F
100
AcDbDictionary
280
     1
281
     1
  3
ACAD_XREC_ROUNDTRIP
360
8F0
  0
DICTIONARY
  5
8FD
330
816
100
AcDbDictionary
280
     1
281
     1
  3
ACAD_XREC_ROUNDTRIP
360
8FE
  0
DICTIONARY
  5
905
330
81A
100
AcDbDictionary
280
     1
281
     1
  3
ACAD_XREC_ROUNDTRIP
360
906
  0
DICTIONARY
  5
8F7
330
813
100
AcDbDictionary
280
     1
281
     1
  3
ACAD_XREC_ROUNDTRIP
360
8F8
  0
DICTIONARY
  5
8FB
330
815
100
AcDbDictionary
280
     1
281
     1
  3
ACAD_XREC_ROUNDTRIP
360
8FC
  0
DICTIONARY
  5
915
330
822
100
AcDbDictionary
280
     1
281
     1
  3
ACAD_XREC_ROUNDTRIP
360
916
  0
DICTIONARY
  5
903
330
819
100
AcDbDictionary
280
     1
281
     1
  3
ACAD_XREC_ROUNDTRIP
360
904
  0
DICTIONARY
  5
8E7
330
80B
100
AcDbDictionary
280
     1
281
     1
  3
ACAD_XREC_ROUNDTRIP
360
8E8
  0
DICTIONARY
  5
8E9
330
80C
100
AcDbDictionary
280
     1
281
     1
  3
ACAD_XREC_ROUNDTRIP
360
8EA
  0
DICTIONARY
  5
8EB
330
80D
100
AcDbDictionary
280
     1
281
     1
  3
ACAD_XREC_ROUNDTRIP
360
8EC
  0
DICTIONARY
  5
8ED
330
80E
100
AcDbDictionary
280
     1
281
     1
  3
ACAD_XREC_ROUNDTRIP
360
8EE
  0
DICTIONARY
  5
8F5
330
812
100
AcDbDictionary
280
     1
281
     1
  3
ACAD_XREC_ROUNDTRIP
360
8F6
  0
DICTIONARY
  5
911
330
820
100
AcDbDictionary
280
     1
281
     1
  3
ACAD_XREC_ROUNDTRIP
360
912
  0
DICTIONARY
  5
901
330
818
100
AcDbDictionary
280
     1
281
     1
  3
ACAD_XREC_ROUNDTRIP
360
902
  0
DICTIONARY
  5
913
330
821
100
AcDbDictionary
280
     1
281
     1
  3
ACAD_XREC_ROUNDTRIP
360
914
  0
DICTIONARY
  5
8F9
330
814
100
AcDbDictionary
280
     1
281
     1
  3
ACAD_XREC_ROUNDTRIP
360
8FA
  0
DICTIONARY
  5
90F
330
81F
100
AcDbDictionary
280
     1
281
     1
  3
ACAD_XREC_ROUNDTRIP
360
910
  0
DICTIONARY
  5
90D
330
81E
100
AcDbDictionary
280
     1
281
     1
  3
ACAD_XREC_ROUNDTRIP
360
90E
  0
DICTIONARY
  5
907
330
81B
100
AcDbDictionary
280
     1
281
     1
  3
ACAD_XREC_ROUNDTRIP
360
908
  0
DICTIONARY
  5
909
330
81C
100
AcDbDictionary
280
     1
281
     1
  3
ACAD_XREC_ROUNDTRIP
360
90A
  0
DICTIONARY
  5
8FF
330
817
100
AcDbDictionary
280
     1
281
     1
  3
ACAD_XREC_ROUNDTRIP
360
900
  0
DICTIONARY
  5
8F3
330
811
100
AcDbDictionary
280
     1
281
     1
  3
ACAD_XREC_ROUNDTRIP
360
8F4
  0
DICTIONARY
  5
90B
330
81D
100
AcDbDictionary
280
     1
281
     1
  3
ACAD_XREC_ROUNDTRIP
360
90C
  0
XRECORD
  5
91A
102
{ACAD_REACTORS
330
919
102
}
330
919
100
AcDbXrecord
280
     1
102
SHADEPLOT
 70
     0
102
SHADEPLOTRESLEVEL
 70
     2
102
SHADEPLOTCUSTOMDPI
 70
   300
  0
XRECORD
  5
91C
102
{ACAD_REACTORS
330
91B
102
}
330
91B
100
AcDbXrecord
280
     1
102
SHADEPLOT
 70
     0
102
SHADEPLOTRESLEVEL
 70
     2
102
SHADEPLOTCUSTOMDPI
 70
   300
  0
XRECORD
  5
8E5
102
{ACAD_REACTORS
330
7FB
102
}
330
7FB
100
AcDbXrecord
280
     1
102
MATERIAL
148
0.0
149
0.0
149
0.0
 93
        0
 94
      127
282
     0
 72
     0
 77
     0
171
     0
175
     0
179
     0
273
     0
  0
XRECORD
  5
7FD
102
{ACAD_REACTORS
330
7FB
102
}
330
7FB
100
AcDbXrecord
280
     1
270
     1
271
     1
  0
XRECORD
  5
7FC
102
{ACAD_REACTORS
330
7FB
102
}
330
7FB
100
AcDbXrecord
280
     1
270
     1
271
     1
  0
XRECORD
  5
800
102
{ACAD_REACTORS
330
7FB
102
}
330
7FB
100
AcDbXrecord
280
     1
270
     1
271
     1
  0
XRECORD
  5
7FF
102
{ACAD_REACTORS
330
7FB
102
}
330
7FB
100
AcDbXrecord
280
     1
270
     1
271
     1
  0
XRECORD
  5
801
102
{ACAD_REACTORS
330
7FB
102
}
330
7FB
100
AcDbXrecord
280
     1
270
     1
271
     1
  0
XRECORD
  5
7FE
102
{ACAD_REACTORS
330
7FB
102
}
330
7FB
100
AcDbXrecord
280
     1
270
     1
271
     1
  0
XRECORD
  5
8E4
102
{ACAD_REACTORS
330
7F3
102
}
330
7F3
100
AcDbXrecord
280
     1
102
MATERIAL
148
0.0
149
0.0
149
0.0
 93
        0
 94
      127
282
     0
 72
     0
 77
     0
171
     0
175
     0
179
     0
273
     0
  0
XRECORD
  5
7F5
102
{ACAD_REACTORS
330
7F3
102
}
330
7F3
100
AcDbXrecord
280
     1
270
     1
271
     1
  0
XRECORD
  5
7F4
102
{ACAD_REACTORS
330
7F3
102
}
330
7F3
100
AcDbXrecord
280
     1
270
     1
271
     1
  0
XRECORD
  5
7F8
102
{ACAD_REACTORS
330
7F3
102
}
330
7F3
100
AcDbXrecord
280
     1
270
     1
271
     1
  0
XRECORD
  5
7F7
102
{ACAD_REACTORS
330
7F3
102
}
330
7F3
100
AcDbXrecord
280
     1
270
     1
271
     1
  0
XRECORD
  5
7F9
102
{ACAD_REACTORS
330
7F3
102
}
330
7F3
100
AcDbXrecord
280
     1
270
     1
271
     1
  0
XRECORD
  5
7F6
102
{ACAD_REACTORS
330
7F3
102
}
330
7F3
100
AcDbXrecord
280
     1
270
     1
271
     1
  0
XRECORD
  5
8E6
102
{ACAD_REACTORS
330
803
102
}
330
803
100
AcDbXrecord
280
     1
102
MATERIAL
148
0.0
149
0.0
149
0.0
 93
        0
 94
      127
282
     0
 72
     0
 77
     0
171
     0
175
     0
179
     0
273
     0
  0
XRECORD
  5
805
102
{ACAD_REACTORS
330
803
102
}
330
803
100
AcDbXrecord
280
     1
270
     1
271
     1
  0
XRECORD
  5
804
102
{ACAD_REACTORS
330
803
102
}
330
803
100
AcDbXrecord
280
     1
270
     1
271
     1
  0
XRECORD
  5
808
102
{ACAD_REACTORS
330
803
102
}
330
803
100
AcDbXrecord
280
     1
270
     1
271
     1
  0
XRECORD
  5
807
102
{ACAD_REACTORS
330
803
102
}
330
803
100
AcDbXrecord
280
     1
270
     1
271
     1
  0
XRECORD
  5
809
102
{ACAD_REACTORS
330
803
102
}
330
803
100
AcDbXrecord
280
     1
270
     1
271
     1
  0
XRECORD
  5
806
102
{ACAD_REACTORS
330
803
102
}
330
803
100
AcDbXrecord
280
     1
270
     1
271
     1
  0
CELLSTYLEMAP
  5
8E1
102
{ACAD_REACTORS
330
8E0
102
}
330
8E0
100
AcDbCellStyleMap
 90
        3
300
CELLSTYLE
  1
TABLEFORMAT_BEGIN
 90
        5
170
     1
 91
        0
 92
    32768
 62
   257
 93
        1
300
CONTENTFORMAT
  1
CONTENTFORMAT_BEGIN
 90
        0
 91
        0
 92
      512
 93
        0
300

 40
0.0
140
1.0
 94
        5
 62
     0
340
836
144
0.25
309
CONTENTFORMAT_END
171
     0
 94
        0
309
TABLEFORMAT_END
  1
CELLSTYLE_BEGIN
 90
        1
 91
        1
300
_TITLE
309
CELLSTYLE_END
300
CELLSTYLE
  1
TABLEFORMAT_BEGIN
 90
        5
170
     1
 91
        0
 92
        0
 62
   257
 93
        1
300
CONTENTFORMAT
  1
CONTENTFORMAT_BEGIN
 90
        0
 91
        0
 92
      512
 93
        0
300

 40
0.0
140
1.0
 94
        5
 62
     0
340
836
144
0.18
309
CONTENTFORMAT_END
171
     0
 94
        0
309
TABLEFORMAT_END
  1
CELLSTYLE_BEGIN
 90
        2
 91
        1
300
_HEADER
309
CELLSTYLE_END
300
CELLSTYLE
  1
TABLEFORMAT_BEGIN
 90
        5
170
     1
 91
        0
 92
        0
 62
   257
 93
        1
300
CONTENTFORMAT
  1
CONTENTFORMAT_BEGIN
 90
        0
 91
        0
 92
      512
 93
        0
300

 40
0.0
140
1.0
 94
        2
 62
     0
340
836
144
0.18
309
CONTENTFORMAT_END
171
     0
 94
        0
309
TABLEFORMAT_END
  1
CELLSTYLE_BEGIN
 90
        3
 91
        2
300
_DATA
309
CELLSTYLE_END
  0
XRECORD
  5
917
102
{ACAD_REACTORS
330
8E0
102
}
330
8E0
100
AcDbXrecord
280
     1
102
ACAD_ROUNDTRIP_PRE2007_TABLESTYLE
 90
      512
 91
        0
  1

 92
      512
 93
        0
  2

 94
      512
 95
        0
  3

  0
XRECORD
  5
8F2
102
{ACAD_REACTORS
330
8F1
102
}
330
8F1
100
AcDbXrecord
280
     1
102
RTVSPost2010Prop28
280
     1
102
RTVSPost2010PropOp28
 70
     1
102
RTVSPost2010Prop29
280
     1
102
RTVSPost2010PropOp29
 70
     1
102
RTVSPost2010Prop30
280
     0
102
RTVSPost2010PropOp30
 70
     1
102
RTVSPost2010Prop31
280
     0
102
RTVSPost2010PropOp31
 70
     1
102
RTVSPost2010Prop32
280
     0
102
RTVSPost2010PropOp32
 70
     1
102
RTVSPost2010Prop33
280
     0
102
RTVSPost2010PropOp33
 70
     1
102
RTVSPost2010Prop34
280
     0
102
RTVSPost2010PropOp34
 70
     1
102
RTVSPost2010Prop35
280
     0
102
RTVSPost2010PropOp35
 70
     1
102
RTVSPost2010Prop36
280
     0
102
RTVSPost2010PropOp36
 70
     1
102
RTVSPost2010Prop37
 90
       50
102
RTVSPost2010PropOp37
 70
     1
102
RTVSPost2010Prop38
140
0.0
102
RTVSPost2010PropOp38
 70
     1
102
RTVSPost2010Prop39
140
1.0
102
RTVSPost2010PropOp39
 70
     1
102
RTVSPost2010Prop40
 90
        0
102
RTVSPost2010PropOp40
 70
     1
102
RTVSPost2010Prop41ColorIndex
 90
       18
102
RTVSPost2010Prop41ColorRGB
 90
        0
102
RTVSPost2010PropOp41
 70
     1
102
RTVSPost2010Prop42
 90
       50
102
RTVSPost2010PropOp42
 70
     1
102
RTVSPost2010Prop43
 90
        3
102
RTVSPost2010PropOp43
 70
     1
102
RTVSPost2010Prop44ColorIndex
 90
        5
102
RTVSPost2010Prop44ColorRGB
 90
      255
102
RTVSPost2010PropOp44
 70
     1
102
RTVSPost2010Prop45
280
     0
102
RTVSPost2010PropOp45
 70
     1
102
RTVSPost2010Prop46
 90
       50
102
RTVSPost2010PropOp46
 70
     1
102
RTVSPost2010Prop47
 90
       50
102
RTVSPost2010PropOp47
 70
     1
102
RTVSPost2010Prop48
 90
       50
102
RTVSPost2010PropOp48
 70
     1
102
RTVSPost2010Prop49
280
     0
102
RTVSPost2010PropOp49
 70
     1
102
RTVSPost2010Prop50
 90
       50
102
RTVSPost2010PropOp50
 70
     1
102
RTVSPost2010Prop51ColorIndex
 90
      256
102
RTVSPost2010Prop51ColorRGB
 90
-16777216
102
RTVSPost2010PropOp51
 70
     0
102
RTVSPost2010Prop52
140
1.0
102
RTVSPost2010PropOp52
 70
     0
102
RTVSPost2010Prop53
 90
        2
102
RTVSPost2010PropOp53
 70
     1
102
RTVSPost2010Prop54
  1
strokes_ogs.tif
102
RTVSPost2010PropOp54
 70
     1
102
RTVSPost2010Prop55
280
     0
102
RTVSPost2010PropOp55
 70
     1
102
RTVSPost2010Prop56
140
1.0
102
RTVSPost2010PropOp56
 70
     1
102
RTVSPost2010Prop57
140
1.0
102
RTVSPost2010PropOp57
 70
     1
102
RTVSPropertyOp0
 70
     1
102
RTVSPropertyOp1
 70
     1
102
RTVSPropertyOp2
 70
     1
102
RTVSPropertyOp3
 70
     1
102
RTVSPropertyOp4
 70
     1
102
RTVSPropertyOp5
 70
     1
102
RTVSPropertyOp6
 70
     1
102
RTVSPropertyOp7
 70
     1
102
RTVSPropertyOp8
 70
     1
102
RTVSPropertyOp9
 70
     1
102
RTVSPropertyOp10
 70
     1
102
RTVSPropertyOp11
 70
     1
102
RTVSPropertyOp12
 70
     1
102
RTVSPropertyOp13
 70
     1
102
RTVSPropertyOp14
 70
     1
102
RTVSPropertyOp15
 70
     1
102
RTVSPropertyOp16
 70
     1
102
RTVSPropertyOp17
 70
     1
102
RTVSPropertyOp18
 70
     1
102
RTVSPropertyOp19
 70
     1
102
RTVSPropertyOp20
 70
     1
102
RTVSPropertyOp21
 70
     1
102
RTVSPropertyOp22
 70
     1
102
RTVSPropertyOp23
 70
     1
102
RTVSPropertyOp24
 70
     1
102
RTVSPropertyOp25
 70
     1
102
RTVSPropertyOp26
 70
     1
102
RTVSPropertyOp27
 70
     1
102
RTVSPropertyOp28
 70
     1
102
RTVSPropertyOp29
 70
     1
102
RTVSPropertyOp30
 70
     1
102
RTVSPropertyOp31
 70
     1
102
RTVSPropertyOp32
 70
     1
102
RTVSPropertyOp33
 70
     1
102
RTVSPropertyOp34
 70
     1
102
RTVSPropertyOp35
 70
     1
102
RTVSPropertyOp36
 70
     1
102
RTVSPropertyOp37
 70
     1
102
RTVSPropertyOp38
 70
     1
102
RTVSPropertyOp39
 70
     1
102
RTVSPropertyOp40
 70
     1
102
RTVSPropertyOp41
 70
     1
102
RTVSPropertyOp42
 70
     1
102
RTVSPropertyOp43
 70
     1
102
RTVSPropertyOp44
 70
     1
102
RTVSPropertyOp45
 70
     1
102
RTVSPropertyOp46
 70
     1
102
RTVSPropertyOp47
 70
     1
102
RTVSPropertyOp48
 70
     1
102
RTVSPropertyOp49
 70
     1
102
RTVSPropertyOp50
 70
     1
102
RTVSPropertyOp51
 70
     0
102
RTVSPropertyOp52
 70
     0
102
RTVSPropertyOp53
 70
     1
102
RTVSPropertyOp54
 70
     1
102
RTVSPropertyOp55
 70
     1
102
RTVSPropertyOp56
 70
     1
102
RTVSPropertyOp57
 70
     1
102
RTVSPropertyOp58
 70
     1
102
RTVSPropertyOp59
 70
     1
102
RTVSPropertyOp60
 70
     1
102
RTVSPropertyOp61
 70
     1
102
RTVSPropertyOp62
 70
     1
  0
XRECORD
  5
8F0
102
{ACAD_REACTORS
330
8EF
102
}
330
8EF
100
AcDbXrecord
280
     1
102
RTVSPost2010Prop28
280
     0
102
RTVSPost2010PropOp28
 70
     1
102
RTVSPost2010Prop29
280
     1
102
RTVSPost2010PropOp29
 70
     1
102
RTVSPost2010Prop30
280
     1
102
RTVSPost2010PropOp30
 70
     1
102
RTVSPost2010Prop31
280
     0
102
RTVSPost2010PropOp31
 70
     1
102
RTVSPost2010Prop32
280
     0
102
RTVSPost2010PropOp32
 70
     1
102
RTVSPost2010Prop33
280
     0
102
RTVSPost2010PropOp33
 70
     1
102
RTVSPost2010Prop34
280
     0
102
RTVSPost2010PropOp34
 70
     1
102
RTVSPost2010Prop35
280
     0
102
RTVSPost2010PropOp35
 70
     1
102
RTVSPost2010Prop36
280
     0
102
RTVSPost2010PropOp36
 70
     1
102
RTVSPost2010Prop37
 90
       50
102
RTVSPost2010PropOp37
 70
     1
102
RTVSPost2010Prop38
140
0.0
102
RTVSPost2010PropOp38
 70
     1
102
RTVSPost2010Prop39
140
1.0
102
RTVSPost2010PropOp39
 70
     1
102
RTVSPost2010Prop40
 90
        0
102
RTVSPost2010PropOp40
 70
     1
102
RTVSPost2010Prop41ColorIndex
 90
       18
102
RTVSPost2010Prop41ColorRGB
 90
        0
102
RTVSPost2010PropOp41
 70
     1
102
RTVSPost2010Prop42
 90
       50
102
RTVSPost2010PropOp42
 70
     1
102
RTVSPost2010Prop43
 90
        3
102
RTVSPost2010PropOp43
 70
     1
102
RTVSPost2010Prop44ColorIndex
 90
        5
102
RTVSPost2010Prop44ColorRGB
 90
      255
102
RTVSPost2010PropOp44
 70
     1
102
RTVSPost2010Prop45
280
     0
102
RTVSPost2010PropOp45
 70
     1
102
RTVSPost2010Prop46
 90
       50
102
RTVSPost2010PropOp46
 70
     1
102
RTVSPost2010Prop47
 90
       50
102
RTVSPost2010PropOp47
 70
     1
102
RTVSPost2010Prop48
 90
       50
102
RTVSPost2010PropOp48
 70
     1
102
RTVSPost2010Prop49
280
     0
102
RTVSPost2010PropOp49
 70
     1
102
RTVSPost2010Prop50
 90
       50
102
RTVSPost2010PropOp50
 70
     1
102
RTVSPost2010Prop51ColorIndex
 90
      256
102
RTVSPost2010Prop51ColorRGB
 90
-16777216
102
RTVSPost2010PropOp51
 70
     0
102
RTVSPost2010Prop52
140
1.0
102
RTVSPost2010PropOp52
 70
     0
102
RTVSPost2010Prop53
 90
        2
102
RTVSPost2010PropOp53
 70
     1
102
RTVSPost2010Prop54
  1
strokes_ogs.tif
102
RTVSPost2010PropOp54
 70
     1
102
RTVSPost2010Prop55
280
     0
102
RTVSPost2010PropOp55
 70
     1
102
RTVSPost2010Prop56
140
1.0
102
RTVSPost2010PropOp56
 70
     1
102
RTVSPost2010Prop57
140
1.0
102
RTVSPost2010PropOp57
 70
     1
102
RTVSPropertyOp0
 70
     1
102
RTVSPropertyOp1
 70
     1
102
RTVSPropertyOp2
 70
     1
102
RTVSPropertyOp3
 70
     1
102
RTVSPropertyOp4
 70
     1
102
RTVSPropertyOp5
 70
     1
102
RTVSPropertyOp6
 70
     1
102
RTVSPropertyOp7
 70
     1
102
RTVSPropertyOp8
 70
     1
102
RTVSPropertyOp9
 70
     1
102
RTVSPropertyOp10
 70
     1
102
RTVSPropertyOp11
 70
     1
102
RTVSPropertyOp12
 70
     1
102
RTVSPropertyOp13
 70
     1
102
RTVSPropertyOp14
 70
     1
102
RTVSPropertyOp15
 70
     1
102
RTVSPropertyOp16
 70
     1
102
RTVSPropertyOp17
 70
     1
102
RTVSPropertyOp18
 70
     1
102
RTVSPropertyOp19
 70
     1
102
RTVSPropertyOp20
 70
     1
102
RTVSPropertyOp21
 70
     1
102
RTVSPropertyOp22
 70
     1
102
RTVSPropertyOp23
 70
     1
102
RTVSPropertyOp24
 70
     1
102
RTVSPropertyOp25
 70
     1
102
RTVSPropertyOp26
 70
     1
102
RTVSPropertyOp27
 70
     1
102
RTVSPropertyOp28
 70
     1
102
RTVSPropertyOp29
 70
     1
102
RTVSPropertyOp30
 70
     1
102
RTVSPropertyOp31
 70
     1
102
RTVSPropertyOp32
 70
     1
102
RTVSPropertyOp33
 70
     1
102
RTVSPropertyOp34
 70
     1
102
RTVSPropertyOp35
 70
     1
102
RTVSPropertyOp36
 70
     1
102
RTVSPropertyOp37
 70
     1
102
RTVSPropertyOp38
 70
     1
102
RTVSPropertyOp39
 70
     1
102
RTVSPropertyOp40
 70
     1
102
RTVSPropertyOp41
 70
     1
102
RTVSPropertyOp42
 70
     1
102
RTVSPropertyOp43
 70
     1
102
RTVSPropertyOp44
 70
     1
102
RTVSPropertyOp45
 70
     1
102
RTVSPropertyOp46
 70
     1
102
RTVSPropertyOp47
 70
     1
102
RTVSPropertyOp48
 70
     1
102
RTVSPropertyOp49
 70
     1
102
RTVSPropertyOp50
 70
     1
102
RTVSPropertyOp51
 70
     0
102
RTVSPropertyOp52
 70
     0
102
RTVSPropertyOp53
 70
     1
102
RTVSPropertyOp54
 70
     1
102
RTVSPropertyOp55
 70
     1
102
RTVSPropertyOp56
 70
     1
102
RTVSPropertyOp57
 70
     1
102
RTVSPropertyOp58
 70
     1
102
RTVSPropertyOp59
 70
     1
102
RTVSPropertyOp60
 70
     1
102
RTVSPropertyOp61
 70
     1
102
RTVSPropertyOp62
 70
     1
  0
XRECORD
  5
8FE
102
{ACAD_REACTORS
330
8FD
102
}
330
8FD
100
AcDbXrecord
280
     1
102
RTVSPost2010Prop28
280
     0
102
RTVSPost2010PropOp28
 70
     1
102
RTVSPost2010Prop29
280
     1
102
RTVSPost2010PropOp29
 70
     1
102
RTVSPost2010Prop30
280
     1
102
RTVSPost2010PropOp30
 70
     1
102
RTVSPost2010Prop31
280
     0
102
RTVSPost2010PropOp31
 70
     1
102
RTVSPost2010Prop32
280
     0
102
RTVSPost2010PropOp32
 70
     1
102
RTVSPost2010Prop33
280
     0
102
RTVSPost2010PropOp33
 70
     1
102
RTVSPost2010Prop34
280
     0
102
RTVSPost2010PropOp34
 70
     1
102
RTVSPost2010Prop35
280
     0
102
RTVSPost2010PropOp35
 70
     1
102
RTVSPost2010Prop36
280
     0
102
RTVSPost2010PropOp36
 70
     1
102
RTVSPost2010Prop37
 90
       50
102
RTVSPost2010PropOp37
 70
     1
102
RTVSPost2010Prop38
140
0.0
102
RTVSPost2010PropOp38
 70
     1
102
RTVSPost2010Prop39
140
1.0
102
RTVSPost2010PropOp39
 70
     1
102
RTVSPost2010Prop40
 90
        0
102
RTVSPost2010PropOp40
 70
     1
102
RTVSPost2010Prop41ColorIndex
 90
       18
102
RTVSPost2010Prop41ColorRGB
 90
        0
102
RTVSPost2010PropOp41
 70
     1
102
RTVSPost2010Prop42
 90
       50
102
RTVSPost2010PropOp42
 70
     1
102
RTVSPost2010Prop43
 90
        3
102
RTVSPost2010PropOp43
 70
     1
102
RTVSPost2010Prop44ColorIndex
 90
        5
102
RTVSPost2010Prop44ColorRGB
 90
      255
102
RTVSPost2010PropOp44
 70
     1
102
RTVSPost2010Prop45
280
     0
102
RTVSPost2010PropOp45
 70
     1
102
RTVSPost2010Prop46
 90
       50
102
RTVSPost2010PropOp46
 70
     1
102
RTVSPost2010Prop47
 90
       50
102
RTVSPost2010PropOp47
 70
     1
102
RTVSPost2010Prop48
 90
       50
102
RTVSPost2010PropOp48
 70
     1
102
RTVSPost2010Prop49
280
     0
102
RTVSPost2010PropOp49
 70
     1
102
RTVSPost2010Prop50
 90
       50
102
RTVSPost2010PropOp50
 70
     1
102
RTVSPost2010Prop51ColorIndex
 90
      256
102
RTVSPost2010Prop51ColorRGB
 90
-16777216
102
RTVSPost2010PropOp51
 70
     0
102
RTVSPost2010Prop52
140
1.0
102
RTVSPost2010PropOp52
 70
     0
102
RTVSPost2010Prop53
 90
        2
102
RTVSPost2010PropOp53
 70
     1
102
RTVSPost2010Prop54
  1
strokes_ogs.tif
102
RTVSPost2010PropOp54
 70
     1
102
RTVSPost2010Prop55
280
     0
102
RTVSPost2010PropOp55
 70
     1
102
RTVSPost2010Prop56
140
1.0
102
RTVSPost2010PropOp56
 70
     1
102
RTVSPost2010Prop57
140
1.0
102
RTVSPost2010PropOp57
 70
     1
102
RTVSPropertyOp0
 70
     1
102
RTVSPropertyOp1
 70
     1
102
RTVSPropertyOp2
 70
     1
102
RTVSPropertyOp3
 70
     1
102
RTVSPropertyOp4
 70
     1
102
RTVSPropertyOp5
 70
     1
102
RTVSPropertyOp6
 70
     1
102
RTVSPropertyOp7
 70
     1
102
RTVSPropertyOp8
 70
     1
102
RTVSPropertyOp9
 70
     1
102
RTVSPropertyOp10
 70
     1
102
RTVSPropertyOp11
 70
     1
102
RTVSPropertyOp12
 70
     1
102
RTVSPropertyOp13
 70
     1
102
RTVSPropertyOp14
 70
     1
102
RTVSPropertyOp15
 70
     1
102
RTVSPropertyOp16
 70
     1
102
RTVSPropertyOp17
 70
     1
102
RTVSPropertyOp18
 70
     1
102
RTVSPropertyOp19
 70
     1
102
RTVSPropertyOp20
 70
     1
102
RTVSPropertyOp21
 70
     1
102
RTVSPropertyOp22
 70
     1
102
RTVSPropertyOp23
 70
     1
102
RTVSPropertyOp24
 70
     1
102
RTVSPropertyOp25
 70
     1
102
RTVSPropertyOp26
 70
     1
102
RTVSPropertyOp27
 70
     1
102
RTVSPropertyOp28
 70
     1
102
RTVSPropertyOp29
 70
     1
102
RTVSPropertyOp30
 70
     1
102
RTVSPropertyOp31
 70
     1
102
RTVSPropertyOp32
 70
     1
102
RTVSPropertyOp33
 70
     1
102
RTVSPropertyOp34
 70
     1
102
RTVSPropertyOp35
 70
     1
102
RTVSPropertyOp36
 70
     1
102
RTVSPropertyOp37
 70
     1
102
RTVSPropertyOp38
 70
     1
102
RTVSPropertyOp39
 70
     1
102
RTVSPropertyOp40
 70
     1
102
RTVSPropertyOp41
 70
     1
102
RTVSPropertyOp42
 70
     1
102
RTVSPropertyOp43
 70
     1
102
RTVSPropertyOp44
 70
     1
102
RTVSPropertyOp45
 70
     1
102
RTVSPropertyOp46
 70
     1
102
RTVSPropertyOp47
 70
     1
102
RTVSPropertyOp48
 70
     1
102
RTVSPropertyOp49
 70
     1
102
RTVSPropertyOp50
 70
     1
102
RTVSPropertyOp51
 70
     0
102
RTVSPropertyOp52
 70
     0
102
RTVSPropertyOp53
 70
     1
102
RTVSPropertyOp54
 70
     1
102
RTVSPropertyOp55
 70
     1
102
RTVSPropertyOp56
 70
     1
102
RTVSPropertyOp57
 70
     1
102
RTVSPropertyOp58
 70
     1
102
RTVSPropertyOp59
 70
     1
102
RTVSPropertyOp60
 70
     1
102
RTVSPropertyOp61
 70
     1
102
RTVSPropertyOp62
 70
     1
  0
XRECORD
  5
906
102
{ACAD_REACTORS
330
905
102
}
330
905
100
AcDbXrecord
280
     1
102
RTVSPost2010Prop28
280
     0
102
RTVSPost2010PropOp28
 70
     1
102
RTVSPost2010Prop29
280
     1
102
RTVSPost2010PropOp29
 70
     1
102
RTVSPost2010Prop30
280
     1
102
RTVSPost2010PropOp30
 70
     1
102
RTVSPost2010Prop31
280
     0
102
RTVSPost2010PropOp31
 70
     1
102
RTVSPost2010Prop32
280
     0
102
RTVSPost2010PropOp32
 70
     1
102
RTVSPost2010Prop33
280
     0
102
RTVSPost2010PropOp33
 70
     1
102
RTVSPost2010Prop34
280
     0
102
RTVSPost2010PropOp34
 70
     1
102
RTVSPost2010Prop35
280
     0
102
RTVSPost2010PropOp35
 70
     1
102
RTVSPost2010Prop36
280
     0
102
RTVSPost2010PropOp36
 70
     1
102
RTVSPost2010Prop37
 90
       50
102
RTVSPost2010PropOp37
 70
     1
102
RTVSPost2010Prop38
140
0.0
102
RTVSPost2010PropOp38
 70
     1
102
RTVSPost2010Prop39
140
1.0
102
RTVSPost2010PropOp39
 70
     1
102
RTVSPost2010Prop40
 90
        0
102
RTVSPost2010PropOp40
 70
     1
102
RTVSPost2010Prop41ColorIndex
 90
       18
102
RTVSPost2010Prop41ColorRGB
 90
        0
102
RTVSPost2010PropOp41
 70
     1
102
RTVSPost2010Prop42
 90
       50
102
RTVSPost2010PropOp42
 70
     1
102
RTVSPost2010Prop43
 90
        3
102
RTVSPost2010PropOp43
 70
     1
102
RTVSPost2010Prop44ColorIndex
 90
        5
102
RTVSPost2010Prop44ColorRGB
 90
      255
102
RTVSPost2010PropOp44
 70
     1
102
RTVSPost2010Prop45
280
     0
102
RTVSPost2010PropOp45
 70
     1
102
RTVSPost2010Prop46
 90
       50
102
RTVSPost2010PropOp46
 70
     1
102
RTVSPost2010Prop47
 90
       50
102
RTVSPost2010PropOp47
 70
     1
102
RTVSPost2010Prop48
 90
       50
102
RTVSPost2010PropOp48
 70
     1
102
RTVSPost2010Prop49
280
     0
102
RTVSPost2010PropOp49
 70
     1
102
RTVSPost2010Prop50
 90
       50
102
RTVSPost2010PropOp50
 70
     1
102
RTVSPost2010Prop51ColorIndex
 90
      256
102
RTVSPost2010Prop51ColorRGB
 90
-16777216
102
RTVSPost2010PropOp51
 70
     0
102
RTVSPost2010Prop52
140
1.0
102
RTVSPost2010PropOp52
 70
     0
102
RTVSPost2010Prop53
 90
        2
102
RTVSPost2010PropOp53
 70
     1
102
RTVSPost2010Prop54
  1
strokes_ogs.tif
102
RTVSPost2010PropOp54
 70
     1
102
RTVSPost2010Prop55
280
     0
102
RTVSPost2010PropOp55
 70
     1
102
RTVSPost2010Prop56
140
1.0
102
RTVSPost2010PropOp56
 70
     1
102
RTVSPost2010Prop57
140
1.0
102
RTVSPost2010PropOp57
 70
     1
102
RTVSPropertyOp0
 70
     1
102
RTVSPropertyOp1
 70
     1
102
RTVSPropertyOp2
 70
     1
102
RTVSPropertyOp3
 70
     1
102
RTVSPropertyOp4
 70
     1
102
RTVSPropertyOp5
 70
     1
102
RTVSPropertyOp6
 70
     1
102
RTVSPropertyOp7
 70
     1
102
RTVSPropertyOp8
 70
     1
102
RTVSPropertyOp9
 70
     1
102
RTVSPropertyOp10
 70
     1
102
RTVSPropertyOp11
 70
     1
102
RTVSPropertyOp12
 70
     1
102
RTVSPropertyOp13
 70
     1
102
RTVSPropertyOp14
 70
     1
102
RTVSPropertyOp15
 70
     1
102
RTVSPropertyOp16
 70
     1
102
RTVSPropertyOp17
 70
     1
102
RTVSPropertyOp18
 70
     1
102
RTVSPropertyOp19
 70
     1
102
RTVSPropertyOp20
 70
     1
102
RTVSPropertyOp21
 70
     1
102
RTVSPropertyOp22
 70
     1
102
RTVSPropertyOp23
 70
     1
102
RTVSPropertyOp24
 70
     1
102
RTVSPropertyOp25
 70
     1
102
RTVSPropertyOp26
 70
     1
102
RTVSPropertyOp27
 70
     1
102
RTVSPropertyOp28
 70
     1
102
RTVSPropertyOp29
 70
     1
102
RTVSPropertyOp30
 70
     1
102
RTVSPropertyOp31
 70
     1
102
RTVSPropertyOp32
 70
     1
102
RTVSPropertyOp33
 70
     1
102
RTVSPropertyOp34
 70
     1
102
RTVSPropertyOp35
 70
     1
102
RTVSPropertyOp36
 70
     1
102
RTVSPropertyOp37
 70
     1
102
RTVSPropertyOp38
 70
     1
102
RTVSPropertyOp39
 70
     1
102
RTVSPropertyOp40
 70
     1
102
RTVSPropertyOp41
 70
     1
102
RTVSPropertyOp42
 70
     1
102
RTVSPropertyOp43
 70
     1
102
RTVSPropertyOp44
 70
     1
102
RTVSPropertyOp45
 70
     1
102
RTVSPropertyOp46
 70
     1
102
RTVSPropertyOp47
 70
     1
102
RTVSPropertyOp48
 70
     1
102
RTVSPropertyOp49
 70
     1
102
RTVSPropertyOp50
 70
     1
102
RTVSPropertyOp51
 70
     0
102
RTVSPropertyOp52
 70
     0
102
RTVSPropertyOp53
 70
     1
102
RTVSPropertyOp54
 70
     1
102
RTVSPropertyOp55
 70
     1
102
RTVSPropertyOp56
 70
     1
102
RTVSPropertyOp57
 70
     1
102
RTVSPropertyOp58
 70
     1
102
RTVSPropertyOp59
 70
     1
102
RTVSPropertyOp60
 70
     1
102
RTVSPropertyOp61
 70
     1
102
RTVSPropertyOp62
 70
     1
  0
XRECORD
  5
8F8
102
{ACAD_REACTORS
330
8F7
102
}
330
8F7
100
AcDbXrecord
280
     1
102
RTVSPost2010Prop28
280
     0
102
RTVSPost2010PropOp28
 70
     1
102
RTVSPost2010Prop29
280
     1
102
RTVSPost2010PropOp29
 70
     1
102
RTVSPost2010Prop30
280
     1
102
RTVSPost2010PropOp30
 70
     1
102
RTVSPost2010Prop31
280
     0
102
RTVSPost2010PropOp31
 70
     1
102
RTVSPost2010Prop32
280
     0
102
RTVSPost2010PropOp32
 70
     1
102
RTVSPost2010Prop33
280
     0
102
RTVSPost2010PropOp33
 70
     1
102
RTVSPost2010Prop34
280
     0
102
RTVSPost2010PropOp34
 70
     1
102
RTVSPost2010Prop35
280
     0
102
RTVSPost2010PropOp35
 70
     1
102
RTVSPost2010Prop36
280
     0
102
RTVSPost2010PropOp36
 70
     1
102
RTVSPost2010Prop37
 90
       50
102
RTVSPost2010PropOp37
 70
     1
102
RTVSPost2010Prop38
140
0.0
102
RTVSPost2010PropOp38
 70
     1
102
RTVSPost2010Prop39
140
1.0
102
RTVSPost2010PropOp39
 70
     1
102
RTVSPost2010Prop40
 90
        0
102
RTVSPost2010PropOp40
 70
     1
102
RTVSPost2010Prop41ColorIndex
 90
       18
102
RTVSPost2010Prop41ColorRGB
 90
        0
102
RTVSPost2010PropOp41
 70
     1
102
RTVSPost2010Prop42
 90
       50
102
RTVSPost2010PropOp42
 70
     1
102
RTVSPost2010Prop43
 90
        3
102
RTVSPost2010PropOp43
 70
     1
102
RTVSPost2010Prop44ColorIndex
 90
        5
102
RTVSPost2010Prop44ColorRGB
 90
      255
102
RTVSPost2010PropOp44
 70
     1
102
RTVSPost2010Prop45
280
     0
102
RTVSPost2010PropOp45
 70
     1
102
RTVSPost2010Prop46
 90
       50
102
RTVSPost2010PropOp46
 70
     1
102
RTVSPost2010Prop47
 90
       50
102
RTVSPost2010PropOp47
 70
     1
102
RTVSPost2010Prop48
 90
       50
102
RTVSPost2010PropOp48
 70
     1
102
RTVSPost2010Prop49
280
     0
102
RTVSPost2010PropOp49
 70
     1
102
RTVSPost2010Prop50
 90
       50
102
RTVSPost2010PropOp50
 70
     1
102
RTVSPost2010Prop51ColorIndex
 90
      256
102
RTVSPost2010Prop51ColorRGB
 90
-16777216
102
RTVSPost2010PropOp51
 70
     0
102
RTVSPost2010Prop52
140
1.0
102
RTVSPost2010PropOp52
 70
     0
102
RTVSPost2010Prop53
 90
        2
102
RTVSPost2010PropOp53
 70
     1
102
RTVSPost2010Prop54
  1
strokes_ogs.tif
102
RTVSPost2010PropOp54
 70
     1
102
RTVSPost2010Prop55
280
     0
102
RTVSPost2010PropOp55
 70
     1
102
RTVSPost2010Prop56
140
1.0
102
RTVSPost2010PropOp56
 70
     1
102
RTVSPost2010Prop57
140
1.0
102
RTVSPost2010PropOp57
 70
     1
102
RTVSPropertyOp0
 70
     1
102
RTVSPropertyOp1
 70
     1
102
RTVSPropertyOp2
 70
     1
102
RTVSPropertyOp3
 70
     1
102
RTVSPropertyOp4
 70
     1
102
RTVSPropertyOp5
 70
     1
102
RTVSPropertyOp6
 70
     1
102
RTVSPropertyOp7
 70
     1
102
RTVSPropertyOp8
 70
     1
102
RTVSPropertyOp9
 70
     1
102
RTVSPropertyOp10
 70
     1
102
RTVSPropertyOp11
 70
     1
102
RTVSPropertyOp12
 70
     1
102
RTVSPropertyOp13
 70
     1
102
RTVSPropertyOp14
 70
     1
102
RTVSPropertyOp15
 70
     1
102
RTVSPropertyOp16
 70
     1
102
RTVSPropertyOp17
 70
     1
102
RTVSPropertyOp18
 70
     1
102
RTVSPropertyOp19
 70
     1
102
RTVSPropertyOp20
 70
     1
102
RTVSPropertyOp21
 70
     1
102
RTVSPropertyOp22
 70
     1
102
RTVSPropertyOp23
 70
     1
102
RTVSPropertyOp24
 70
     1
102
RTVSPropertyOp25
 70
     1
102
RTVSPropertyOp26
 70
     1
102
RTVSPropertyOp27
 70
     1
102
RTVSPropertyOp28
 70
     1
102
RTVSPropertyOp29
 70
     1
102
RTVSPropertyOp30
 70
     1
102
RTVSPropertyOp31
 70
     1
102
RTVSPropertyOp32
 70
     1
102
RTVSPropertyOp33
 70
     1
102
RTVSPropertyOp34
 70
     1
102
RTVSPropertyOp35
 70
     1
102
RTVSPropertyOp36
 70
     1
102
RTVSPropertyOp37
 70
     1
102
RTVSPropertyOp38
 70
     1
102
RTVSPropertyOp39
 70
     1
102
RTVSPropertyOp40
 70
     1
102
RTVSPropertyOp41
 70
     1
102
RTVSPropertyOp42
 70
     1
102
RTVSPropertyOp43
 70
     1
102
RTVSPropertyOp44
 70
     1
102
RTVSPropertyOp45
 70
     1
102
RTVSPropertyOp46
 70
     1
102
RTVSPropertyOp47
 70
     1
102
RTVSPropertyOp48
 70
     1
102
RTVSPropertyOp49
 70
     1
102
RTVSPropertyOp50
 70
     1
102
RTVSPropertyOp51
 70
     0
102
RTVSPropertyOp52
 70
     0
102
RTVSPropertyOp53
 70
     1
102
RTVSPropertyOp54
 70
     1
102
RTVSPropertyOp55
 70
     1
102
RTVSPropertyOp56
 70
     1
102
RTVSPropertyOp57
 70
     1
102
RTVSPropertyOp58
 70
     1
102
RTVSPropertyOp59
 70
     1
102
RTVSPropertyOp60
 70
     1
102
RTVSPropertyOp61
 70
     1
102
RTVSPropertyOp62
 70
     1
  0
XRECORD
  5
8FC
102
{ACAD_REACTORS
330
8FB
102
}
330
8FB
100
AcDbXrecord
280
     1
102
RTVSPost2010Prop28
280
     0
102
RTVSPost2010PropOp28
 70
     1
102
RTVSPost2010Prop29
280
     1
102
RTVSPost2010PropOp29
 70
     1
102
RTVSPost2010Prop30
280
     1
102
RTVSPost2010PropOp30
 70
     1
102
RTVSPost2010Prop31
280
     0
102
RTVSPost2010PropOp31
 70
     1
102
RTVSPost2010Prop32
280
     0
102
RTVSPost2010PropOp32
 70
     1
102
RTVSPost2010Prop33
280
     0
102
RTVSPost2010PropOp33
 70
     1
102
RTVSPost2010Prop34
280
     0
102
RTVSPost2010PropOp34
 70
     1
102
RTVSPost2010Prop35
280
     0
102
RTVSPost2010PropOp35
 70
     1
102
RTVSPost2010Prop36
280
     0
102
RTVSPost2010PropOp36
 70
     1
102
RTVSPost2010Prop37
 90
       50
102
RTVSPost2010PropOp37
 70
     1
102
RTVSPost2010Prop38
140
0.0
102
RTVSPost2010PropOp38
 70
     1
102
RTVSPost2010Prop39
140
1.0
102
RTVSPost2010PropOp39
 70
     1
102
RTVSPost2010Prop40
 90
        0
102
RTVSPost2010PropOp40
 70
     1
102
RTVSPost2010Prop41ColorIndex
 90
       18
102
RTVSPost2010Prop41ColorRGB
 90
        0
102
RTVSPost2010PropOp41
 70
     1
102
RTVSPost2010Prop42
 90
       50
102
RTVSPost2010PropOp42
 70
     1
102
RTVSPost2010Prop43
 90
        3
102
RTVSPost2010PropOp43
 70
     1
102
RTVSPost2010Prop44ColorIndex
 90
        5
102
RTVSPost2010Prop44ColorRGB
 90
      255
102
RTVSPost2010PropOp44
 70
     1
102
RTVSPost2010Prop45
280
     0
102
RTVSPost2010PropOp45
 70
     1
102
RTVSPost2010Prop46
 90
       50
102
RTVSPost2010PropOp46
 70
     1
102
RTVSPost2010Prop47
 90
       50
102
RTVSPost2010PropOp47
 70
     1
102
RTVSPost2010Prop48
 90
       50
102
RTVSPost2010PropOp48
 70
     1
102
RTVSPost2010Prop49
280
     0
102
RTVSPost2010PropOp49
 70
     1
102
RTVSPost2010Prop50
 90
       50
102
RTVSPost2010PropOp50
 70
     1
102
RTVSPost2010Prop51ColorIndex
 90
      256
102
RTVSPost2010Prop51ColorRGB
 90
-16777216
102
RTVSPost2010PropOp51
 70
     0
102
RTVSPost2010Prop52
140
1.0
102
RTVSPost2010PropOp52
 70
     0
102
RTVSPost2010Prop53
 90
        2
102
RTVSPost2010PropOp53
 70
     1
102
RTVSPost2010Prop54
  1
strokes_ogs.tif
102
RTVSPost2010PropOp54
 70
     1
102
RTVSPost2010Prop55
280
     0
102
RTVSPost2010PropOp55
 70
     1
102
RTVSPost2010Prop56
140
1.0
102
RTVSPost2010PropOp56
 70
     1
102
RTVSPost2010Prop57
140
1.0
102
RTVSPost2010PropOp57
 70
     1
102
RTVSPropertyOp0
 70
     1
102
RTVSPropertyOp1
 70
     1
102
RTVSPropertyOp2
 70
     1
102
RTVSPropertyOp3
 70
     1
102
RTVSPropertyOp4
 70
     1
102
RTVSPropertyOp5
 70
     1
102
RTVSPropertyOp6
 70
     1
102
RTVSPropertyOp7
 70
     1
102
RTVSPropertyOp8
 70
     1
102
RTVSPropertyOp9
 70
     1
102
RTVSPropertyOp10
 70
     1
102
RTVSPropertyOp11
 70
     1
102
RTVSPropertyOp12
 70
     1
102
RTVSPropertyOp13
 70
     1
102
RTVSPropertyOp14
 70
     1
102
RTVSPropertyOp15
 70
     1
102
RTVSPropertyOp16
 70
     1
102
RTVSPropertyOp17
 70
     1
102
RTVSPropertyOp18
 70
     1
102
RTVSPropertyOp19
 70
     1
102
RTVSPropertyOp20
 70
     1
102
RTVSPropertyOp21
 70
     1
102
RTVSPropertyOp22
 70
     1
102
RTVSPropertyOp23
 70
     1
102
RTVSPropertyOp24
 70
     1
102
RTVSPropertyOp25
 70
     1
102
RTVSPropertyOp26
 70
     1
102
RTVSPropertyOp27
 70
     1
102
RTVSPropertyOp28
 70
     1
102
RTVSPropertyOp29
 70
     1
102
RTVSPropertyOp30
 70
     1
102
RTVSPropertyOp31
 70
     1
102
RTVSPropertyOp32
 70
     1
102
RTVSPropertyOp33
 70
     1
102
RTVSPropertyOp34
 70
     1
102
RTVSPropertyOp35
 70
     1
102
RTVSPropertyOp36
 70
     1
102
RTVSPropertyOp37
 70
     1
102
RTVSPropertyOp38
 70
     1
102
RTVSPropertyOp39
 70
     1
102
RTVSPropertyOp40
 70
     1
102
RTVSPropertyOp41
 70
     1
102
RTVSPropertyOp42
 70
     1
102
RTVSPropertyOp43
 70
     1
102
RTVSPropertyOp44
 70
     1
102
RTVSPropertyOp45
 70
     1
102
RTVSPropertyOp46
 70
     1
102
RTVSPropertyOp47
 70
     1
102
RTVSPropertyOp48
 70
     1
102
RTVSPropertyOp49
 70
     1
102
RTVSPropertyOp50
 70
     1
102
RTVSPropertyOp51
 70
     0
102
RTVSPropertyOp52
 70
     0
102
RTVSPropertyOp53
 70
     1
102
RTVSPropertyOp54
 70
     1
102
RTVSPropertyOp55
 70
     1
102
RTVSPropertyOp56
 70
     1
102
RTVSPropertyOp57
 70
     1
102
RTVSPropertyOp58
 70
     1
102
RTVSPropertyOp59
 70
     1
102
RTVSPropertyOp60
 70
     1
102
RTVSPropertyOp61
 70
     1
102
RTVSPropertyOp62
 70
     1
  0
XRECORD
  5
916
102
{ACAD_REACTORS
330
915
102
}
330
915
100
AcDbXrecord
280
     1
102
RTVSPost2010Prop28
280
     0
102
RTVSPost2010PropOp28
 70
     1
102
RTVSPost2010Prop29
280
     1
102
RTVSPost2010PropOp29
 70
     1
102
RTVSPost2010Prop30
280
     1
102
RTVSPost2010PropOp30
 70
     1
102
RTVSPost2010Prop31
280
     0
102
RTVSPost2010PropOp31
 70
     1
102
RTVSPost2010Prop32
280
     0
102
RTVSPost2010PropOp32
 70
     1
102
RTVSPost2010Prop33
280
     0
102
RTVSPost2010PropOp33
 70
     1
102
RTVSPost2010Prop34
280
     0
102
RTVSPost2010PropOp34
 70
     1
102
RTVSPost2010Prop35
280
     0
102
RTVSPost2010PropOp35
 70
     1
102
RTVSPost2010Prop36
280
     0
102
RTVSPost2010PropOp36
 70
     1
102
RTVSPost2010Prop37
 90
       50
102
RTVSPost2010PropOp37
 70
     0
102
RTVSPost2010Prop38
140
0.0
102
RTVSPost2010PropOp38
 70
     0
102
RTVSPost2010Prop39
140
1.0
102
RTVSPost2010PropOp39
 70
     0
102
RTVSPost2010Prop40
 90
        0
102
RTVSPost2010PropOp40
 70
     0
102
RTVSPost2010Prop41ColorIndex
 90
       18
102
RTVSPost2010Prop41ColorRGB
 90
        0
102
RTVSPost2010PropOp41
 70
     0
102
RTVSPost2010Prop42
 90
       50
102
RTVSPost2010PropOp42
 70
     0
102
RTVSPost2010Prop43
 90
        3
102
RTVSPost2010PropOp43
 70
     0
102
RTVSPost2010Prop44ColorIndex
 90
        5
102
RTVSPost2010Prop44ColorRGB
 90
      255
102
RTVSPost2010PropOp44
 70
     0
102
RTVSPost2010Prop45
280
     0
102
RTVSPost2010PropOp45
 70
     1
102
RTVSPost2010Prop46
 90
       50
102
RTVSPost2010PropOp46
 70
     0
102
RTVSPost2010Prop47
 90
       50
102
RTVSPost2010PropOp47
 70
     0
102
RTVSPost2010Prop48
 90
       50
102
RTVSPost2010PropOp48
 70
     0
102
RTVSPost2010Prop49
280
     0
102
RTVSPost2010PropOp49
 70
     1
102
RTVSPost2010Prop50
 90
       50
102
RTVSPost2010PropOp50
 70
     0
102
RTVSPost2010Prop51ColorIndex
 90
      256
102
RTVSPost2010Prop51ColorRGB
 90
-16777216
102
RTVSPost2010PropOp51
 70
     0
102
RTVSPost2010Prop52
140
1.0
102
RTVSPost2010PropOp52
 70
     0
102
RTVSPost2010Prop53
 90
        2
102
RTVSPost2010PropOp53
 70
     0
102
RTVSPost2010Prop54
  1
strokes_ogs.tif
102
RTVSPost2010PropOp54
 70
     0
102
RTVSPost2010Prop55
280
     0
102
RTVSPost2010PropOp55
 70
     1
102
RTVSPost2010Prop56
140
1.0
102
RTVSPost2010PropOp56
 70
     0
102
RTVSPost2010Prop57
140
1.0
102
RTVSPost2010PropOp57
 70
     0
102
RTVSPropertyOp0
 70
     0
102
RTVSPropertyOp1
 70
     0
102
RTVSPropertyOp2
 70
     0
102
RTVSPropertyOp3
 70
     0
102
RTVSPropertyOp4
 70
     0
102
RTVSPropertyOp5
 70
     0
102
RTVSPropertyOp6
 70
     0
102
RTVSPropertyOp7
 70
     0
102
RTVSPropertyOp8
 70
     0
102
RTVSPropertyOp9
 70
     0
102
RTVSPropertyOp10
 70
     0
102
RTVSPropertyOp11
 70
     0
102
RTVSPropertyOp12
 70
     0
102
RTVSPropertyOp13
 70
     0
102
RTVSPropertyOp14
 70
     2
102
RTVSPropertyOp15
 70
     0
102
RTVSPropertyOp16
 70
     0
102
RTVSPropertyOp17
 70
     0
102
RTVSPropertyOp18
 70
     0
102
RTVSPropertyOp19
 70
     0
102
RTVSPropertyOp20
 70
     0
102
RTVSPropertyOp21
 70
     0
102
RTVSPropertyOp22
 70
     0
102
RTVSPropertyOp23
 70
     0
102
RTVSPropertyOp24
 70
     0
102
RTVSPropertyOp25
 70
     0
102
RTVSPropertyOp26
 70
     0
102
RTVSPropertyOp27
 70
     0
102
RTVSPropertyOp28
 70
     1
102
RTVSPropertyOp29
 70
     1
102
RTVSPropertyOp30
 70
     1
102
RTVSPropertyOp31
 70
     1
102
RTVSPropertyOp32
 70
     1
102
RTVSPropertyOp33
 70
     1
102
RTVSPropertyOp34
 70
     1
102
RTVSPropertyOp35
 70
     1
102
RTVSPropertyOp36
 70
     1
102
RTVSPropertyOp37
 70
     0
102
RTVSPropertyOp38
 70
     0
102
RTVSPropertyOp39
 70
     0
102
RTVSPropertyOp40
 70
     0
102
RTVSPropertyOp41
 70
     0
102
RTVSPropertyOp42
 70
     0
102
RTVSPropertyOp43
 70
     0
102
RTVSPropertyOp44
 70
     0
102
RTVSPropertyOp45
 70
     1
102
RTVSPropertyOp46
 70
     0
102
RTVSPropertyOp47
 70
     0
102
RTVSPropertyOp48
 70
     0
102
RTVSPropertyOp49
 70
     1
102
RTVSPropertyOp50
 70
     0
102
RTVSPropertyOp51
 70
     0
102
RTVSPropertyOp52
 70
     0
102
RTVSPropertyOp53
 70
     0
102
RTVSPropertyOp54
 70
     0
102
RTVSPropertyOp55
 70
     1
102
RTVSPropertyOp56
 70
     0
102
RTVSPropertyOp57
 70
     0
102
RTVSPropertyOp58
 70
     0
102
RTVSPropertyOp59
 70
     0
102
RTVSPropertyOp60
 70
     0
102
RTVSPropertyOp61
 70
     0
102
RTVSPropertyOp62
 70
     0
  0
XRECORD
  5
904
102
{ACAD_REACTORS
330
903
102
}
330
903
100
AcDbXrecord
280
     1
102
RTVSPost2010Prop28
280
     0
102
RTVSPost2010PropOp28
 70
     1
102
RTVSPost2010Prop29
280
     1
102
RTVSPost2010PropOp29
 70
     1
102
RTVSPost2010Prop30
280
     1
102
RTVSPost2010PropOp30
 70
     1
102
RTVSPost2010Prop31
280
     0
102
RTVSPost2010PropOp31
 70
     1
102
RTVSPost2010Prop32
280
     0
102
RTVSPost2010PropOp32
 70
     1
102
RTVSPost2010Prop33
280
     0
102
RTVSPost2010PropOp33
 70
     1
102
RTVSPost2010Prop34
280
     0
102
RTVSPost2010PropOp34
 70
     1
102
RTVSPost2010Prop35
280
     0
102
RTVSPost2010PropOp35
 70
     1
102
RTVSPost2010Prop36
280
     0
102
RTVSPost2010PropOp36
 70
     1
102
RTVSPost2010Prop37
 90
       50
102
RTVSPost2010PropOp37
 70
     1
102
RTVSPost2010Prop38
140
0.0
102
RTVSPost2010PropOp38
 70
     1
102
RTVSPost2010Prop39
140
1.0
102
RTVSPost2010PropOp39
 70
     1
102
RTVSPost2010Prop40
 90
        0
102
RTVSPost2010PropOp40
 70
     1
102
RTVSPost2010Prop41ColorIndex
 90
       18
102
RTVSPost2010Prop41ColorRGB
 90
        0
102
RTVSPost2010PropOp41
 70
     1
102
RTVSPost2010Prop42
 90
       50
102
RTVSPost2010PropOp42
 70
     1
102
RTVSPost2010Prop43
 90
        3
102
RTVSPost2010PropOp43
 70
     1
102
RTVSPost2010Prop44ColorIndex
 90
        5
102
RTVSPost2010Prop44ColorRGB
 90
      255
102
RTVSPost2010PropOp44
 70
     1
102
RTVSPost2010Prop45
280
     0
102
RTVSPost2010PropOp45
 70
     1
102
RTVSPost2010Prop46
 90
       50
102
RTVSPost2010PropOp46
 70
     1
102
RTVSPost2010Prop47
 90
       50
102
RTVSPost2010PropOp47
 70
     1
102
RTVSPost2010Prop48
 90
       50
102
RTVSPost2010PropOp48
 70
     1
102
RTVSPost2010Prop49
280
     0
102
RTVSPost2010PropOp49
 70
     1
102
RTVSPost2010Prop50
 90
       50
102
RTVSPost2010PropOp50
 70
     1
102
RTVSPost2010Prop51ColorIndex
 90
      256
102
RTVSPost2010Prop51ColorRGB
 90
-16777216
102
RTVSPost2010PropOp51
 70
     0
102
RTVSPost2010Prop52
140
1.0
102
RTVSPost2010PropOp52
 70
     0
102
RTVSPost2010Prop53
 90
        2
102
RTVSPost2010PropOp53
 70
     1
102
RTVSPost2010Prop54
  1
strokes_ogs.tif
102
RTVSPost2010PropOp54
 70
     1
102
RTVSPost2010Prop55
280
     0
102
RTVSPost2010PropOp55
 70
     1
102
RTVSPost2010Prop56
140
1.0
102
RTVSPost2010PropOp56
 70
     1
102
RTVSPost2010Prop57
140
1.0
102
RTVSPost2010PropOp57
 70
     1
102
RTVSPropertyOp0
 70
     1
102
RTVSPropertyOp1
 70
     1
102
RTVSPropertyOp2
 70
     1
102
RTVSPropertyOp3
 70
     1
102
RTVSPropertyOp4
 70
     1
102
RTVSPropertyOp5
 70
     1
102
RTVSPropertyOp6
 70
     1
102
RTVSPropertyOp7
 70
     1
102
RTVSPropertyOp8
 70
     1
102
RTVSPropertyOp9
 70
     1
102
RTVSPropertyOp10
 70
     1
102
RTVSPropertyOp11
 70
     1
102
RTVSPropertyOp12
 70
     1
102
RTVSPropertyOp13
 70
     1
102
RTVSPropertyOp14
 70
     1
102
RTVSPropertyOp15
 70
     1
102
RTVSPropertyOp16
 70
     1
102
RTVSPropertyOp17
 70
     1
102
RTVSPropertyOp18
 70
     1
102
RTVSPropertyOp19
 70
     1
102
RTVSPropertyOp20
 70
     1
102
RTVSPropertyOp21
 70
     1
102
RTVSPropertyOp22
 70
     1
102
RTVSPropertyOp23
 70
     1
102
RTVSPropertyOp24
 70
     1
102
RTVSPropertyOp25
 70
     1
102
RTVSPropertyOp26
 70
     1
102
RTVSPropertyOp27
 70
     1
102
RTVSPropertyOp28
 70
     1
102
RTVSPropertyOp29
 70
     1
102
RTVSPropertyOp30
 70
     1
102
RTVSPropertyOp31
 70
     1
102
RTVSPropertyOp32
 70
     1
102
RTVSPropertyOp33
 70
     1
102
RTVSPropertyOp34
 70
     1
102
RTVSPropertyOp35
 70
     1
102
RTVSPropertyOp36
 70
     1
102
RTVSPropertyOp37
 70
     1
102
RTVSPropertyOp38
 70
     1
102
RTVSPropertyOp39
 70
     1
102
RTVSPropertyOp40
 70
     1
102
RTVSPropertyOp41
 70
     1
102
RTVSPropertyOp42
 70
     1
102
RTVSPropertyOp43
 70
     1
102
RTVSPropertyOp44
 70
     1
102
RTVSPropertyOp45
 70
     1
102
RTVSPropertyOp46
 70
     1
102
RTVSPropertyOp47
 70
     1
102
RTVSPropertyOp48
 70
     1
102
RTVSPropertyOp49
 70
     1
102
RTVSPropertyOp50
 70
     1
102
RTVSPropertyOp51
 70
     0
102
RTVSPropertyOp52
 70
     0
102
RTVSPropertyOp53
 70
     1
102
RTVSPropertyOp54
 70
     1
102
RTVSPropertyOp55
 70
     1
102
RTVSPropertyOp56
 70
     1
102
RTVSPropertyOp57
 70
     1
102
RTVSPropertyOp58
 70
     1
102
RTVSPropertyOp59
 70
     1
102
RTVSPropertyOp60
 70
     1
102
RTVSPropertyOp61
 70
     1
102
RTVSPropertyOp62
 70
     1
  0
XRECORD
  5
8E8
102
{ACAD_REACTORS
330
8E7
102
}
330
8E7
100
AcDbXrecord
280
     1
102
RTVSPost2010Prop28
280
     0
102
RTVSPost2010PropOp28
 70
     1
102
RTVSPost2010Prop29
280
     1
102
RTVSPost2010PropOp29
 70
     1
102
RTVSPost2010Prop30
280
     1
102
RTVSPost2010PropOp30
 70
     1
102
RTVSPost2010Prop31
280
     0
102
RTVSPost2010PropOp31
 70
     1
102
RTVSPost2010Prop32
280
     0
102
RTVSPost2010PropOp32
 70
     1
102
RTVSPost2010Prop33
280
     0
102
RTVSPost2010PropOp33
 70
     1
102
RTVSPost2010Prop34
280
     0
102
RTVSPost2010PropOp34
 70
     1
102
RTVSPost2010Prop35
280
     0
102
RTVSPost2010PropOp35
 70
     1
102
RTVSPost2010Prop36
280
     0
102
RTVSPost2010PropOp36
 70
     1
102
RTVSPost2010Prop37
 90
       50
102
RTVSPost2010PropOp37
 70
     1
102
RTVSPost2010Prop38
140
0.0
102
RTVSPost2010PropOp38
 70
     1
102
RTVSPost2010Prop39
140
1.0
102
RTVSPost2010PropOp39
 70
     1
102
RTVSPost2010Prop40
 90
        0
102
RTVSPost2010PropOp40
 70
     1
102
RTVSPost2010Prop41ColorIndex
 90
       18
102
RTVSPost2010Prop41ColorRGB
 90
        0
102
RTVSPost2010PropOp41
 70
     1
102
RTVSPost2010Prop42
 90
       50
102
RTVSPost2010PropOp42
 70
     1
102
RTVSPost2010Prop43
 90
        3
102
RTVSPost2010PropOp43
 70
     1
102
RTVSPost2010Prop44ColorIndex
 90
        5
102
RTVSPost2010Prop44ColorRGB
 90
      255
102
RTVSPost2010PropOp44
 70
     1
102
RTVSPost2010Prop45
280
     0
102
RTVSPost2010PropOp45
 70
     1
102
RTVSPost2010Prop46
 90
       50
102
RTVSPost2010PropOp46
 70
     1
102
RTVSPost2010Prop47
 90
       50
102
RTVSPost2010PropOp47
 70
     1
102
RTVSPost2010Prop48
 90
       50
102
RTVSPost2010PropOp48
 70
     1
102
RTVSPost2010Prop49
280
     0
102
RTVSPost2010PropOp49
 70
     1
102
RTVSPost2010Prop50
 90
       50
102
RTVSPost2010PropOp50
 70
     1
102
RTVSPost2010Prop51ColorIndex
 90
      256
102
RTVSPost2010Prop51ColorRGB
 90
-16777216
102
RTVSPost2010PropOp51
 70
     0
102
RTVSPost2010Prop52
140
1.0
102
RTVSPost2010PropOp52
 70
     0
102
RTVSPost2010Prop53
 90
        2
102
RTVSPost2010PropOp53
 70
     1
102
RTVSPost2010Prop54
  1
strokes_ogs.tif
102
RTVSPost2010PropOp54
 70
     1
102
RTVSPost2010Prop55
280
     0
102
RTVSPost2010PropOp55
 70
     1
102
RTVSPost2010Prop56
140
1.0
102
RTVSPost2010PropOp56
 70
     1
102
RTVSPost2010Prop57
140
1.0
102
RTVSPost2010PropOp57
 70
     1
102
RTVSPropertyOp0
 70
     1
102
RTVSPropertyOp1
 70
     1
102
RTVSPropertyOp2
 70
     1
102
RTVSPropertyOp3
 70
     1
102
RTVSPropertyOp4
 70
     1
102
RTVSPropertyOp5
 70
     1
102
RTVSPropertyOp6
 70
     1
102
RTVSPropertyOp7
 70
     1
102
RTVSPropertyOp8
 70
     1
102
RTVSPropertyOp9
 70
     1
102
RTVSPropertyOp10
 70
     1
102
RTVSPropertyOp11
 70
     1
102
RTVSPropertyOp12
 70
     1
102
RTVSPropertyOp13
 70
     1
102
RTVSPropertyOp14
 70
     1
102
RTVSPropertyOp15
 70
     1
102
RTVSPropertyOp16
 70
     1
102
RTVSPropertyOp17
 70
     1
102
RTVSPropertyOp18
 70
     1
102
RTVSPropertyOp19
 70
     1
102
RTVSPropertyOp20
 70
     1
102
RTVSPropertyOp21
 70
     1
102
RTVSPropertyOp22
 70
     1
102
RTVSPropertyOp23
 70
     1
102
RTVSPropertyOp24
 70
     1
102
RTVSPropertyOp25
 70
     1
102
RTVSPropertyOp26
 70
     1
102
RTVSPropertyOp27
 70
     1
102
RTVSPropertyOp28
 70
     1
102
RTVSPropertyOp29
 70
     1
102
RTVSPropertyOp30
 70
     1
102
RTVSPropertyOp31
 70
     1
102
RTVSPropertyOp32
 70
     1
102
RTVSPropertyOp33
 70
     1
102
RTVSPropertyOp34
 70
     1
102
RTVSPropertyOp35
 70
     1
102
RTVSPropertyOp36
 70
     1
102
RTVSPropertyOp37
 70
     1
102
RTVSPropertyOp38
 70
     1
102
RTVSPropertyOp39
 70
     1
102
RTVSPropertyOp40
 70
     1
102
RTVSPropertyOp41
 70
     1
102
RTVSPropertyOp42
 70
     1
102
RTVSPropertyOp43
 70
     1
102
RTVSPropertyOp44
 70
     1
102
RTVSPropertyOp45
 70
     1
102
RTVSPropertyOp46
 70
     1
102
RTVSPropertyOp47
 70
     1
102
RTVSPropertyOp48
 70
     1
102
RTVSPropertyOp49
 70
     1
102
RTVSPropertyOp50
 70
     1
102
RTVSPropertyOp51
 70
     0
102
RTVSPropertyOp52
 70
     0
102
RTVSPropertyOp53
 70
     1
102
RTVSPropertyOp54
 70
     1
102
RTVSPropertyOp55
 70
     1
102
RTVSPropertyOp56
 70
     1
102
RTVSPropertyOp57
 70
     1
102
RTVSPropertyOp58
 70
     1
102
RTVSPropertyOp59
 70
     1
102
RTVSPropertyOp60
 70
     1
102
RTVSPropertyOp61
 70
     1
102
RTVSPropertyOp62
 70
     1
  0
XRECORD
  5
8EA
102
{ACAD_REACTORS
330
8E9
102
}
330
8E9
100
AcDbXrecord
280
     1
102
RTVSPost2010Prop28
280
     0
102
RTVSPost2010PropOp28
 70
     1
102
RTVSPost2010Prop29
280
     1
102
RTVSPost2010PropOp29
 70
     1
102
RTVSPost2010Prop30
280
     1
102
RTVSPost2010PropOp30
 70
     1
102
RTVSPost2010Prop31
280
     0
102
RTVSPost2010PropOp31
 70
     1
102
RTVSPost2010Prop32
280
     0
102
RTVSPost2010PropOp32
 70
     1
102
RTVSPost2010Prop33
280
     0
102
RTVSPost2010PropOp33
 70
     1
102
RTVSPost2010Prop34
280
     0
102
RTVSPost2010PropOp34
 70
     1
102
RTVSPost2010Prop35
280
     0
102
RTVSPost2010PropOp35
 70
     1
102
RTVSPost2010Prop36
280
     0
102
RTVSPost2010PropOp36
 70
     1
102
RTVSPost2010Prop37
 90
       50
102
RTVSPost2010PropOp37
 70
     1
102
RTVSPost2010Prop38
140
0.0
102
RTVSPost2010PropOp38
 70
     1
102
RTVSPost2010Prop39
140
1.0
102
RTVSPost2010PropOp39
 70
     1
102
RTVSPost2010Prop40
 90
        0
102
RTVSPost2010PropOp40
 70
     1
102
RTVSPost2010Prop41ColorIndex
 90
       18
102
RTVSPost2010Prop41ColorRGB
 90
        0
102
RTVSPost2010PropOp41
 70
     1
102
RTVSPost2010Prop42
 90
       50
102
RTVSPost2010PropOp42
 70
     1
102
RTVSPost2010Prop43
 90
        3
102
RTVSPost2010PropOp43
 70
     1
102
RTVSPost2010Prop44ColorIndex
 90
        5
102
RTVSPost2010Prop44ColorRGB
 90
      255
102
RTVSPost2010PropOp44
 70
     1
102
RTVSPost2010Prop45
280
     0
102
RTVSPost2010PropOp45
 70
     1
102
RTVSPost2010Prop46
 90
       50
102
RTVSPost2010PropOp46
 70
     1
102
RTVSPost2010Prop47
 90
       50
102
RTVSPost2010PropOp47
 70
     1
102
RTVSPost2010Prop48
 90
       50
102
RTVSPost2010PropOp48
 70
     1
102
RTVSPost2010Prop49
280
     0
102
RTVSPost2010PropOp49
 70
     1
102
RTVSPost2010Prop50
 90
       50
102
RTVSPost2010PropOp50
 70
     1
102
RTVSPost2010Prop51ColorIndex
 90
      256
102
RTVSPost2010Prop51ColorRGB
 90
-16777216
102
RTVSPost2010PropOp51
 70
     0
102
RTVSPost2010Prop52
140
1.0
102
RTVSPost2010PropOp52
 70
     0
102
RTVSPost2010Prop53
 90
        2
102
RTVSPost2010PropOp53
 70
     1
102
RTVSPost2010Prop54
  1
strokes_ogs.tif
102
RTVSPost2010PropOp54
 70
     1
102
RTVSPost2010Prop55
280
     0
102
RTVSPost2010PropOp55
 70
     1
102
RTVSPost2010Prop56
140
1.0
102
RTVSPost2010PropOp56
 70
     1
102
RTVSPost2010Prop57
140
1.0
102
RTVSPost2010PropOp57
 70
     1
102
RTVSPropertyOp0
 70
     1
102
RTVSPropertyOp1
 70
     1
102
RTVSPropertyOp2
 70
     1
102
RTVSPropertyOp3
 70
     1
102
RTVSPropertyOp4
 70
     1
102
RTVSPropertyOp5
 70
     1
102
RTVSPropertyOp6
 70
     1
102
RTVSPropertyOp7
 70
     1
102
RTVSPropertyOp8
 70
     1
102
RTVSPropertyOp9
 70
     1
102
RTVSPropertyOp10
 70
     1
102
RTVSPropertyOp11
 70
     1
102
RTVSPropertyOp12
 70
     1
102
RTVSPropertyOp13
 70
     1
102
RTVSPropertyOp14
 70
     1
102
RTVSPropertyOp15
 70
     1
102
RTVSPropertyOp16
 70
     1
102
RTVSPropertyOp17
 70
     1
102
RTVSPropertyOp18
 70
     1
102
RTVSPropertyOp19
 70
     1
102
RTVSPropertyOp20
 70
     1
102
RTVSPropertyOp21
 70
     1
102
RTVSPropertyOp22
 70
     1
102
RTVSPropertyOp23
 70
     1
102
RTVSPropertyOp24
 70
     1
102
RTVSPropertyOp25
 70
     1
102
RTVSPropertyOp26
 70
     1
102
RTVSPropertyOp27
 70
     1
102
RTVSPropertyOp28
 70
     1
102
RTVSPropertyOp29
 70
     1
102
RTVSPropertyOp30
 70
     1
102
RTVSPropertyOp31
 70
     1
102
RTVSPropertyOp32
 70
     1
102
RTVSPropertyOp33
 70
     1
102
RTVSPropertyOp34
 70
     1
102
RTVSPropertyOp35
 70
     1
102
RTVSPropertyOp36
 70
     1
102
RTVSPropertyOp37
 70
     1
102
RTVSPropertyOp38
 70
     1
102
RTVSPropertyOp39
 70
     1
102
RTVSPropertyOp40
 70
     1
102
RTVSPropertyOp41
 70
     1
102
RTVSPropertyOp42
 70
     1
102
RTVSPropertyOp43
 70
     1
102
RTVSPropertyOp44
 70
     1
102
RTVSPropertyOp45
 70
     1
102
RTVSPropertyOp46
 70
     1
102
RTVSPropertyOp47
 70
     1
102
RTVSPropertyOp48
 70
     1
102
RTVSPropertyOp49
 70
     1
102
RTVSPropertyOp50
 70
     1
102
RTVSPropertyOp51
 70
     0
102
RTVSPropertyOp52
 70
     0
102
RTVSPropertyOp53
 70
     1
102
RTVSPropertyOp54
 70
     1
102
RTVSPropertyOp55
 70
     1
102
RTVSPropertyOp56
 70
     1
102
RTVSPropertyOp57
 70
     1
102
RTVSPropertyOp58
 70
     1
102
RTVSPropertyOp59
 70
     1
102
RTVSPropertyOp60
 70
     1
102
RTVSPropertyOp61
 70
     1
102
RTVSPropertyOp62
 70
     1
  0
XRECORD
  5
8EC
102
{ACAD_REACTORS
330
8EB
102
}
330
8EB
100
AcDbXrecord
280
     1
102
RTVSPost2010Prop28
280
     0
102
RTVSPost2010PropOp28
 70
     1
102
RTVSPost2010Prop29
280
     1
102
RTVSPost2010PropOp29
 70
     1
102
RTVSPost2010Prop30
280
     1
102
RTVSPost2010PropOp30
 70
     1
102
RTVSPost2010Prop31
280
     0
102
RTVSPost2010PropOp31
 70
     1
102
RTVSPost2010Prop32
280
     0
102
RTVSPost2010PropOp32
 70
     1
102
RTVSPost2010Prop33
280
     0
102
RTVSPost2010PropOp33
 70
     1
102
RTVSPost2010Prop34
280
     0
102
RTVSPost2010PropOp34
 70
     1
102
RTVSPost2010Prop35
280
     0
102
RTVSPost2010PropOp35
 70
     1
102
RTVSPost2010Prop36
280
     0
102
RTVSPost2010PropOp36
 70
     1
102
RTVSPost2010Prop37
 90
       50
102
RTVSPost2010PropOp37
 70
     1
102
RTVSPost2010Prop38
140
0.0
102
RTVSPost2010PropOp38
 70
     1
102
RTVSPost2010Prop39
140
1.0
102
RTVSPost2010PropOp39
 70
     1
102
RTVSPost2010Prop40
 90
        0
102
RTVSPost2010PropOp40
 70
     1
102
RTVSPost2010Prop41ColorIndex
 90
       18
102
RTVSPost2010Prop41ColorRGB
 90
        0
102
RTVSPost2010PropOp41
 70
     1
102
RTVSPost2010Prop42
 90
       50
102
RTVSPost2010PropOp42
 70
     1
102
RTVSPost2010Prop43
 90
        3
102
RTVSPost2010PropOp43
 70
     1
102
RTVSPost2010Prop44ColorIndex
 90
        5
102
RTVSPost2010Prop44ColorRGB
 90
      255
102
RTVSPost2010PropOp44
 70
     1
102
RTVSPost2010Prop45
280
     0
102
RTVSPost2010PropOp45
 70
     1
102
RTVSPost2010Prop46
 90
       50
102
RTVSPost2010PropOp46
 70
     1
102
RTVSPost2010Prop47
 90
       50
102
RTVSPost2010PropOp47
 70
     1
102
RTVSPost2010Prop48
 90
       50
102
RTVSPost2010PropOp48
 70
     1
102
RTVSPost2010Prop49
280
     0
102
RTVSPost2010PropOp49
 70
     1
102
RTVSPost2010Prop50
 90
       50
102
RTVSPost2010PropOp50
 70
     1
102
RTVSPost2010Prop51ColorIndex
 90
      256
102
RTVSPost2010Prop51ColorRGB
 90
-16777216
102
RTVSPost2010PropOp51
 70
     0
102
RTVSPost2010Prop52
140
1.0
102
RTVSPost2010PropOp52
 70
     0
102
RTVSPost2010Prop53
 90
        2
102
RTVSPost2010PropOp53
 70
     1
102
RTVSPost2010Prop54
  1
strokes_ogs.tif
102
RTVSPost2010PropOp54
 70
     1
102
RTVSPost2010Prop55
280
     0
102
RTVSPost2010PropOp55
 70
     1
102
RTVSPost2010Prop56
140
1.0
102
RTVSPost2010PropOp56
 70
     1
102
RTVSPost2010Prop57
140
1.0
102
RTVSPost2010PropOp57
 70
     1
102
RTVSPropertyOp0
 70
     1
102
RTVSPropertyOp1
 70
     1
102
RTVSPropertyOp2
 70
     1
102
RTVSPropertyOp3
 70
     1
102
RTVSPropertyOp4
 70
     1
102
RTVSPropertyOp5
 70
     1
102
RTVSPropertyOp6
 70
     1
102
RTVSPropertyOp7
 70
     1
102
RTVSPropertyOp8
 70
     1
102
RTVSPropertyOp9
 70
     1
102
RTVSPropertyOp10
 70
     1
102
RTVSPropertyOp11
 70
     1
102
RTVSPropertyOp12
 70
     1
102
RTVSPropertyOp13
 70
     1
102
RTVSPropertyOp14
 70
     1
102
RTVSPropertyOp15
 70
     1
102
RTVSPropertyOp16
 70
     1
102
RTVSPropertyOp17
 70
     1
102
RTVSPropertyOp18
 70
     1
102
RTVSPropertyOp19
 70
     1
102
RTVSPropertyOp20
 70
     1
102
RTVSPropertyOp21
 70
     1
102
RTVSPropertyOp22
 70
     1
102
RTVSPropertyOp23
 70
     1
102
RTVSPropertyOp24
 70
     1
102
RTVSPropertyOp25
 70
     1
102
RTVSPropertyOp26
 70
     1
102
RTVSPropertyOp27
 70
     1
102
RTVSPropertyOp28
 70
     1
102
RTVSPropertyOp29
 70
     1
102
RTVSPropertyOp30
 70
     1
102
RTVSPropertyOp31
 70
     1
102
RTVSPropertyOp32
 70
     1
102
RTVSPropertyOp33
 70
     1
102
RTVSPropertyOp34
 70
     1
102
RTVSPropertyOp35
 70
     1
102
RTVSPropertyOp36
 70
     1
102
RTVSPropertyOp37
 70
     1
102
RTVSPropertyOp38
 70
     1
102
RTVSPropertyOp39
 70
     1
102
RTVSPropertyOp40
 70
     1
102
RTVSPropertyOp41
 70
     1
102
RTVSPropertyOp42
 70
     1
102
RTVSPropertyOp43
 70
     1
102
RTVSPropertyOp44
 70
     1
102
RTVSPropertyOp45
 70
     1
102
RTVSPropertyOp46
 70
     1
102
RTVSPropertyOp47
 70
     1
102
RTVSPropertyOp48
 70
     1
102
RTVSPropertyOp49
 70
     1
102
RTVSPropertyOp50
 70
     1
102
RTVSPropertyOp51
 70
     0
102
RTVSPropertyOp52
 70
     0
102
RTVSPropertyOp53
 70
     1
102
RTVSPropertyOp54
 70
     1
102
RTVSPropertyOp55
 70
     1
102
RTVSPropertyOp56
 70
     1
102
RTVSPropertyOp57
 70
     1
102
RTVSPropertyOp58
 70
     1
102
RTVSPropertyOp59
 70
     1
102
RTVSPropertyOp60
 70
     1
102
RTVSPropertyOp61
 70
     1
102
RTVSPropertyOp62
 70
     1
  0
XRECORD
  5
8EE
102
{ACAD_REACTORS
330
8ED
102
}
330
8ED
100
AcDbXrecord
280
     1
102
RTVSPost2010Prop28
280
     0
102
RTVSPost2010PropOp28
 70
     1
102
RTVSPost2010Prop29
280
     1
102
RTVSPost2010PropOp29
 70
     1
102
RTVSPost2010Prop30
280
     1
102
RTVSPost2010PropOp30
 70
     1
102
RTVSPost2010Prop31
280
     0
102
RTVSPost2010PropOp31
 70
     1
102
RTVSPost2010Prop32
280
     0
102
RTVSPost2010PropOp32
 70
     1
102
RTVSPost2010Prop33
280
     0
102
RTVSPost2010PropOp33
 70
     1
102
RTVSPost2010Prop34
280
     0
102
RTVSPost2010PropOp34
 70
     1
102
RTVSPost2010Prop35
280
     0
102
RTVSPost2010PropOp35
 70
     1
102
RTVSPost2010Prop36
280
     0
102
RTVSPost2010PropOp36
 70
     1
102
RTVSPost2010Prop37
 90
       50
102
RTVSPost2010PropOp37
 70
     1
102
RTVSPost2010Prop38
140
0.0
102
RTVSPost2010PropOp38
 70
     1
102
RTVSPost2010Prop39
140
1.0
102
RTVSPost2010PropOp39
 70
     1
102
RTVSPost2010Prop40
 90
        0
102
RTVSPost2010PropOp40
 70
     1
102
RTVSPost2010Prop41ColorIndex
 90
       18
102
RTVSPost2010Prop41ColorRGB
 90
        0
102
RTVSPost2010PropOp41
 70
     1
102
RTVSPost2010Prop42
 90
       50
102
RTVSPost2010PropOp42
 70
     1
102
RTVSPost2010Prop43
 90
        3
102
RTVSPost2010PropOp43
 70
     1
102
RTVSPost2010Prop44ColorIndex
 90
        5
102
RTVSPost2010Prop44ColorRGB
 90
      255
102
RTVSPost2010PropOp44
 70
     1
102
RTVSPost2010Prop45
280
     0
102
RTVSPost2010PropOp45
 70
     1
102
RTVSPost2010Prop46
 90
       50
102
RTVSPost2010PropOp46
 70
     1
102
RTVSPost2010Prop47
 90
       50
102
RTVSPost2010PropOp47
 70
     1
102
RTVSPost2010Prop48
 90
       50
102
RTVSPost2010PropOp48
 70
     1
102
RTVSPost2010Prop49
280
     0
102
RTVSPost2010PropOp49
 70
     1
102
RTVSPost2010Prop50
 90
       50
102
RTVSPost2010PropOp50
 70
     1
102
RTVSPost2010Prop51ColorIndex
 90
      256
102
RTVSPost2010Prop51ColorRGB
 90
-16777216
102
RTVSPost2010PropOp51
 70
     0
102
RTVSPost2010Prop52
140
1.0
102
RTVSPost2010PropOp52
 70
     0
102
RTVSPost2010Prop53
 90
        2
102
RTVSPost2010PropOp53
 70
     1
102
RTVSPost2010Prop54
  1
strokes_ogs.tif
102
RTVSPost2010PropOp54
 70
     1
102
RTVSPost2010Prop55
280
     0
102
RTVSPost2010PropOp55
 70
     1
102
RTVSPost2010Prop56
140
1.0
102
RTVSPost2010PropOp56
 70
     1
102
RTVSPost2010Prop57
140
1.0
102
RTVSPost2010PropOp57
 70
     1
102
RTVSPropertyOp0
 70
     1
102
RTVSPropertyOp1
 70
     1
102
RTVSPropertyOp2
 70
     1
102
RTVSPropertyOp3
 70
     1
102
RTVSPropertyOp4
 70
     1
102
RTVSPropertyOp5
 70
     1
102
RTVSPropertyOp6
 70
     1
102
RTVSPropertyOp7
 70
     1
102
RTVSPropertyOp8
 70
     1
102
RTVSPropertyOp9
 70
     1
102
RTVSPropertyOp10
 70
     1
102
RTVSPropertyOp11
 70
     1
102
RTVSPropertyOp12
 70
     1
102
RTVSPropertyOp13
 70
     1
102
RTVSPropertyOp14
 70
     1
102
RTVSPropertyOp15
 70
     1
102
RTVSPropertyOp16
 70
     1
102
RTVSPropertyOp17
 70
     1
102
RTVSPropertyOp18
 70
     1
102
RTVSPropertyOp19
 70
     1
102
RTVSPropertyOp20
 70
     1
102
RTVSPropertyOp21
 70
     1
102
RTVSPropertyOp22
 70
     1
102
RTVSPropertyOp23
 70
     1
102
RTVSPropertyOp24
 70
     1
102
RTVSPropertyOp25
 70
     1
102
RTVSPropertyOp26
 70
     1
102
RTVSPropertyOp27
 70
     1
102
RTVSPropertyOp28
 70
     1
102
RTVSPropertyOp29
 70
     1
102
RTVSPropertyOp30
 70
     1
102
RTVSPropertyOp31
 70
     1
102
RTVSPropertyOp32
 70
     1
102
RTVSPropertyOp33
 70
     1
102
RTVSPropertyOp34
 70
     1
102
RTVSPropertyOp35
 70
     1
102
RTVSPropertyOp36
 70
     1
102
RTVSPropertyOp37
 70
     1
102
RTVSPropertyOp38
 70
     1
102
RTVSPropertyOp39
 70
     1
102
RTVSPropertyOp40
 70
     1
102
RTVSPropertyOp41
 70
     1
102
RTVSPropertyOp42
 70
     1
102
RTVSPropertyOp43
 70
     1
102
RTVSPropertyOp44
 70
     1
102
RTVSPropertyOp45
 70
     1
102
RTVSPropertyOp46
 70
     1
102
RTVSPropertyOp47
 70
     1
102
RTVSPropertyOp48
 70
     1
102
RTVSPropertyOp49
 70
     1
102
RTVSPropertyOp50
 70
     1
102
RTVSPropertyOp51
 70
     0
102
RTVSPropertyOp52
 70
     0
102
RTVSPropertyOp53
 70
     1
102
RTVSPropertyOp54
 70
     1
102
RTVSPropertyOp55
 70
     1
102
RTVSPropertyOp56
 70
     1
102
RTVSPropertyOp57
 70
     1
102
RTVSPropertyOp58
 70
     1
102
RTVSPropertyOp59
 70
     1
102
RTVSPropertyOp60
 70
     1
102
RTVSPropertyOp61
 70
     1
102
RTVSPropertyOp62
 70
     1
  0
XRECORD
  5
8F6
102
{ACAD_REACTORS
330
8F5
102
}
330
8F5
100
AcDbXrecord
280
     1
102
RTVSPost2010Prop28
280
     0
102
RTVSPost2010PropOp28
 70
     1
102
RTVSPost2010Prop29
280
     1
102
RTVSPost2010PropOp29
 70
     1
102
RTVSPost2010Prop30
280
     1
102
RTVSPost2010PropOp30
 70
     1
102
RTVSPost2010Prop31
280
     0
102
RTVSPost2010PropOp31
 70
     1
102
RTVSPost2010Prop32
280
     0
102
RTVSPost2010PropOp32
 70
     1
102
RTVSPost2010Prop33
280
     0
102
RTVSPost2010PropOp33
 70
     1
102
RTVSPost2010Prop34
280
     0
102
RTVSPost2010PropOp34
 70
     1
102
RTVSPost2010Prop35
280
     0
102
RTVSPost2010PropOp35
 70
     1
102
RTVSPost2010Prop36
280
     0
102
RTVSPost2010PropOp36
 70
     1
102
RTVSPost2010Prop37
 90
       50
102
RTVSPost2010PropOp37
 70
     1
102
RTVSPost2010Prop38
140
0.0
102
RTVSPost2010PropOp38
 70
     1
102
RTVSPost2010Prop39
140
1.0
102
RTVSPost2010PropOp39
 70
     1
102
RTVSPost2010Prop40
 90
        0
102
RTVSPost2010PropOp40
 70
     1
102
RTVSPost2010Prop41ColorIndex
 90
       18
102
RTVSPost2010Prop41ColorRGB
 90
        0
102
RTVSPost2010PropOp41
 70
     1
102
RTVSPost2010Prop42
 90
       50
102
RTVSPost2010PropOp42
 70
     1
102
RTVSPost2010Prop43
 90
        3
102
RTVSPost2010PropOp43
 70
     1
102
RTVSPost2010Prop44ColorIndex
 90
        5
102
RTVSPost2010Prop44ColorRGB
 90
      255
102
RTVSPost2010PropOp44
 70
     1
102
RTVSPost2010Prop45
280
     0
102
RTVSPost2010PropOp45
 70
     1
102
RTVSPost2010Prop46
 90
       50
102
RTVSPost2010PropOp46
 70
     1
102
RTVSPost2010Prop47
 90
       50
102
RTVSPost2010PropOp47
 70
     1
102
RTVSPost2010Prop48
 90
       50
102
RTVSPost2010PropOp48
 70
     1
102
RTVSPost2010Prop49
280
     0
102
RTVSPost2010PropOp49
 70
     1
102
RTVSPost2010Prop50
 90
       50
102
RTVSPost2010PropOp50
 70
     1
102
RTVSPost2010Prop51ColorIndex
 90
      256
102
RTVSPost2010Prop51ColorRGB
 90
-16777216
102
RTVSPost2010PropOp51
 70
     0
102
RTVSPost2010Prop52
140
1.0
102
RTVSPost2010PropOp52
 70
     0
102
RTVSPost2010Prop53
 90
        2
102
RTVSPost2010PropOp53
 70
     1
102
RTVSPost2010Prop54
  1
strokes_ogs.tif
102
RTVSPost2010PropOp54
 70
     1
102
RTVSPost2010Prop55
280
     0
102
RTVSPost2010PropOp55
 70
     1
102
RTVSPost2010Prop56
140
1.0
102
RTVSPost2010PropOp56
 70
     1
102
RTVSPost2010Prop57
140
1.0
102
RTVSPost2010PropOp57
 70
     1
102
RTVSPropertyOp0
 70
     1
102
RTVSPropertyOp1
 70
     1
102
RTVSPropertyOp2
 70
     1
102
RTVSPropertyOp3
 70
     1
102
RTVSPropertyOp4
 70
     1
102
RTVSPropertyOp5
 70
     1
102
RTVSPropertyOp6
 70
     1
102
RTVSPropertyOp7
 70
     1
102
RTVSPropertyOp8
 70
     1
102
RTVSPropertyOp9
 70
     1
102
RTVSPropertyOp10
 70
     1
102
RTVSPropertyOp11
 70
     1
102
RTVSPropertyOp12
 70
     1
102
RTVSPropertyOp13
 70
     1
102
RTVSPropertyOp14
 70
     1
102
RTVSPropertyOp15
 70
     1
102
RTVSPropertyOp16
 70
     1
102
RTVSPropertyOp17
 70
     1
102
RTVSPropertyOp18
 70
     1
102
RTVSPropertyOp19
 70
     1
102
RTVSPropertyOp20
 70
     1
102
RTVSPropertyOp21
 70
     1
102
RTVSPropertyOp22
 70
     1
102
RTVSPropertyOp23
 70
     1
102
RTVSPropertyOp24
 70
     1
102
RTVSPropertyOp25
 70
     1
102
RTVSPropertyOp26
 70
     1
102
RTVSPropertyOp27
 70
     1
102
RTVSPropertyOp28
 70
     1
102
RTVSPropertyOp29
 70
     1
102
RTVSPropertyOp30
 70
     1
102
RTVSPropertyOp31
 70
     1
102
RTVSPropertyOp32
 70
     1
102
RTVSPropertyOp33
 70
     1
102
RTVSPropertyOp34
 70
     1
102
RTVSPropertyOp35
 70
     1
102
RTVSPropertyOp36
 70
     1
102
RTVSPropertyOp37
 70
     1
102
RTVSPropertyOp38
 70
     1
102
RTVSPropertyOp39
 70
     1
102
RTVSPropertyOp40
 70
     1
102
RTVSPropertyOp41
 70
     1
102
RTVSPropertyOp42
 70
     1
102
RTVSPropertyOp43
 70
     1
102
RTVSPropertyOp44
 70
     1
102
RTVSPropertyOp45
 70
     1
102
RTVSPropertyOp46
 70
     1
102
RTVSPropertyOp47
 70
     1
102
RTVSPropertyOp48
 70
     1
102
RTVSPropertyOp49
 70
     1
102
RTVSPropertyOp50
 70
     1
102
RTVSPropertyOp51
 70
     0
102
RTVSPropertyOp52
 70
     0
102
RTVSPropertyOp53
 70
     1
102
RTVSPropertyOp54
 70
     1
102
RTVSPropertyOp55
 70
     1
102
RTVSPropertyOp56
 70
     1
102
RTVSPropertyOp57
 70
     1
102
RTVSPropertyOp58
 70
     1
102
RTVSPropertyOp59
 70
     1
102
RTVSPropertyOp60
 70
     1
102
RTVSPropertyOp61
 70
     1
102
RTVSPropertyOp62
 70
     1
  0
XRECORD
  5
912
102
{ACAD_REACTORS
330
911
102
}
330
911
100
AcDbXrecord
280
     1
102
RTVSPost2010Prop28
280
     0
102
RTVSPost2010PropOp28
 70
     1
102
RTVSPost2010Prop29
280
     1
102
RTVSPost2010PropOp29
 70
     1
102
RTVSPost2010Prop30
280
     1
102
RTVSPost2010PropOp30
 70
     1
102
RTVSPost2010Prop31
280
     0
102
RTVSPost2010PropOp31
 70
     1
102
RTVSPost2010Prop32
280
     0
102
RTVSPost2010PropOp32
 70
     1
102
RTVSPost2010Prop33
280
     0
102
RTVSPost2010PropOp33
 70
     1
102
RTVSPost2010Prop34
280
     0
102
RTVSPost2010PropOp34
 70
     1
102
RTVSPost2010Prop35
280
     0
102
RTVSPost2010PropOp35
 70
     1
102
RTVSPost2010Prop36
280
     0
102
RTVSPost2010PropOp36
 70
     1
102
RTVSPost2010Prop37
 90
       50
102
RTVSPost2010PropOp37
 70
     0
102
RTVSPost2010Prop38
140
0.0
102
RTVSPost2010PropOp38
 70
     0
102
RTVSPost2010Prop39
140
1.0
102
RTVSPost2010PropOp39
 70
     0
102
RTVSPost2010Prop40
 90
        0
102
RTVSPost2010PropOp40
 70
     0
102
RTVSPost2010Prop41ColorIndex
 90
       18
102
RTVSPost2010Prop41ColorRGB
 90
        0
102
RTVSPost2010PropOp41
 70
     0
102
RTVSPost2010Prop42
 90
       50
102
RTVSPost2010PropOp42
 70
     0
102
RTVSPost2010Prop43
 90
        3
102
RTVSPost2010PropOp43
 70
     0
102
RTVSPost2010Prop44ColorIndex
 90
        5
102
RTVSPost2010Prop44ColorRGB
 90
      255
102
RTVSPost2010PropOp44
 70
     0
102
RTVSPost2010Prop45
280
     0
102
RTVSPost2010PropOp45
 70
     1
102
RTVSPost2010Prop46
 90
       50
102
RTVSPost2010PropOp46
 70
     0
102
RTVSPost2010Prop47
 90
       50
102
RTVSPost2010PropOp47
 70
     0
102
RTVSPost2010Prop48
 90
       50
102
RTVSPost2010PropOp48
 70
     0
102
RTVSPost2010Prop49
280
     0
102
RTVSPost2010PropOp49
 70
     1
102
RTVSPost2010Prop50
 90
       50
102
RTVSPost2010PropOp50
 70
     0
102
RTVSPost2010Prop51ColorIndex
 90
      256
102
RTVSPost2010Prop51ColorRGB
 90
-16777216
102
RTVSPost2010PropOp51
 70
     0
102
RTVSPost2010Prop52
140
1.0
102
RTVSPost2010PropOp52
 70
     0
102
RTVSPost2010Prop53
 90
        2
102
RTVSPost2010PropOp53
 70
     0
102
RTVSPost2010Prop54
  1
strokes_ogs.tif
102
RTVSPost2010PropOp54
 70
     0
102
RTVSPost2010Prop55
280
     0
102
RTVSPost2010PropOp55
 70
     1
102
RTVSPost2010Prop56
140
1.0
102
RTVSPost2010PropOp56
 70
     0
102
RTVSPost2010Prop57
140
1.0
102
RTVSPost2010PropOp57
 70
     0
102
RTVSPropertyOp0
 70
     0
102
RTVSPropertyOp1
 70
     0
102
RTVSPropertyOp2
 70
     0
102
RTVSPropertyOp3
 70
     0
102
RTVSPropertyOp4
 70
     0
102
RTVSPropertyOp5
 70
     0
102
RTVSPropertyOp6
 70
     0
102
RTVSPropertyOp7
 70
     0
102
RTVSPropertyOp8
 70
     0
102
RTVSPropertyOp9
 70
     0
102
RTVSPropertyOp10
 70
     0
102
RTVSPropertyOp11
 70
     0
102
RTVSPropertyOp12
 70
     0
102
RTVSPropertyOp13
 70
     0
102
RTVSPropertyOp14
 70
     2
102
RTVSPropertyOp15
 70
     0
102
RTVSPropertyOp16
 70
     0
102
RTVSPropertyOp17
 70
     0
102
RTVSPropertyOp18
 70
     0
102
RTVSPropertyOp19
 70
     0
102
RTVSPropertyOp20
 70
     0
102
RTVSPropertyOp21
 70
     0
102
RTVSPropertyOp22
 70
     0
102
RTVSPropertyOp23
 70
     0
102
RTVSPropertyOp24
 70
     0
102
RTVSPropertyOp25
 70
     0
102
RTVSPropertyOp26
 70
     0
102
RTVSPropertyOp27
 70
     0
102
RTVSPropertyOp28
 70
     1
102
RTVSPropertyOp29
 70
     1
102
RTVSPropertyOp30
 70
     1
102
RTVSPropertyOp31
 70
     1
102
RTVSPropertyOp32
 70
     1
102
RTVSPropertyOp33
 70
     1
102
RTVSPropertyOp34
 70
     1
102
RTVSPropertyOp35
 70
     1
102
RTVSPropertyOp36
 70
     1
102
RTVSPropertyOp37
 70
     0
102
RTVSPropertyOp38
 70
     0
102
RTVSPropertyOp39
 70
     0
102
RTVSPropertyOp40
 70
     0
102
RTVSPropertyOp41
 70
     0
102
RTVSPropertyOp42
 70
     0
102
RTVSPropertyOp43
 70
     0
102
RTVSPropertyOp44
 70
     0
102
RTVSPropertyOp45
 70
     1
102
RTVSPropertyOp46
 70
     0
102
RTVSPropertyOp47
 70
     0
102
RTVSPropertyOp48
 70
     0
102
RTVSPropertyOp49
 70
     1
102
RTVSPropertyOp50
 70
     0
102
RTVSPropertyOp51
 70
     0
102
RTVSPropertyOp52
 70
     0
102
RTVSPropertyOp53
 70
     0
102
RTVSPropertyOp54
 70
     0
102
RTVSPropertyOp55
 70
     1
102
RTVSPropertyOp56
 70
     0
102
RTVSPropertyOp57
 70
     0
102
RTVSPropertyOp58
 70
     0
102
RTVSPropertyOp59
 70
     0
102
RTVSPropertyOp60
 70
     0
102
RTVSPropertyOp61
 70
     0
102
RTVSPropertyOp62
 70
     0
  0
XRECORD
  5
902
102
{ACAD_REACTORS
330
901
102
}
330
901
100
AcDbXrecord
280
     1
102
RTVSPost2010Prop28
280
     0
102
RTVSPost2010PropOp28
 70
     1
102
RTVSPost2010Prop29
280
     1
102
RTVSPost2010PropOp29
 70
     1
102
RTVSPost2010Prop30
280
     1
102
RTVSPost2010PropOp30
 70
     1
102
RTVSPost2010Prop31
280
     0
102
RTVSPost2010PropOp31
 70
     1
102
RTVSPost2010Prop32
280
     0
102
RTVSPost2010PropOp32
 70
     1
102
RTVSPost2010Prop33
280
     0
102
RTVSPost2010PropOp33
 70
     1
102
RTVSPost2010Prop34
280
     0
102
RTVSPost2010PropOp34
 70
     1
102
RTVSPost2010Prop35
280
     0
102
RTVSPost2010PropOp35
 70
     1
102
RTVSPost2010Prop36
280
     0
102
RTVSPost2010PropOp36
 70
     1
102
RTVSPost2010Prop37
 90
       50
102
RTVSPost2010PropOp37
 70
     1
102
RTVSPost2010Prop38
140
0.0
102
RTVSPost2010PropOp38
 70
     1
102
RTVSPost2010Prop39
140
1.0
102
RTVSPost2010PropOp39
 70
     1
102
RTVSPost2010Prop40
 90
        0
102
RTVSPost2010PropOp40
 70
     1
102
RTVSPost2010Prop41ColorIndex
 90
       18
102
RTVSPost2010Prop41ColorRGB
 90
        0
102
RTVSPost2010PropOp41
 70
     1
102
RTVSPost2010Prop42
 90
       50
102
RTVSPost2010PropOp42
 70
     1
102
RTVSPost2010Prop43
 90
        3
102
RTVSPost2010PropOp43
 70
     1
102
RTVSPost2010Prop44ColorIndex
 90
        5
102
RTVSPost2010Prop44ColorRGB
 90
      255
102
RTVSPost2010PropOp44
 70
     1
102
RTVSPost2010Prop45
280
     0
102
RTVSPost2010PropOp45
 70
     1
102
RTVSPost2010Prop46
 90
       50
102
RTVSPost2010PropOp46
 70
     1
102
RTVSPost2010Prop47
 90
       50
102
RTVSPost2010PropOp47
 70
     1
102
RTVSPost2010Prop48
 90
       50
102
RTVSPost2010PropOp48
 70
     1
102
RTVSPost2010Prop49
280
     0
102
RTVSPost2010PropOp49
 70
     1
102
RTVSPost2010Prop50
 90
       50
102
RTVSPost2010PropOp50
 70
     1
102
RTVSPost2010Prop51ColorIndex
 90
      256
102
RTVSPost2010Prop51ColorRGB
 90
-16777216
102
RTVSPost2010PropOp51
 70
     0
102
RTVSPost2010Prop52
140
1.0
102
RTVSPost2010PropOp52
 70
     0
102
RTVSPost2010Prop53
 90
        2
102
RTVSPost2010PropOp53
 70
     1
102
RTVSPost2010Prop54
  1
strokes_ogs.tif
102
RTVSPost2010PropOp54
 70
     1
102
RTVSPost2010Prop55
280
     0
102
RTVSPost2010PropOp55
 70
     1
102
RTVSPost2010Prop56
140
1.0
102
RTVSPost2010PropOp56
 70
     1
102
RTVSPost2010Prop57
140
1.0
102
RTVSPost2010PropOp57
 70
     1
102
RTVSPropertyOp0
 70
     1
102
RTVSPropertyOp1
 70
     1
102
RTVSPropertyOp2
 70
     1
102
RTVSPropertyOp3
 70
     1
102
RTVSPropertyOp4
 70
     1
102
RTVSPropertyOp5
 70
     1
102
RTVSPropertyOp6
 70
     1
102
RTVSPropertyOp7
 70
     1
102
RTVSPropertyOp8
 70
     1
102
RTVSPropertyOp9
 70
     1
102
RTVSPropertyOp10
 70
     1
102
RTVSPropertyOp11
 70
     1
102
RTVSPropertyOp12
 70
     1
102
RTVSPropertyOp13
 70
     1
102
RTVSPropertyOp14
 70
     1
102
RTVSPropertyOp15
 70
     1
102
RTVSPropertyOp16
 70
     1
102
RTVSPropertyOp17
 70
     1
102
RTVSPropertyOp18
 70
     1
102
RTVSPropertyOp19
 70
     1
102
RTVSPropertyOp20
 70
     1
102
RTVSPropertyOp21
 70
     1
102
RTVSPropertyOp22
 70
     1
102
RTVSPropertyOp23
 70
     1
102
RTVSPropertyOp24
 70
     1
102
RTVSPropertyOp25
 70
     1
102
RTVSPropertyOp26
 70
     1
102
RTVSPropertyOp27
 70
     1
102
RTVSPropertyOp28
 70
     1
102
RTVSPropertyOp29
 70
     1
102
RTVSPropertyOp30
 70
     1
102
RTVSPropertyOp31
 70
     1
102
RTVSPropertyOp32
 70
     1
102
RTVSPropertyOp33
 70
     1
102
RTVSPropertyOp34
 70
     1
102
RTVSPropertyOp35
 70
     1
102
RTVSPropertyOp36
 70
     1
102
RTVSPropertyOp37
 70
     1
102
RTVSPropertyOp38
 70
     1
102
RTVSPropertyOp39
 70
     1
102
RTVSPropertyOp40
 70
     1
102
RTVSPropertyOp41
 70
     1
102
RTVSPropertyOp42
 70
     1
102
RTVSPropertyOp43
 70
     1
102
RTVSPropertyOp44
 70
     1
102
RTVSPropertyOp45
 70
     1
102
RTVSPropertyOp46
 70
     1
102
RTVSPropertyOp47
 70
     1
102
RTVSPropertyOp48
 70
     1
102
RTVSPropertyOp49
 70
     1
102
RTVSPropertyOp50
 70
     1
102
RTVSPropertyOp51
 70
     0
102
RTVSPropertyOp52
 70
     0
102
RTVSPropertyOp53
 70
     1
102
RTVSPropertyOp54
 70
     1
102
RTVSPropertyOp55
 70
     1
102
RTVSPropertyOp56
 70
     1
102
RTVSPropertyOp57
 70
     1
102
RTVSPropertyOp58
 70
     1
102
RTVSPropertyOp59
 70
     1
102
RTVSPropertyOp60
 70
     1
102
RTVSPropertyOp61
 70
     1
102
RTVSPropertyOp62
 70
     1
  0
XRECORD
  5
914
102
{ACAD_REACTORS
330
913
102
}
330
913
100
AcDbXrecord
280
     1
102
RTVSPost2010Prop28
280
     0
102
RTVSPost2010PropOp28
 70
     1
102
RTVSPost2010Prop29
280
     1
102
RTVSPost2010PropOp29
 70
     1
102
RTVSPost2010Prop30
280
     1
102
RTVSPost2010PropOp30
 70
     1
102
RTVSPost2010Prop31
280
     0
102
RTVSPost2010PropOp31
 70
     1
102
RTVSPost2010Prop32
280
     0
102
RTVSPost2010PropOp32
 70
     1
102
RTVSPost2010Prop33
280
     0
102
RTVSPost2010PropOp33
 70
     1
102
RTVSPost2010Prop34
280
     0
102
RTVSPost2010PropOp34
 70
     1
102
RTVSPost2010Prop35
280
     0
102
RTVSPost2010PropOp35
 70
     1
102
RTVSPost2010Prop36
280
     0
102
RTVSPost2010PropOp36
 70
     1
102
RTVSPost2010Prop37
 90
       50
102
RTVSPost2010PropOp37
 70
     0
102
RTVSPost2010Prop38
140
0.0
102
RTVSPost2010PropOp38
 70
     0
102
RTVSPost2010Prop39
140
1.0
102
RTVSPost2010PropOp39
 70
     0
102
RTVSPost2010Prop40
 90
        0
102
RTVSPost2010PropOp40
 70
     0
102
RTVSPost2010Prop41ColorIndex
 90
       18
102
RTVSPost2010Prop41ColorRGB
 90
        0
102
RTVSPost2010PropOp41
 70
     0
102
RTVSPost2010Prop42
 90
       50
102
RTVSPost2010PropOp42
 70
     0
102
RTVSPost2010Prop43
 90
        3
102
RTVSPost2010PropOp43
 70
     0
102
RTVSPost2010Prop44ColorIndex
 90
        5
102
RTVSPost2010Prop44ColorRGB
 90
      255
102
RTVSPost2010PropOp44
 70
     0
102
RTVSPost2010Prop45
280
     0
102
RTVSPost2010PropOp45
 70
     1
102
RTVSPost2010Prop46
 90
       50
102
RTVSPost2010PropOp46
 70
     0
102
RTVSPost2010Prop47
 90
       50
102
RTVSPost2010PropOp47
 70
     0
102
RTVSPost2010Prop48
 90
       50
102
RTVSPost2010PropOp48
 70
     0
102
RTVSPost2010Prop49
280
     0
102
RTVSPost2010PropOp49
 70
     1
102
RTVSPost2010Prop50
 90
       50
102
RTVSPost2010PropOp50
 70
     0
102
RTVSPost2010Prop51ColorIndex
 90
      256
102
RTVSPost2010Prop51ColorRGB
 90
-16777216
102
RTVSPost2010PropOp51
 70
     0
102
RTVSPost2010Prop52
140
1.0
102
RTVSPost2010PropOp52
 70
     0
102
RTVSPost2010Prop53
 90
        2
102
RTVSPost2010PropOp53
 70
     0
102
RTVSPost2010Prop54
  1
strokes_ogs.tif
102
RTVSPost2010PropOp54
 70
     0
102
RTVSPost2010Prop55
280
     0
102
RTVSPost2010PropOp55
 70
     1
102
RTVSPost2010Prop56
140
1.0
102
RTVSPost2010PropOp56
 70
     0
102
RTVSPost2010Prop57
140
1.0
102
RTVSPost2010PropOp57
 70
     0
102
RTVSPropertyOp0
 70
     0
102
RTVSPropertyOp1
 70
     0
102
RTVSPropertyOp2
 70
     0
102
RTVSPropertyOp3
 70
     0
102
RTVSPropertyOp4
 70
     0
102
RTVSPropertyOp5
 70
     0
102
RTVSPropertyOp6
 70
     0
102
RTVSPropertyOp7
 70
     0
102
RTVSPropertyOp8
 70
     0
102
RTVSPropertyOp9
 70
     0
102
RTVSPropertyOp10
 70
     0
102
RTVSPropertyOp11
 70
     0
102
RTVSPropertyOp12
 70
     0
102
RTVSPropertyOp13
 70
     0
102
RTVSPropertyOp14
 70
     2
102
RTVSPropertyOp15
 70
     0
102
RTVSPropertyOp16
 70
     0
102
RTVSPropertyOp17
 70
     0
102
RTVSPropertyOp18
 70
     0
102
RTVSPropertyOp19
 70
     0
102
RTVSPropertyOp20
 70
     0
102
RTVSPropertyOp21
 70
     0
102
RTVSPropertyOp22
 70
     0
102
RTVSPropertyOp23
 70
     0
102
RTVSPropertyOp24
 70
     0
102
RTVSPropertyOp25
 70
     0
102
RTVSPropertyOp26
 70
     0
102
RTVSPropertyOp27
 70
     0
102
RTVSPropertyOp28
 70
     1
102
RTVSPropertyOp29
 70
     1
102
RTVSPropertyOp30
 70
     1
102
RTVSPropertyOp31
 70
     1
102
RTVSPropertyOp32
 70
     1
102
RTVSPropertyOp33
 70
     1
102
RTVSPropertyOp34
 70
     1
102
RTVSPropertyOp35
 70
     1
102
RTVSPropertyOp36
 70
     1
102
RTVSPropertyOp37
 70
     0
102
RTVSPropertyOp38
 70
     0
102
RTVSPropertyOp39
 70
     0
102
RTVSPropertyOp40
 70
     0
102
RTVSPropertyOp41
 70
     0
102
RTVSPropertyOp42
 70
     0
102
RTVSPropertyOp43
 70
     0
102
RTVSPropertyOp44
 70
     0
102
RTVSPropertyOp45
 70
     1
102
RTVSPropertyOp46
 70
     0
102
RTVSPropertyOp47
 70
     0
102
RTVSPropertyOp48
 70
     0
102
RTVSPropertyOp49
 70
     1
102
RTVSPropertyOp50
 70
     0
102
RTVSPropertyOp51
 70
     0
102
RTVSPropertyOp52
 70
     0
102
RTVSPropertyOp53
 70
     0
102
RTVSPropertyOp54
 70
     0
102
RTVSPropertyOp55
 70
     1
102
RTVSPropertyOp56
 70
     0
102
RTVSPropertyOp57
 70
     0
102
RTVSPropertyOp58
 70
     0
102
RTVSPropertyOp59
 70
     0
102
RTVSPropertyOp60
 70
     0
102
RTVSPropertyOp61
 70
     0
102
RTVSPropertyOp62
 70
     0
  0
XRECORD
  5
8FA
102
{ACAD_REACTORS
330
8F9
102
}
330
8F9
100
AcDbXrecord
280
     1
102
RTVSPost2010Prop28
280
     0
102
RTVSPost2010PropOp28
 70
     1
102
RTVSPost2010Prop29
280
     1
102
RTVSPost2010PropOp29
 70
     1
102
RTVSPost2010Prop30
280
     1
102
RTVSPost2010PropOp30
 70
     1
102
RTVSPost2010Prop31
280
     0
102
RTVSPost2010PropOp31
 70
     1
102
RTVSPost2010Prop32
280
     0
102
RTVSPost2010PropOp32
 70
     1
102
RTVSPost2010Prop33
280
     0
102
RTVSPost2010PropOp33
 70
     1
102
RTVSPost2010Prop34
280
     0
102
RTVSPost2010PropOp34
 70
     1
102
RTVSPost2010Prop35
280
     0
102
RTVSPost2010PropOp35
 70
     1
102
RTVSPost2010Prop36
280
     0
102
RTVSPost2010PropOp36
 70
     1
102
RTVSPost2010Prop37
 90
       50
102
RTVSPost2010PropOp37
 70
     1
102
RTVSPost2010Prop38
140
0.0
102
RTVSPost2010PropOp38
 70
     1
102
RTVSPost2010Prop39
140
1.0
102
RTVSPost2010PropOp39
 70
     1
102
RTVSPost2010Prop40
 90
        0
102
RTVSPost2010PropOp40
 70
     1
102
RTVSPost2010Prop41ColorIndex
 90
       18
102
RTVSPost2010Prop41ColorRGB
 90
        0
102
RTVSPost2010PropOp41
 70
     1
102
RTVSPost2010Prop42
 90
       50
102
RTVSPost2010PropOp42
 70
     1
102
RTVSPost2010Prop43
 90
        3
102
RTVSPost2010PropOp43
 70
     1
102
RTVSPost2010Prop44ColorIndex
 90
        5
102
RTVSPost2010Prop44ColorRGB
 90
      255
102
RTVSPost2010PropOp44
 70
     1
102
RTVSPost2010Prop45
280
     0
102
RTVSPost2010PropOp45
 70
     1
102
RTVSPost2010Prop46
 90
       50
102
RTVSPost2010PropOp46
 70
     1
102
RTVSPost2010Prop47
 90
       50
102
RTVSPost2010PropOp47
 70
     1
102
RTVSPost2010Prop48
 90
       50
102
RTVSPost2010PropOp48
 70
     1
102
RTVSPost2010Prop49
280
     0
102
RTVSPost2010PropOp49
 70
     1
102
RTVSPost2010Prop50
 90
       50
102
RTVSPost2010PropOp50
 70
     1
102
RTVSPost2010Prop51ColorIndex
 90
      256
102
RTVSPost2010Prop51ColorRGB
 90
-16777216
102
RTVSPost2010PropOp51
 70
     0
102
RTVSPost2010Prop52
140
1.0
102
RTVSPost2010PropOp52
 70
     0
102
RTVSPost2010Prop53
 90
        2
102
RTVSPost2010PropOp53
 70
     1
102
RTVSPost2010Prop54
  1
strokes_ogs.tif
102
RTVSPost2010PropOp54
 70
     1
102
RTVSPost2010Prop55
280
     0
102
RTVSPost2010PropOp55
 70
     1
102
RTVSPost2010Prop56
140
1.0
102
RTVSPost2010PropOp56
 70
     1
102
RTVSPost2010Prop57
140
1.0
102
RTVSPost2010PropOp57
 70
     1
102
RTVSPropertyOp0
 70
     1
102
RTVSPropertyOp1
 70
     1
102
RTVSPropertyOp2
 70
     1
102
RTVSPropertyOp3
 70
     1
102
RTVSPropertyOp4
 70
     1
102
RTVSPropertyOp5
 70
     1
102
RTVSPropertyOp6
 70
     1
102
RTVSPropertyOp7
 70
     1
102
RTVSPropertyOp8
 70
     1
102
RTVSPropertyOp9
 70
     1
102
RTVSPropertyOp10
 70
     1
102
RTVSPropertyOp11
 70
     1
102
RTVSPropertyOp12
 70
     1
102
RTVSPropertyOp13
 70
     1
102
RTVSPropertyOp14
 70
     1
102
RTVSPropertyOp15
 70
     1
102
RTVSPropertyOp16
 70
     1
102
RTVSPropertyOp17
 70
     1
102
RTVSPropertyOp18
 70
     1
102
RTVSPropertyOp19
 70
     1
102
RTVSPropertyOp20
 70
     1
102
RTVSPropertyOp21
 70
     1
102
RTVSPropertyOp22
 70
     1
102
RTVSPropertyOp23
 70
     1
102
RTVSPropertyOp24
 70
     1
102
RTVSPropertyOp25
 70
     1
102
RTVSPropertyOp26
 70
     1
102
RTVSPropertyOp27
 70
     1
102
RTVSPropertyOp28
 70
     1
102
RTVSPropertyOp29
 70
     1
102
RTVSPropertyOp30
 70
     1
102
RTVSPropertyOp31
 70
     1
102
RTVSPropertyOp32
 70
     1
102
RTVSPropertyOp33
 70
     1
102
RTVSPropertyOp34
 70
     1
102
RTVSPropertyOp35
 70
     1
102
RTVSPropertyOp36
 70
     1
102
RTVSPropertyOp37
 70
     1
102
RTVSPropertyOp38
 70
     1
102
RTVSPropertyOp39
 70
     1
102
RTVSPropertyOp40
 70
     1
102
RTVSPropertyOp41
 70
     1
102
RTVSPropertyOp42
 70
     1
102
RTVSPropertyOp43
 70
     1
102
RTVSPropertyOp44
 70
     1
102
RTVSPropertyOp45
 70
     1
102
RTVSPropertyOp46
 70
     1
102
RTVSPropertyOp47
 70
     1
102
RTVSPropertyOp48
 70
     1
102
RTVSPropertyOp49
 70
     1
102
RTVSPropertyOp50
 70
     1
102
RTVSPropertyOp51
 70
     0
102
RTVSPropertyOp52
 70
     0
102
RTVSPropertyOp53
 70
     1
102
RTVSPropertyOp54
 70
     1
102
RTVSPropertyOp55
 70
     1
102
RTVSPropertyOp56
 70
     1
102
RTVSPropertyOp57
 70
     1
102
RTVSPropertyOp58
 70
     1
102
RTVSPropertyOp59
 70
     1
102
RTVSPropertyOp60
 70
     1
102
RTVSPropertyOp61
 70
     1
102
RTVSPropertyOp62
 70
     1
  0
XRECORD
  5
910
102
{ACAD_REACTORS
330
90F
102
}
330
90F
100
AcDbXrecord
280
     1
102
RTVSPost2010Prop28
280
     0
102
RTVSPost2010PropOp28
 70
     1
102
RTVSPost2010Prop29
280
     1
102
RTVSPost2010PropOp29
 70
     1
102
RTVSPost2010Prop30
280
     1
102
RTVSPost2010PropOp30
 70
     1
102
RTVSPost2010Prop31
280
     0
102
RTVSPost2010PropOp31
 70
     1
102
RTVSPost2010Prop32
280
     0
102
RTVSPost2010PropOp32
 70
     1
102
RTVSPost2010Prop33
280
     0
102
RTVSPost2010PropOp33
 70
     1
102
RTVSPost2010Prop34
280
     0
102
RTVSPost2010PropOp34
 70
     1
102
RTVSPost2010Prop35
280
     0
102
RTVSPost2010PropOp35
 70
     1
102
RTVSPost2010Prop36
280
     0
102
RTVSPost2010PropOp36
 70
     1
102
RTVSPost2010Prop37
 90
       50
102
RTVSPost2010PropOp37
 70
     1
102
RTVSPost2010Prop38
140
0.0
102
RTVSPost2010PropOp38
 70
     1
102
RTVSPost2010Prop39
140
1.0
102
RTVSPost2010PropOp39
 70
     1
102
RTVSPost2010Prop40
 90
        0
102
RTVSPost2010PropOp40
 70
     1
102
RTVSPost2010Prop41ColorIndex
 90
       18
102
RTVSPost2010Prop41ColorRGB
 90
        0
102
RTVSPost2010PropOp41
 70
     1
102
RTVSPost2010Prop42
 90
       50
102
RTVSPost2010PropOp42
 70
     1
102
RTVSPost2010Prop43
 90
        3
102
RTVSPost2010PropOp43
 70
     1
102
RTVSPost2010Prop44ColorIndex
 90
        5
102
RTVSPost2010Prop44ColorRGB
 90
      255
102
RTVSPost2010PropOp44
 70
     1
102
RTVSPost2010Prop45
280
     0
102
RTVSPost2010PropOp45
 70
     1
102
RTVSPost2010Prop46
 90
       50
102
RTVSPost2010PropOp46
 70
     1
102
RTVSPost2010Prop47
 90
       50
102
RTVSPost2010PropOp47
 70
     1
102
RTVSPost2010Prop48
 90
       50
102
RTVSPost2010PropOp48
 70
     1
102
RTVSPost2010Prop49
280
     0
102
RTVSPost2010PropOp49
 70
     1
102
RTVSPost2010Prop50
 90
       50
102
RTVSPost2010PropOp50
 70
     1
102
RTVSPost2010Prop51ColorIndex
 90
      256
102
RTVSPost2010Prop51ColorRGB
 90
-16777216
102
RTVSPost2010PropOp51
 70
     0
102
RTVSPost2010Prop52
140
1.0
102
RTVSPost2010PropOp52
 70
     0
102
RTVSPost2010Prop53
 90
        2
102
RTVSPost2010PropOp53
 70
     1
102
RTVSPost2010Prop54
  1
strokes_ogs.tif
102
RTVSPost2010PropOp54
 70
     1
102
RTVSPost2010Prop55
280
     0
102
RTVSPost2010PropOp55
 70
     1
102
RTVSPost2010Prop56
140
1.0
102
RTVSPost2010PropOp56
 70
     1
102
RTVSPost2010Prop57
140
1.0
102
RTVSPost2010PropOp57
 70
     1
102
RTVSPropertyOp0
 70
     1
102
RTVSPropertyOp1
 70
     1
102
RTVSPropertyOp2
 70
     1
102
RTVSPropertyOp3
 70
     1
102
RTVSPropertyOp4
 70
     1
102
RTVSPropertyOp5
 70
     1
102
RTVSPropertyOp6
 70
     1
102
RTVSPropertyOp7
 70
     1
102
RTVSPropertyOp8
 70
     1
102
RTVSPropertyOp9
 70
     1
102
RTVSPropertyOp10
 70
     1
102
RTVSPropertyOp11
 70
     1
102
RTVSPropertyOp12
 70
     1
102
RTVSPropertyOp13
 70
     1
102
RTVSPropertyOp14
 70
     1
102
RTVSPropertyOp15
 70
     1
102
RTVSPropertyOp16
 70
     1
102
RTVSPropertyOp17
 70
     1
102
RTVSPropertyOp18
 70
     1
102
RTVSPropertyOp19
 70
     1
102
RTVSPropertyOp20
 70
     1
102
RTVSPropertyOp21
 70
     1
102
RTVSPropertyOp22
 70
     1
102
RTVSPropertyOp23
 70
     1
102
RTVSPropertyOp24
 70
     1
102
RTVSPropertyOp25
 70
     1
102
RTVSPropertyOp26
 70
     1
102
RTVSPropertyOp27
 70
     1
102
RTVSPropertyOp28
 70
     1
102
RTVSPropertyOp29
 70
     1
102
RTVSPropertyOp30
 70
     1
102
RTVSPropertyOp31
 70
     1
102
RTVSPropertyOp32
 70
     1
102
RTVSPropertyOp33
 70
     1
102
RTVSPropertyOp34
 70
     1
102
RTVSPropertyOp35
 70
     1
102
RTVSPropertyOp36
 70
     1
102
RTVSPropertyOp37
 70
     1
102
RTVSPropertyOp38
 70
     1
102
RTVSPropertyOp39
 70
     1
102
RTVSPropertyOp40
 70
     1
102
RTVSPropertyOp41
 70
     1
102
RTVSPropertyOp42
 70
     1
102
RTVSPropertyOp43
 70
     1
102
RTVSPropertyOp44
 70
     1
102
RTVSPropertyOp45
 70
     1
102
RTVSPropertyOp46
 70
     1
102
RTVSPropertyOp47
 70
     1
102
RTVSPropertyOp48
 70
     1
102
RTVSPropertyOp49
 70
     1
102
RTVSPropertyOp50
 70
     1
102
RTVSPropertyOp51
 70
     0
102
RTVSPropertyOp52
 70
     0
102
RTVSPropertyOp53
 70
     1
102
RTVSPropertyOp54
 70
     1
102
RTVSPropertyOp55
 70
     1
102
RTVSPropertyOp56
 70
     1
102
RTVSPropertyOp57
 70
     1
102
RTVSPropertyOp58
 70
     1
102
RTVSPropertyOp59
 70
     1
102
RTVSPropertyOp60
 70
     1
102
RTVSPropertyOp61
 70
     1
102
RTVSPropertyOp62
 70
     1
  0
XRECORD
  5
90E
102
{ACAD_REACTORS
330
90D
102
}
330
90D
100
AcDbXrecord
280
     1
102
RTVSPost2010Prop28
280
     0
102
RTVSPost2010PropOp28
 70
     1
102
RTVSPost2010Prop29
280
     1
102
RTVSPost2010PropOp29
 70
     1
102
RTVSPost2010Prop30
280
     1
102
RTVSPost2010PropOp30
 70
     1
102
RTVSPost2010Prop31
280
     0
102
RTVSPost2010PropOp31
 70
     1
102
RTVSPost2010Prop32
280
     0
102
RTVSPost2010PropOp32
 70
     1
102
RTVSPost2010Prop33
280
     0
102
RTVSPost2010PropOp33
 70
     1
102
RTVSPost2010Prop34
280
     0
102
RTVSPost2010PropOp34
 70
     1
102
RTVSPost2010Prop35
280
     0
102
RTVSPost2010PropOp35
 70
     1
102
RTVSPost2010Prop36
280
     0
102
RTVSPost2010PropOp36
 70
     1
102
RTVSPost2010Prop37
 90
       50
102
RTVSPost2010PropOp37
 70
     1
102
RTVSPost2010Prop38
140
0.0
102
RTVSPost2010PropOp38
 70
     1
102
RTVSPost2010Prop39
140
1.0
102
RTVSPost2010PropOp39
 70
     1
102
RTVSPost2010Prop40
 90
        0
102
RTVSPost2010PropOp40
 70
     1
102
RTVSPost2010Prop41ColorIndex
 90
       18
102
RTVSPost2010Prop41ColorRGB
 90
        0
102
RTVSPost2010PropOp41
 70
     1
102
RTVSPost2010Prop42
 90
       50
102
RTVSPost2010PropOp42
 70
     1
102
RTVSPost2010Prop43
 90
        3
102
RTVSPost2010PropOp43
 70
     1
102
RTVSPost2010Prop44ColorIndex
 90
        5
102
RTVSPost2010Prop44ColorRGB
 90
      255
102
RTVSPost2010PropOp44
 70
     1
102
RTVSPost2010Prop45
280
     0
102
RTVSPost2010PropOp45
 70
     1
102
RTVSPost2010Prop46
 90
       50
102
RTVSPost2010PropOp46
 70
     1
102
RTVSPost2010Prop47
 90
       50
102
RTVSPost2010PropOp47
 70
     1
102
RTVSPost2010Prop48
 90
       50
102
RTVSPost2010PropOp48
 70
     1
102
RTVSPost2010Prop49
280
     0
102
RTVSPost2010PropOp49
 70
     1
102
RTVSPost2010Prop50
 90
       50
102
RTVSPost2010PropOp50
 70
     1
102
RTVSPost2010Prop51ColorIndex
 90
      256
102
RTVSPost2010Prop51ColorRGB
 90
-16777216
102
RTVSPost2010PropOp51
 70
     0
102
RTVSPost2010Prop52
140
1.0
102
RTVSPost2010PropOp52
 70
     0
102
RTVSPost2010Prop53
 90
        2
102
RTVSPost2010PropOp53
 70
     1
102
RTVSPost2010Prop54
  1
strokes_ogs.tif
102
RTVSPost2010PropOp54
 70
     1
102
RTVSPost2010Prop55
280
     0
102
RTVSPost2010PropOp55
 70
     1
102
RTVSPost2010Prop56
140
1.0
102
RTVSPost2010PropOp56
 70
     1
102
RTVSPost2010Prop57
140
1.0
102
RTVSPost2010PropOp57
 70
     1
102
RTVSPropertyOp0
 70
     1
102
RTVSPropertyOp1
 70
     1
102
RTVSPropertyOp2
 70
     1
102
RTVSPropertyOp3
 70
     1
102
RTVSPropertyOp4
 70
     1
102
RTVSPropertyOp5
 70
     1
102
RTVSPropertyOp6
 70
     1
102
RTVSPropertyOp7
 70
     1
102
RTVSPropertyOp8
 70
     1
102
RTVSPropertyOp9
 70
     1
102
RTVSPropertyOp10
 70
     1
102
RTVSPropertyOp11
 70
     1
102
RTVSPropertyOp12
 70
     1
102
RTVSPropertyOp13
 70
     1
102
RTVSPropertyOp14
 70
     1
102
RTVSPropertyOp15
 70
     1
102
RTVSPropertyOp16
 70
     1
102
RTVSPropertyOp17
 70
     1
102
RTVSPropertyOp18
 70
     1
102
RTVSPropertyOp19
 70
     1
102
RTVSPropertyOp20
 70
     1
102
RTVSPropertyOp21
 70
     1
102
RTVSPropertyOp22
 70
     1
102
RTVSPropertyOp23
 70
     1
102
RTVSPropertyOp24
 70
     1
102
RTVSPropertyOp25
 70
     1
102
RTVSPropertyOp26
 70
     1
102
RTVSPropertyOp27
 70
     1
102
RTVSPropertyOp28
 70
     1
102
RTVSPropertyOp29
 70
     1
102
RTVSPropertyOp30
 70
     1
102
RTVSPropertyOp31
 70
     1
102
RTVSPropertyOp32
 70
     1
102
RTVSPropertyOp33
 70
     1
102
RTVSPropertyOp34
 70
     1
102
RTVSPropertyOp35
 70
     1
102
RTVSPropertyOp36
 70
     1
102
RTVSPropertyOp37
 70
     1
102
RTVSPropertyOp38
 70
     1
102
RTVSPropertyOp39
 70
     1
102
RTVSPropertyOp40
 70
     1
102
RTVSPropertyOp41
 70
     1
102
RTVSPropertyOp42
 70
     1
102
RTVSPropertyOp43
 70
     1
102
RTVSPropertyOp44
 70
     1
102
RTVSPropertyOp45
 70
     1
102
RTVSPropertyOp46
 70
     1
102
RTVSPropertyOp47
 70
     1
102
RTVSPropertyOp48
 70
     1
102
RTVSPropertyOp49
 70
     1
102
RTVSPropertyOp50
 70
     1
102
RTVSPropertyOp51
 70
     0
102
RTVSPropertyOp52
 70
     0
102
RTVSPropertyOp53
 70
     1
102
RTVSPropertyOp54
 70
     1
102
RTVSPropertyOp55
 70
     1
102
RTVSPropertyOp56
 70
     1
102
RTVSPropertyOp57
 70
     1
102
RTVSPropertyOp58
 70
     1
102
RTVSPropertyOp59
 70
     1
102
RTVSPropertyOp60
 70
     1
102
RTVSPropertyOp61
 70
     1
102
RTVSPropertyOp62
 70
     1
  0
XRECORD
  5
908
102
{ACAD_REACTORS
330
907
102
}
330
907
100
AcDbXrecord
280
     1
102
RTVSPost2010Prop28
280
     0
102
RTVSPost2010PropOp28
 70
     1
102
RTVSPost2010Prop29
280
     1
102
RTVSPost2010PropOp29
 70
     1
102
RTVSPost2010Prop30
280
     1
102
RTVSPost2010PropOp30
 70
     1
102
RTVSPost2010Prop31
280
     0
102
RTVSPost2010PropOp31
 70
     1
102
RTVSPost2010Prop32
280
     0
102
RTVSPost2010PropOp32
 70
     1
102
RTVSPost2010Prop33
280
     0
102
RTVSPost2010PropOp33
 70
     1
102
RTVSPost2010Prop34
280
     0
102
RTVSPost2010PropOp34
 70
     1
102
RTVSPost2010Prop35
280
     0
102
RTVSPost2010PropOp35
 70
     1
102
RTVSPost2010Prop36
280
     0
102
RTVSPost2010PropOp36
 70
     1
102
RTVSPost2010Prop37
 90
       50
102
RTVSPost2010PropOp37
 70
     1
102
RTVSPost2010Prop38
140
0.0
102
RTVSPost2010PropOp38
 70
     1
102
RTVSPost2010Prop39
140
1.0
102
RTVSPost2010PropOp39
 70
     1
102
RTVSPost2010Prop40
 90
        0
102
RTVSPost2010PropOp40
 70
     1
102
RTVSPost2010Prop41ColorIndex
 90
       18
102
RTVSPost2010Prop41ColorRGB
 90
        0
102
RTVSPost2010PropOp41
 70
     1
102
RTVSPost2010Prop42
 90
       50
102
RTVSPost2010PropOp42
 70
     1
102
RTVSPost2010Prop43
 90
        3
102
RTVSPost2010PropOp43
 70
     1
102
RTVSPost2010Prop44ColorIndex
 90
        5
102
RTVSPost2010Prop44ColorRGB
 90
      255
102
RTVSPost2010PropOp44
 70
     1
102
RTVSPost2010Prop45
280
     0
102
RTVSPost2010PropOp45
 70
     1
102
RTVSPost2010Prop46
 90
       50
102
RTVSPost2010PropOp46
 70
     1
102
RTVSPost2010Prop47
 90
       50
102
RTVSPost2010PropOp47
 70
     1
102
RTVSPost2010Prop48
 90
       50
102
RTVSPost2010PropOp48
 70
     1
102
RTVSPost2010Prop49
280
     0
102
RTVSPost2010PropOp49
 70
     1
102
RTVSPost2010Prop50
 90
       50
102
RTVSPost2010PropOp50
 70
     1
102
RTVSPost2010Prop51ColorIndex
 90
      256
102
RTVSPost2010Prop51ColorRGB
 90
-16777216
102
RTVSPost2010PropOp51
 70
     0
102
RTVSPost2010Prop52
140
1.0
102
RTVSPost2010PropOp52
 70
     0
102
RTVSPost2010Prop53
 90
        2
102
RTVSPost2010PropOp53
 70
     1
102
RTVSPost2010Prop54
  1
strokes_ogs.tif
102
RTVSPost2010PropOp54
 70
     1
102
RTVSPost2010Prop55
280
     0
102
RTVSPost2010PropOp55
 70
     1
102
RTVSPost2010Prop56
140
1.0
102
RTVSPost2010PropOp56
 70
     1
102
RTVSPost2010Prop57
140
1.0
102
RTVSPost2010PropOp57
 70
     1
102
RTVSPropertyOp0
 70
     1
102
RTVSPropertyOp1
 70
     1
102
RTVSPropertyOp2
 70
     1
102
RTVSPropertyOp3
 70
     1
102
RTVSPropertyOp4
 70
     1
102
RTVSPropertyOp5
 70
     1
102
RTVSPropertyOp6
 70
     1
102
RTVSPropertyOp7
 70
     1
102
RTVSPropertyOp8
 70
     1
102
RTVSPropertyOp9
 70
     1
102
RTVSPropertyOp10
 70
     1
102
RTVSPropertyOp11
 70
     1
102
RTVSPropertyOp12
 70
     1
102
RTVSPropertyOp13
 70
     1
102
RTVSPropertyOp14
 70
     1
102
RTVSPropertyOp15
 70
     1
102
RTVSPropertyOp16
 70
     1
102
RTVSPropertyOp17
 70
     1
102
RTVSPropertyOp18
 70
     1
102
RTVSPropertyOp19
 70
     1
102
RTVSPropertyOp20
 70
     1
102
RTVSPropertyOp21
 70
     1
102
RTVSPropertyOp22
 70
     1
102
RTVSPropertyOp23
 70
     1
102
RTVSPropertyOp24
 70
     1
102
RTVSPropertyOp25
 70
     1
102
RTVSPropertyOp26
 70
     1
102
RTVSPropertyOp27
 70
     1
102
RTVSPropertyOp28
 70
     1
102
RTVSPropertyOp29
 70
     1
102
RTVSPropertyOp30
 70
     1
102
RTVSPropertyOp31
 70
     1
102
RTVSPropertyOp32
 70
     1
102
RTVSPropertyOp33
 70
     1
102
RTVSPropertyOp34
 70
     1
102
RTVSPropertyOp35
 70
     1
102
RTVSPropertyOp36
 70
     1
102
RTVSPropertyOp37
 70
     1
102
RTVSPropertyOp38
 70
     1
102
RTVSPropertyOp39
 70
     1
102
RTVSPropertyOp40
 70
     1
102
RTVSPropertyOp41
 70
     1
102
RTVSPropertyOp42
 70
     1
102
RTVSPropertyOp43
 70
     1
102
RTVSPropertyOp44
 70
     1
102
RTVSPropertyOp45
 70
     1
102
RTVSPropertyOp46
 70
     1
102
RTVSPropertyOp47
 70
     1
102
RTVSPropertyOp48
 70
     1
102
RTVSPropertyOp49
 70
     1
102
RTVSPropertyOp50
 70
     1
102
RTVSPropertyOp51
 70
     0
102
RTVSPropertyOp52
 70
     0
102
RTVSPropertyOp53
 70
     1
102
RTVSPropertyOp54
 70
     1
102
RTVSPropertyOp55
 70
     1
102
RTVSPropertyOp56
 70
     1
102
RTVSPropertyOp57
 70
     1
102
RTVSPropertyOp58
 70
     1
102
RTVSPropertyOp59
 70
     1
102
RTVSPropertyOp60
 70
     1
102
RTVSPropertyOp61
 70
     1
102
RTVSPropertyOp62
 70
     1
  0
XRECORD
  5
90A
102
{ACAD_REACTORS
330
909
102
}
330
909
100
AcDbXrecord
280
     1
102
RTVSPost2010Prop28
280
     0
102
RTVSPost2010PropOp28
 70
     1
102
RTVSPost2010Prop29
280
     1
102
RTVSPost2010PropOp29
 70
     1
102
RTVSPost2010Prop30
280
     1
102
RTVSPost2010PropOp30
 70
     1
102
RTVSPost2010Prop31
280
     0
102
RTVSPost2010PropOp31
 70
     1
102
RTVSPost2010Prop32
280
     0
102
RTVSPost2010PropOp32
 70
     1
102
RTVSPost2010Prop33
280
     0
102
RTVSPost2010PropOp33
 70
     1
102
RTVSPost2010Prop34
280
     0
102
RTVSPost2010PropOp34
 70
     1
102
RTVSPost2010Prop35
280
     0
102
RTVSPost2010PropOp35
 70
     1
102
RTVSPost2010Prop36
280
     0
102
RTVSPost2010PropOp36
 70
     1
102
RTVSPost2010Prop37
 90
       50
102
RTVSPost2010PropOp37
 70
     1
102
RTVSPost2010Prop38
140
0.0
102
RTVSPost2010PropOp38
 70
     1
102
RTVSPost2010Prop39
140
1.0
102
RTVSPost2010PropOp39
 70
     1
102
RTVSPost2010Prop40
 90
        0
102
RTVSPost2010PropOp40
 70
     1
102
RTVSPost2010Prop41ColorIndex
 90
       18
102
RTVSPost2010Prop41ColorRGB
 90
        0
102
RTVSPost2010PropOp41
 70
     1
102
RTVSPost2010Prop42
 90
       50
102
RTVSPost2010PropOp42
 70
     1
102
RTVSPost2010Prop43
 90
        3
102
RTVSPost2010PropOp43
 70
     1
102
RTVSPost2010Prop44ColorIndex
 90
        5
102
RTVSPost2010Prop44ColorRGB
 90
      255
102
RTVSPost2010PropOp44
 70
     1
102
RTVSPost2010Prop45
280
     0
102
RTVSPost2010PropOp45
 70
     1
102
RTVSPost2010Prop46
 90
       50
102
RTVSPost2010PropOp46
 70
     1
102
RTVSPost2010Prop47
 90
       50
102
RTVSPost2010PropOp47
 70
     1
102
RTVSPost2010Prop48
 90
       50
102
RTVSPost2010PropOp48
 70
     1
102
RTVSPost2010Prop49
280
     0
102
RTVSPost2010PropOp49
 70
     1
102
RTVSPost2010Prop50
 90
       50
102
RTVSPost2010PropOp50
 70
     1
102
RTVSPost2010Prop51ColorIndex
 90
      256
102
RTVSPost2010Prop51ColorRGB
 90
-16777216
102
RTVSPost2010PropOp51
 70
     0
102
RTVSPost2010Prop52
140
1.0
102
RTVSPost2010PropOp52
 70
     0
102
RTVSPost2010Prop53
 90
        2
102
RTVSPost2010PropOp53
 70
     1
102
RTVSPost2010Prop54
  1
strokes_ogs.tif
102
RTVSPost2010PropOp54
 70
     1
102
RTVSPost2010Prop55
280
     0
102
RTVSPost2010PropOp55
 70
     1
102
RTVSPost2010Prop56
140
1.0
102
RTVSPost2010PropOp56
 70
     1
102
RTVSPost2010Prop57
140
1.0
102
RTVSPost2010PropOp57
 70
     1
102
RTVSPropertyOp0
 70
     1
102
RTVSPropertyOp1
 70
     1
102
RTVSPropertyOp2
 70
     1
102
RTVSPropertyOp3
 70
     1
102
RTVSPropertyOp4
 70
     1
102
RTVSPropertyOp5
 70
     1
102
RTVSPropertyOp6
 70
     1
102
RTVSPropertyOp7
 70
     1
102
RTVSPropertyOp8
 70
     1
102
RTVSPropertyOp9
 70
     1
102
RTVSPropertyOp10
 70
     1
102
RTVSPropertyOp11
 70
     1
102
RTVSPropertyOp12
 70
     1
102
RTVSPropertyOp13
 70
     1
102
RTVSPropertyOp14
 70
     1
102
RTVSPropertyOp15
 70
     1
102
RTVSPropertyOp16
 70
     1
102
RTVSPropertyOp17
 70
     1
102
RTVSPropertyOp18
 70
     1
102
RTVSPropertyOp19
 70
     1
102
RTVSPropertyOp20
 70
     1
102
RTVSPropertyOp21
 70
     1
102
RTVSPropertyOp22
 70
     1
102
RTVSPropertyOp23
 70
     1
102
RTVSPropertyOp24
 70
     1
102
RTVSPropertyOp25
 70
     1
102
RTVSPropertyOp26
 70
     1
102
RTVSPropertyOp27
 70
     1
102
RTVSPropertyOp28
 70
     1
102
RTVSPropertyOp29
 70
     1
102
RTVSPropertyOp30
 70
     1
102
RTVSPropertyOp31
 70
     1
102
RTVSPropertyOp32
 70
     1
102
RTVSPropertyOp33
 70
     1
102
RTVSPropertyOp34
 70
     1
102
RTVSPropertyOp35
 70
     1
102
RTVSPropertyOp36
 70
     1
102
RTVSPropertyOp37
 70
     1
102
RTVSPropertyOp38
 70
     1
102
RTVSPropertyOp39
 70
     1
102
RTVSPropertyOp40
 70
     1
102
RTVSPropertyOp41
 70
     1
102
RTVSPropertyOp42
 70
     1
102
RTVSPropertyOp43
 70
     1
102
RTVSPropertyOp44
 70
     1
102
RTVSPropertyOp45
 70
     1
102
RTVSPropertyOp46
 70
     1
102
RTVSPropertyOp47
 70
     1
102
RTVSPropertyOp48
 70
     1
102
RTVSPropertyOp49
 70
     1
102
RTVSPropertyOp50
 70
     1
102
RTVSPropertyOp51
 70
     0
102
RTVSPropertyOp52
 70
     0
102
RTVSPropertyOp53
 70
     1
102
RTVSPropertyOp54
 70
     1
102
RTVSPropertyOp55
 70
     1
102
RTVSPropertyOp56
 70
     1
102
RTVSPropertyOp57
 70
     1
102
RTVSPropertyOp58
 70
     1
102
RTVSPropertyOp59
 70
     1
102
RTVSPropertyOp60
 70
     1
102
RTVSPropertyOp61
 70
     1
102
RTVSPropertyOp62
 70
     1
  0
XRECORD
  5
900
102
{ACAD_REACTORS
330
8FF
102
}
330
8FF
100
AcDbXrecord
280
     1
102
RTVSPost2010Prop28
280
     0
102
RTVSPost2010PropOp28
 70
     1
102
RTVSPost2010Prop29
280
     1
102
RTVSPost2010PropOp29
 70
     1
102
RTVSPost2010Prop30
280
     1
102
RTVSPost2010PropOp30
 70
     1
102
RTVSPost2010Prop31
280
     0
102
RTVSPost2010PropOp31
 70
     1
102
RTVSPost2010Prop32
280
     0
102
RTVSPost2010PropOp32
 70
     1
102
RTVSPost2010Prop33
280
     0
102
RTVSPost2010PropOp33
 70
     1
102
RTVSPost2010Prop34
280
     0
102
RTVSPost2010PropOp34
 70
     1
102
RTVSPost2010Prop35
280
     0
102
RTVSPost2010PropOp35
 70
     1
102
RTVSPost2010Prop36
280
     0
102
RTVSPost2010PropOp36
 70
     1
102
RTVSPost2010Prop37
 90
       50
102
RTVSPost2010PropOp37
 70
     1
102
RTVSPost2010Prop38
140
0.0
102
RTVSPost2010PropOp38
 70
     1
102
RTVSPost2010Prop39
140
1.0
102
RTVSPost2010PropOp39
 70
     1
102
RTVSPost2010Prop40
 90
        0
102
RTVSPost2010PropOp40
 70
     1
102
RTVSPost2010Prop41ColorIndex
 90
       18
102
RTVSPost2010Prop41ColorRGB
 90
        0
102
RTVSPost2010PropOp41
 70
     1
102
RTVSPost2010Prop42
 90
       50
102
RTVSPost2010PropOp42
 70
     1
102
RTVSPost2010Prop43
 90
        3
102
RTVSPost2010PropOp43
 70
     1
102
RTVSPost2010Prop44ColorIndex
 90
        5
102
RTVSPost2010Prop44ColorRGB
 90
      255
102
RTVSPost2010PropOp44
 70
     1
102
RTVSPost2010Prop45
280
     0
102
RTVSPost2010PropOp45
 70
     1
102
RTVSPost2010Prop46
 90
       50
102
RTVSPost2010PropOp46
 70
     1
102
RTVSPost2010Prop47
 90
       50
102
RTVSPost2010PropOp47
 70
     1
102
RTVSPost2010Prop48
 90
       50
102
RTVSPost2010PropOp48
 70
     1
102
RTVSPost2010Prop49
280
     0
102
RTVSPost2010PropOp49
 70
     1
102
RTVSPost2010Prop50
 90
       50
102
RTVSPost2010PropOp50
 70
     1
102
RTVSPost2010Prop51ColorIndex
 90
      256
102
RTVSPost2010Prop51ColorRGB
 90
-16777216
102
RTVSPost2010PropOp51
 70
     0
102
RTVSPost2010Prop52
140
1.0
102
RTVSPost2010PropOp52
 70
     0
102
RTVSPost2010Prop53
 90
        2
102
RTVSPost2010PropOp53
 70
     1
102
RTVSPost2010Prop54
  1
strokes_ogs.tif
102
RTVSPost2010PropOp54
 70
     1
102
RTVSPost2010Prop55
280
     0
102
RTVSPost2010PropOp55
 70
     1
102
RTVSPost2010Prop56
140
1.0
102
RTVSPost2010PropOp56
 70
     1
102
RTVSPost2010Prop57
140
1.0
102
RTVSPost2010PropOp57
 70
     1
102
RTVSPropertyOp0
 70
     1
102
RTVSPropertyOp1
 70
     1
102
RTVSPropertyOp2
 70
     1
102
RTVSPropertyOp3
 70
     1
102
RTVSPropertyOp4
 70
     1
102
RTVSPropertyOp5
 70
     1
102
RTVSPropertyOp6
 70
     1
102
RTVSPropertyOp7
 70
     1
102
RTVSPropertyOp8
 70
     1
102
RTVSPropertyOp9
 70
     1
102
RTVSPropertyOp10
 70
     1
102
RTVSPropertyOp11
 70
     1
102
RTVSPropertyOp12
 70
     1
102
RTVSPropertyOp13
 70
     1
102
RTVSPropertyOp14
 70
     1
102
RTVSPropertyOp15
 70
     1
102
RTVSPropertyOp16
 70
     1
102
RTVSPropertyOp17
 70
     1
102
RTVSPropertyOp18
 70
     1
102
RTVSPropertyOp19
 70
     1
102
RTVSPropertyOp20
 70
     1
102
RTVSPropertyOp21
 70
     1
102
RTVSPropertyOp22
 70
     1
102
RTVSPropertyOp23
 70
     1
102
RTVSPropertyOp24
 70
     1
102
RTVSPropertyOp25
 70
     1
102
RTVSPropertyOp26
 70
     1
102
RTVSPropertyOp27
 70
     1
102
RTVSPropertyOp28
 70
     1
102
RTVSPropertyOp29
 70
     1
102
RTVSPropertyOp30
 70
     1
102
RTVSPropertyOp31
 70
     1
102
RTVSPropertyOp32
 70
     1
102
RTVSPropertyOp33
 70
     1
102
RTVSPropertyOp34
 70
     1
102
RTVSPropertyOp35
 70
     1
102
RTVSPropertyOp36
 70
     1
102
RTVSPropertyOp37
 70
     1
102
RTVSPropertyOp38
 70
     1
102
RTVSPropertyOp39
 70
     1
102
RTVSPropertyOp40
 70
     1
102
RTVSPropertyOp41
 70
     1
102
RTVSPropertyOp42
 70
     1
102
RTVSPropertyOp43
 70
     1
102
RTVSPropertyOp44
 70
     1
102
RTVSPropertyOp45
 70
     1
102
RTVSPropertyOp46
 70
     1
102
RTVSPropertyOp47
 70
     1
102
RTVSPropertyOp48
 70
     1
102
RTVSPropertyOp49
 70
     1
102
RTVSPropertyOp50
 70
     1
102
RTVSPropertyOp51
 70
     0
102
RTVSPropertyOp52
 70
     0
102
RTVSPropertyOp53
 70
     1
102
RTVSPropertyOp54
 70
     1
102
RTVSPropertyOp55
 70
     1
102
RTVSPropertyOp56
 70
     1
102
RTVSPropertyOp57
 70
     1
102
RTVSPropertyOp58
 70
     1
102
RTVSPropertyOp59
 70
     1
102
RTVSPropertyOp60
 70
     1
102
RTVSPropertyOp61
 70
     1
102
RTVSPropertyOp62
 70
     1
  0
XRECORD
  5
8F4
102
{ACAD_REACTORS
330
8F3
102
}
330
8F3
100
AcDbXrecord
280
     1
102
RTVSPost2010Prop28
280
     0
102
RTVSPost2010PropOp28
 70
     1
102
RTVSPost2010Prop29
280
     1
102
RTVSPost2010PropOp29
 70
     1
102
RTVSPost2010Prop30
280
     1
102
RTVSPost2010PropOp30
 70
     1
102
RTVSPost2010Prop31
280
     0
102
RTVSPost2010PropOp31
 70
     1
102
RTVSPost2010Prop32
280
     0
102
RTVSPost2010PropOp32
 70
     1
102
RTVSPost2010Prop33
280
     0
102
RTVSPost2010PropOp33
 70
     1
102
RTVSPost2010Prop34
280
     0
102
RTVSPost2010PropOp34
 70
     1
102
RTVSPost2010Prop35
280
     0
102
RTVSPost2010PropOp35
 70
     1
102
RTVSPost2010Prop36
280
     0
102
RTVSPost2010PropOp36
 70
     1
102
RTVSPost2010Prop37
 90
       50
102
RTVSPost2010PropOp37
 70
     1
102
RTVSPost2010Prop38
140
0.0
102
RTVSPost2010PropOp38
 70
     1
102
RTVSPost2010Prop39
140
1.0
102
RTVSPost2010PropOp39
 70
     1
102
RTVSPost2010Prop40
 90
        0
102
RTVSPost2010PropOp40
 70
     1
102
RTVSPost2010Prop41ColorIndex
 90
       18
102
RTVSPost2010Prop41ColorRGB
 90
        0
102
RTVSPost2010PropOp41
 70
     1
102
RTVSPost2010Prop42
 90
       50
102
RTVSPost2010PropOp42
 70
     1
102
RTVSPost2010Prop43
 90
        3
102
RTVSPost2010PropOp43
 70
     1
102
RTVSPost2010Prop44ColorIndex
 90
        5
102
RTVSPost2010Prop44ColorRGB
 90
      255
102
RTVSPost2010PropOp44
 70
     1
102
RTVSPost2010Prop45
280
     0
102
RTVSPost2010PropOp45
 70
     1
102
RTVSPost2010Prop46
 90
       50
102
RTVSPost2010PropOp46
 70
     1
102
RTVSPost2010Prop47
 90
       50
102
RTVSPost2010PropOp47
 70
     1
102
RTVSPost2010Prop48
 90
       50
102
RTVSPost2010PropOp48
 70
     1
102
RTVSPost2010Prop49
280
     0
102
RTVSPost2010PropOp49
 70
     1
102
RTVSPost2010Prop50
 90
       50
102
RTVSPost2010PropOp50
 70
     1
102
RTVSPost2010Prop51ColorIndex
 90
      256
102
RTVSPost2010Prop51ColorRGB
 90
-16777216
102
RTVSPost2010PropOp51
 70
     0
102
RTVSPost2010Prop52
140
1.0
102
RTVSPost2010PropOp52
 70
     0
102
RTVSPost2010Prop53
 90
        2
102
RTVSPost2010PropOp53
 70
     1
102
RTVSPost2010Prop54
  1
strokes_ogs.tif
102
RTVSPost2010PropOp54
 70
     1
102
RTVSPost2010Prop55
280
     0
102
RTVSPost2010PropOp55
 70
     1
102
RTVSPost2010Prop56
140
1.0
102
RTVSPost2010PropOp56
 70
     1
102
RTVSPost2010Prop57
140
1.0
102
RTVSPost2010PropOp57
 70
     1
102
RTVSPropertyOp0
 70
     1
102
RTVSPropertyOp1
 70
     1
102
RTVSPropertyOp2
 70
     1
102
RTVSPropertyOp3
 70
     1
102
RTVSPropertyOp4
 70
     1
102
RTVSPropertyOp5
 70
     1
102
RTVSPropertyOp6
 70
     1
102
RTVSPropertyOp7
 70
     1
102
RTVSPropertyOp8
 70
     1
102
RTVSPropertyOp9
 70
     1
102
RTVSPropertyOp10
 70
     1
102
RTVSPropertyOp11
 70
     1
102
RTVSPropertyOp12
 70
     1
102
RTVSPropertyOp13
 70
     1
102
RTVSPropertyOp14
 70
     1
102
RTVSPropertyOp15
 70
     1
102
RTVSPropertyOp16
 70
     1
102
RTVSPropertyOp17
 70
     1
102
RTVSPropertyOp18
 70
     1
102
RTVSPropertyOp19
 70
     1
102
RTVSPropertyOp20
 70
     1
102
RTVSPropertyOp21
 70
     1
102
RTVSPropertyOp22
 70
     1
102
RTVSPropertyOp23
 70
     1
102
RTVSPropertyOp24
 70
     1
102
RTVSPropertyOp25
 70
     1
102
RTVSPropertyOp26
 70
     1
102
RTVSPropertyOp27
 70
     1
102
RTVSPropertyOp28
 70
     1
102
RTVSPropertyOp29
 70
     1
102
RTVSPropertyOp30
 70
     1
102
RTVSPropertyOp31
 70
     1
102
RTVSPropertyOp32
 70
     1
102
RTVSPropertyOp33
 70
     1
102
RTVSPropertyOp34
 70
     1
102
RTVSPropertyOp35
 70
     1
102
RTVSPropertyOp36
 70
     1
102
RTVSPropertyOp37
 70
     1
102
RTVSPropertyOp38
 70
     1
102
RTVSPropertyOp39
 70
     1
102
RTVSPropertyOp40
 70
     1
102
RTVSPropertyOp41
 70
     1
102
RTVSPropertyOp42
 70
     1
102
RTVSPropertyOp43
 70
     1
102
RTVSPropertyOp44
 70
     1
102
RTVSPropertyOp45
 70
     1
102
RTVSPropertyOp46
 70
     1
102
RTVSPropertyOp47
 70
     1
102
RTVSPropertyOp48
 70
     1
102
RTVSPropertyOp49
 70
     1
102
RTVSPropertyOp50
 70
     1
102
RTVSPropertyOp51
 70
     0
102
RTVSPropertyOp52
 70
     0
102
RTVSPropertyOp53
 70
     1
102
RTVSPropertyOp54
 70
     1
102
RTVSPropertyOp55
 70
     1
102
RTVSPropertyOp56
 70
     1
102
RTVSPropertyOp57
 70
     1
102
RTVSPropertyOp58
 70
     1
102
RTVSPropertyOp59
 70
     1
102
RTVSPropertyOp60
 70
     1
102
RTVSPropertyOp61
 70
     1
102
RTVSPropertyOp62
 70
     1
  0
XRECORD
  5
90C
102
{ACAD_REACTORS
330
90B
102
}
330
90B
100
AcDbXrecord
280
     1
102
RTVSPost2010Prop28
280
     0
102
RTVSPost2010PropOp28
 70
     1
102
RTVSPost2010Prop29
280
     1
102
RTVSPost2010PropOp29
 70
     1
102
RTVSPost2010Prop30
280
     1
102
RTVSPost2010PropOp30
 70
     1
102
RTVSPost2010Prop31
280
     0
102
RTVSPost2010PropOp31
 70
     1
102
RTVSPost2010Prop32
280
     0
102
RTVSPost2010PropOp32
 70
     1
102
RTVSPost2010Prop33
280
     0
102
RTVSPost2010PropOp33
 70
     1
102
RTVSPost2010Prop34
280
     0
102
RTVSPost2010PropOp34
 70
     1
102
RTVSPost2010Prop35
280
     0
102
RTVSPost2010PropOp35
 70
     1
102
RTVSPost2010Prop36
280
     0
102
RTVSPost2010PropOp36
 70
     1
102
RTVSPost2010Prop37
 90
       50
102
RTVSPost2010PropOp37
 70
     1
102
RTVSPost2010Prop38
140
0.0
102
RTVSPost2010PropOp38
 70
     1
102
RTVSPost2010Prop39
140
1.0
102
RTVSPost2010PropOp39
 70
     1
102
RTVSPost2010Prop40
 90
        0
102
RTVSPost2010PropOp40
 70
     1
102
RTVSPost2010Prop41ColorIndex
 90
       18
102
RTVSPost2010Prop41ColorRGB
 90
        0
102
RTVSPost2010PropOp41
 70
     1
102
RTVSPost2010Prop42
 90
       50
102
RTVSPost2010PropOp42
 70
     1
102
RTVSPost2010Prop43
 90
        3
102
RTVSPost2010PropOp43
 70
     1
102
RTVSPost2010Prop44ColorIndex
 90
        5
102
RTVSPost2010Prop44ColorRGB
 90
      255
102
RTVSPost2010PropOp44
 70
     1
102
RTVSPost2010Prop45
280
     0
102
RTVSPost2010PropOp45
 70
     1
102
RTVSPost2010Prop46
 90
       50
102
RTVSPost2010PropOp46
 70
     1
102
RTVSPost2010Prop47
 90
       50
102
RTVSPost2010PropOp47
 70
     1
102
RTVSPost2010Prop48
 90
       50
102
RTVSPost2010PropOp48
 70
     1
102
RTVSPost2010Prop49
280
     0
102
RTVSPost2010PropOp49
 70
     1
102
RTVSPost2010Prop50
 90
       50
102
RTVSPost2010PropOp50
 70
     1
102
RTVSPost2010Prop51ColorIndex
 90
      256
102
RTVSPost2010Prop51ColorRGB
 90
-16777216
102
RTVSPost2010PropOp51
 70
     0
102
RTVSPost2010Prop52
140
1.0
102
RTVSPost2010PropOp52
 70
     0
102
RTVSPost2010Prop53
 90
        2
102
RTVSPost2010PropOp53
 70
     1
102
RTVSPost2010Prop54
  1
strokes_ogs.tif
102
RTVSPost2010PropOp54
 70
     1
102
RTVSPost2010Prop55
280
     0
102
RTVSPost2010PropOp55
 70
     1
102
RTVSPost2010Prop56
140
1.0
102
RTVSPost2010PropOp56
 70
     1
102
RTVSPost2010Prop57
140
1.0
102
RTVSPost2010PropOp57
 70
     1
102
RTVSPropertyOp0
 70
     1
102
RTVSPropertyOp1
 70
     1
102
RTVSPropertyOp2
 70
     1
102
RTVSPropertyOp3
 70
     1
102
RTVSPropertyOp4
 70
     1
102
RTVSPropertyOp5
 70
     1
102
RTVSPropertyOp6
 70
     1
102
RTVSPropertyOp7
 70
     1
102
RTVSPropertyOp8
 70
     1
102
RTVSPropertyOp9
 70
     1
102
RTVSPropertyOp10
 70
     1
102
RTVSPropertyOp11
 70
     1
102
RTVSPropertyOp12
 70
     1
102
RTVSPropertyOp13
 70
     1
102
RTVSPropertyOp14
 70
     1
102
RTVSPropertyOp15
 70
     1
102
RTVSPropertyOp16
 70
     1
102
RTVSPropertyOp17
 70
     1
102
RTVSPropertyOp18
 70
     1
102
RTVSPropertyOp19
 70
     1
102
RTVSPropertyOp20
 70
     1
102
RTVSPropertyOp21
 70
     1
102
RTVSPropertyOp22
 70
     1
102
RTVSPropertyOp23
 70
     1
102
RTVSPropertyOp24
 70
     1
102
RTVSPropertyOp25
 70
     1
102
RTVSPropertyOp26
 70
     1
102
RTVSPropertyOp27
 70
     1
102
RTVSPropertyOp28
 70
     1
102
RTVSPropertyOp29
 70
     1
102
RTVSPropertyOp30
 70
     1
102
RTVSPropertyOp31
 70
     1
102
RTVSPropertyOp32
 70
     1
102
RTVSPropertyOp33
 70
     1
102
RTVSPropertyOp34
 70
     1
102
RTVSPropertyOp35
 70
     1
102
RTVSPropertyOp36
 70
     1
102
RTVSPropertyOp37
 70
     1
102
RTVSPropertyOp38
 70
     1
102
RTVSPropertyOp39
 70
     1
102
RTVSPropertyOp40
 70
     1
102
RTVSPropertyOp41
 70
     1
102
RTVSPropertyOp42
 70
     1
102
RTVSPropertyOp43
 70
     1
102
RTVSPropertyOp44
 70
     1
102
RTVSPropertyOp45
 70
     1
102
RTVSPropertyOp46
 70
     1
102
RTVSPropertyOp47
 70
     1
102
RTVSPropertyOp48
 70
     1
102
RTVSPropertyOp49
 70
     1
102
RTVSPropertyOp50
 70
     1
102
RTVSPropertyOp51
 70
     0
102
RTVSPropertyOp52
 70
     0
102
RTVSPropertyOp53
 70
     1
102
RTVSPropertyOp54
 70
     1
102
RTVSPropertyOp55
 70
     1
102
RTVSPropertyOp56
 70
     1
102
RTVSPropertyOp57
 70
     1
102
RTVSPropertyOp58
 70
     1
102
RTVSPropertyOp59
 70
     1
102
RTVSPropertyOp60
 70
     1
102
RTVSPropertyOp61
 70
     1
102
RTVSPropertyOp62
 70
     1
  0
ENDSEC
  0
EOF
