ISO-10303-21;
HEADER;
/* Generated by software containing ST-Developer
 * from STEP Tools, Inc. (www.steptools.com) 
 */
/* OPTION: strings as raw bytes, not using required /X/ escapes */

FILE_DESCRIPTION(
/* description */ ('Unknown'),
/* implementation_level */ '2;1');

FILE_NAME(
/* name */ '337020000',
/* time_stamp */ '2020-07-10T09:35:46+02:00',
/* author */ ('WTO KS'),
/* organization */ ('WTO'),
/* preprocessor_version */ 'ST-DEVELOPER v16.7',
/* originating_system */ 'DEX',
/* authorisation */ $);

FILE_SCHEMA (('AUTOMOTIVE_DESIGN {1 0 10303 214 3 1 1}'));
ENDSEC;

DATA;
#10=PROPERTY_DEFINITION_REPRESENTATION(#14,#12);
#11=PROPERTY_DEFINITION_REPRESENTATION(#15,#13);
#12=REPRESENTATION('',(#16),#585);
#13=REPRESENTATION('',(#17),#585);
#14=PROPERTY_DEFINITION('pmi validation property','',#592);
#15=PROPERTY_DEFINITION('pmi validation property','',#592);
#16=VALUE_REPRESENTATION_ITEM('number of annotations',COUNT_MEASURE(0.));
#17=VALUE_REPRESENTATION_ITEM('number of views',COUNT_MEASURE(0.));
#18=CONTEXT_DEPENDENT_SHAPE_REPRESENTATION(#20,#594);
#19=NEXT_ASSEMBLY_USAGE_OCCURRENCE('090336_337020000_00275871',
'090336_337020000_00275871','090336_337020000_00275871',#595,#596,'');
#20=(
REPRESENTATION_RELATIONSHIP(' ',' ',#329,#330)
REPRESENTATION_RELATIONSHIP_WITH_TRANSFORMATION(#21)
SHAPE_REPRESENTATION_RELATIONSHIP()
);
#21=ITEM_DEFINED_TRANSFORMATION(' ',' ',#331,#370);
#22=SHAPE_REPRESENTATION_RELATIONSHIP('','',#329,#23);
#23=ADVANCED_BREP_SHAPE_REPRESENTATION('',(#326),#586);
#24=LINE('',#553,#36);
#25=LINE('',#555,#37);
#26=LINE('',#557,#38);
#27=LINE('',#559,#39);
#28=LINE('',#561,#40);
#29=LINE('',#563,#41);
#30=LINE('',#565,#42);
#31=LINE('',#567,#43);
#32=LINE('',#569,#44);
#33=LINE('',#571,#45);
#34=LINE('',#573,#46);
#35=LINE('',#575,#47);
#36=VECTOR('',#429,1000.);
#37=VECTOR('',#430,1000.);
#38=VECTOR('',#431,1000.);
#39=VECTOR('',#434,1000.);
#40=VECTOR('',#435,1000.);
#41=VECTOR('',#438,1000.);
#42=VECTOR('',#439,1000.);
#43=VECTOR('',#442,1000.);
#44=VECTOR('',#443,1000.);
#45=VECTOR('',#446,1000.);
#46=VECTOR('',#447,1000.);
#47=VECTOR('',#450,1000.);
#48=B_SPLINE_CURVE_WITH_KNOTS('',3,(#485,#486,#487,#488,#489,#490,#491),
 .UNSPECIFIED.,.F.,.F.,(4,1,1,1,4),(3.02861536713692E-7,0.000968968919224066,
0.00193763497691142,0.00290630103459877,0.00387496709228612),
 .UNSPECIFIED.);
#49=B_SPLINE_CURVE_WITH_KNOTS('',3,(#494,#495,#496,#497,#498,#499,#500),
 .UNSPECIFIED.,.F.,.F.,(4,1,1,1,4),(0.00196146768365697,0.00292549040778291,
0.00388951313190886,0.0048535358560348,0.00581755858016075),
 .UNSPECIFIED.);
#50=B_SPLINE_CURVE_WITH_KNOTS('',3,(#502,#503,#504,#505,#506,#507,#508),
 .UNSPECIFIED.,.F.,.F.,(4,1,1,1,4),(3.02861536713918E-7,0.000968968919224067,
0.00193763497691142,0.00290630103459877,0.00387496709228612),
 .UNSPECIFIED.);
#51=B_SPLINE_CURVE_WITH_KNOTS('',3,(#510,#511,#512,#513,#514,#515,#516),
 .UNSPECIFIED.,.F.,.F.,(4,1,1,1,4),(3.02861536713404E-7,0.000968968919224063,
0.00193763497691141,0.00290630103459876,0.00387496709228611),
 .UNSPECIFIED.);
#52=B_SPLINE_CURVE_WITH_KNOTS('',3,(#518,#519,#520,#521,#522,#523,#524),
 .UNSPECIFIED.,.F.,.F.,(4,1,1,1,4),(0.00196146768365705,0.002925490407783,
0.00388951313190895,0.00485353585603489,0.00581755858016084),
 .UNSPECIFIED.);
#53=B_SPLINE_CURVE_WITH_KNOTS('',3,(#526,#527,#528,#529,#530,#531,#532),
 .UNSPECIFIED.,.F.,.F.,(4,1,1,1,4),(3.02861536715203E-7,0.000968968919224065,
0.00193763497691142,0.00290630103459877,0.00387496709228612),
 .UNSPECIFIED.);
#54=CYLINDRICAL_SURFACE('',#339,16.5);
#55=CYLINDRICAL_SURFACE('',#352,16.);
#56=CYLINDRICAL_SURFACE('',#358,15.05);
#57=CYLINDRICAL_SURFACE('',#367,4.);
#58=CONICAL_SURFACE('',#337,16.2,0.785398163397443);
#59=CONICAL_SURFACE('',#341,16.5,0.785398163397443);
#60=CONICAL_SURFACE('',#345,3.5,0.5235987755983);
#61=CONICAL_SURFACE('',#350,14.7757350979541,0.785398163397448);
#62=CONICAL_SURFACE('',#354,16.,1.04719755119659);
#63=PLANE('',#335);
#64=PLANE('',#343);
#65=PLANE('',#346);
#66=PLANE('',#359);
#67=PLANE('',#360);
#68=PLANE('',#361);
#69=PLANE('',#362);
#70=PLANE('',#363);
#71=PLANE('',#364);
#72=PLANE('',#365);
#73=PLANE('',#369);
#74=ORIENTED_EDGE('',*,*,#140,.F.);
#75=ORIENTED_EDGE('',*,*,#141,.T.);
#76=ORIENTED_EDGE('',*,*,#142,.F.);
#77=ORIENTED_EDGE('',*,*,#140,.T.);
#78=ORIENTED_EDGE('',*,*,#143,.F.);
#79=ORIENTED_EDGE('',*,*,#142,.T.);
#80=ORIENTED_EDGE('',*,*,#144,.F.);
#81=ORIENTED_EDGE('',*,*,#143,.T.);
#82=ORIENTED_EDGE('',*,*,#145,.F.);
#83=ORIENTED_EDGE('',*,*,#144,.T.);
#84=ORIENTED_EDGE('',*,*,#146,.F.);
#85=ORIENTED_EDGE('',*,*,#145,.T.);
#86=ORIENTED_EDGE('',*,*,#147,.T.);
#87=ORIENTED_EDGE('',*,*,#148,.T.);
#88=ORIENTED_EDGE('',*,*,#149,.T.);
#89=ORIENTED_EDGE('',*,*,#150,.T.);
#90=ORIENTED_EDGE('',*,*,#151,.T.);
#91=ORIENTED_EDGE('',*,*,#152,.T.);
#92=ORIENTED_EDGE('',*,*,#146,.T.);
#93=ORIENTED_EDGE('',*,*,#153,.F.);
#94=ORIENTED_EDGE('',*,*,#154,.F.);
#95=ORIENTED_EDGE('',*,*,#153,.T.);
#96=ORIENTED_EDGE('',*,*,#155,.F.);
#97=ORIENTED_EDGE('',*,*,#154,.T.);
#98=ORIENTED_EDGE('',*,*,#156,.F.);
#99=ORIENTED_EDGE('',*,*,#155,.T.);
#100=ORIENTED_EDGE('',*,*,#157,.F.);
#101=ORIENTED_EDGE('',*,*,#156,.T.);
#102=ORIENTED_EDGE('',*,*,#158,.F.);
#103=ORIENTED_EDGE('',*,*,#157,.T.);
#104=ORIENTED_EDGE('',*,*,#141,.F.);
#105=ORIENTED_EDGE('',*,*,#158,.T.);
#106=ORIENTED_EDGE('',*,*,#159,.F.);
#107=ORIENTED_EDGE('',*,*,#160,.F.);
#108=ORIENTED_EDGE('',*,*,#161,.T.);
#109=ORIENTED_EDGE('',*,*,#150,.F.);
#110=ORIENTED_EDGE('',*,*,#162,.F.);
#111=ORIENTED_EDGE('',*,*,#163,.F.);
#112=ORIENTED_EDGE('',*,*,#159,.T.);
#113=ORIENTED_EDGE('',*,*,#149,.F.);
#114=ORIENTED_EDGE('',*,*,#164,.F.);
#115=ORIENTED_EDGE('',*,*,#165,.F.);
#116=ORIENTED_EDGE('',*,*,#162,.T.);
#117=ORIENTED_EDGE('',*,*,#148,.F.);
#118=ORIENTED_EDGE('',*,*,#166,.F.);
#119=ORIENTED_EDGE('',*,*,#167,.F.);
#120=ORIENTED_EDGE('',*,*,#164,.T.);
#121=ORIENTED_EDGE('',*,*,#147,.F.);
#122=ORIENTED_EDGE('',*,*,#168,.F.);
#123=ORIENTED_EDGE('',*,*,#169,.F.);
#124=ORIENTED_EDGE('',*,*,#166,.T.);
#125=ORIENTED_EDGE('',*,*,#152,.F.);
#126=ORIENTED_EDGE('',*,*,#161,.F.);
#127=ORIENTED_EDGE('',*,*,#170,.F.);
#128=ORIENTED_EDGE('',*,*,#168,.T.);
#129=ORIENTED_EDGE('',*,*,#151,.F.);
#130=ORIENTED_EDGE('',*,*,#171,.T.);
#131=ORIENTED_EDGE('',*,*,#171,.F.);
#132=ORIENTED_EDGE('',*,*,#172,.T.);
#133=ORIENTED_EDGE('',*,*,#172,.F.);
#134=ORIENTED_EDGE('',*,*,#170,.T.);
#135=ORIENTED_EDGE('',*,*,#160,.T.);
#136=ORIENTED_EDGE('',*,*,#163,.T.);
#137=ORIENTED_EDGE('',*,*,#165,.T.);
#138=ORIENTED_EDGE('',*,*,#167,.T.);
#139=ORIENTED_EDGE('',*,*,#169,.T.);
#140=EDGE_CURVE('',#173,#173,#200,.T.);
#141=EDGE_CURVE('',#174,#174,#201,.T.);
#142=EDGE_CURVE('',#175,#175,#202,.T.);
#143=EDGE_CURVE('',#176,#176,#203,.T.);
#144=EDGE_CURVE('',#177,#177,#204,.T.);
#145=EDGE_CURVE('',#178,#178,#205,.T.);
#146=EDGE_CURVE('',#179,#179,#206,.T.);
#147=EDGE_CURVE('',#180,#181,#48,.T.);
#148=EDGE_CURVE('',#181,#182,#49,.T.);
#149=EDGE_CURVE('',#182,#183,#50,.T.);
#150=EDGE_CURVE('',#183,#184,#51,.T.);
#151=EDGE_CURVE('',#184,#185,#52,.F.);
#152=EDGE_CURVE('',#185,#180,#53,.T.);
#153=EDGE_CURVE('',#186,#186,#207,.T.);
#154=EDGE_CURVE('',#187,#187,#208,.T.);
#155=EDGE_CURVE('',#188,#188,#209,.T.);
#156=EDGE_CURVE('',#189,#189,#210,.T.);
#157=EDGE_CURVE('',#190,#190,#211,.T.);
#158=EDGE_CURVE('',#191,#191,#212,.T.);
#159=EDGE_CURVE('',#192,#183,#24,.T.);
#160=EDGE_CURVE('',#193,#192,#25,.T.);
#161=EDGE_CURVE('',#193,#184,#26,.T.);
#162=EDGE_CURVE('',#194,#182,#27,.T.);
#163=EDGE_CURVE('',#192,#194,#28,.T.);
#164=EDGE_CURVE('',#195,#181,#29,.T.);
#165=EDGE_CURVE('',#194,#195,#30,.T.);
#166=EDGE_CURVE('',#196,#180,#31,.T.);
#167=EDGE_CURVE('',#195,#196,#32,.T.);
#168=EDGE_CURVE('',#197,#185,#33,.T.);
#169=EDGE_CURVE('',#196,#197,#34,.T.);
#170=EDGE_CURVE('',#197,#193,#35,.T.);
#171=EDGE_CURVE('',#198,#198,#213,.T.);
#172=EDGE_CURVE('',#199,#199,#214,.T.);
#173=VERTEX_POINT('',#466);
#174=VERTEX_POINT('',#468);
#175=VERTEX_POINT('',#471);
#176=VERTEX_POINT('',#474);
#177=VERTEX_POINT('',#477);
#178=VERTEX_POINT('',#480);
#179=VERTEX_POINT('',#483);
#180=VERTEX_POINT('',#492);
#181=VERTEX_POINT('',#493);
#182=VERTEX_POINT('',#501);
#183=VERTEX_POINT('',#509);
#184=VERTEX_POINT('',#517);
#185=VERTEX_POINT('',#525);
#186=VERTEX_POINT('',#535);
#187=VERTEX_POINT('',#538);
#188=VERTEX_POINT('',#541);
#189=VERTEX_POINT('',#544);
#190=VERTEX_POINT('',#547);
#191=VERTEX_POINT('',#550);
#192=VERTEX_POINT('',#554);
#193=VERTEX_POINT('',#556);
#194=VERTEX_POINT('',#560);
#195=VERTEX_POINT('',#564);
#196=VERTEX_POINT('',#568);
#197=VERTEX_POINT('',#572);
#198=VERTEX_POINT('',#578);
#199=VERTEX_POINT('',#581);
#200=CIRCLE('',#333,15.65);
#201=CIRCLE('',#334,15.05);
#202=CIRCLE('',#336,16.2);
#203=CIRCLE('',#338,16.5);
#204=CIRCLE('',#340,16.5);
#205=CIRCLE('',#342,16.2);
#206=CIRCLE('',#344,3.5);
#207=CIRCLE('',#347,14.3524710292422);
#208=CIRCLE('',#349,14.7757350979541);
#209=CIRCLE('',#351,16.);
#210=CIRCLE('',#353,16.);
#211=CIRCLE('',#355,15.35);
#212=CIRCLE('',#357,15.05);
#213=CIRCLE('',#366,4.);
#214=CIRCLE('',#368,4.);
#215=EDGE_LOOP('',(#74));
#216=EDGE_LOOP('',(#75));
#217=EDGE_LOOP('',(#76));
#218=EDGE_LOOP('',(#77));
#219=EDGE_LOOP('',(#78));
#220=EDGE_LOOP('',(#79));
#221=EDGE_LOOP('',(#80));
#222=EDGE_LOOP('',(#81));
#223=EDGE_LOOP('',(#82));
#224=EDGE_LOOP('',(#83));
#225=EDGE_LOOP('',(#84));
#226=EDGE_LOOP('',(#85));
#227=EDGE_LOOP('',(#86,#87,#88,#89,#90,#91));
#228=EDGE_LOOP('',(#92));
#229=EDGE_LOOP('',(#93));
#230=EDGE_LOOP('',(#94));
#231=EDGE_LOOP('',(#95));
#232=EDGE_LOOP('',(#96));
#233=EDGE_LOOP('',(#97));
#234=EDGE_LOOP('',(#98));
#235=EDGE_LOOP('',(#99));
#236=EDGE_LOOP('',(#100));
#237=EDGE_LOOP('',(#101));
#238=EDGE_LOOP('',(#102));
#239=EDGE_LOOP('',(#103));
#240=EDGE_LOOP('',(#104));
#241=EDGE_LOOP('',(#105));
#242=EDGE_LOOP('',(#106,#107,#108,#109));
#243=EDGE_LOOP('',(#110,#111,#112,#113));
#244=EDGE_LOOP('',(#114,#115,#116,#117));
#245=EDGE_LOOP('',(#118,#119,#120,#121));
#246=EDGE_LOOP('',(#122,#123,#124,#125));
#247=EDGE_LOOP('',(#126,#127,#128,#129));
#248=EDGE_LOOP('',(#130));
#249=EDGE_LOOP('',(#131));
#250=EDGE_LOOP('',(#132));
#251=EDGE_LOOP('',(#133));
#252=EDGE_LOOP('',(#134,#135,#136,#137,#138,#139));
#253=FACE_BOUND('',#215,.T.);
#254=FACE_BOUND('',#216,.T.);
#255=FACE_BOUND('',#217,.T.);
#256=FACE_BOUND('',#218,.T.);
#257=FACE_BOUND('',#219,.T.);
#258=FACE_BOUND('',#220,.T.);
#259=FACE_BOUND('',#221,.T.);
#260=FACE_BOUND('',#222,.T.);
#261=FACE_BOUND('',#223,.T.);
#262=FACE_BOUND('',#224,.T.);
#263=FACE_BOUND('',#225,.T.);
#264=FACE_BOUND('',#226,.T.);
#265=FACE_BOUND('',#227,.T.);
#266=FACE_BOUND('',#228,.T.);
#267=FACE_BOUND('',#229,.T.);
#268=FACE_BOUND('',#230,.T.);
#269=FACE_BOUND('',#231,.T.);
#270=FACE_BOUND('',#232,.T.);
#271=FACE_BOUND('',#233,.T.);
#272=FACE_BOUND('',#234,.T.);
#273=FACE_BOUND('',#235,.T.);
#274=FACE_BOUND('',#236,.T.);
#275=FACE_BOUND('',#237,.T.);
#276=FACE_BOUND('',#238,.T.);
#277=FACE_BOUND('',#239,.T.);
#278=FACE_BOUND('',#240,.T.);
#279=FACE_BOUND('',#241,.T.);
#280=FACE_BOUND('',#242,.T.);
#281=FACE_BOUND('',#243,.T.);
#282=FACE_BOUND('',#244,.T.);
#283=FACE_BOUND('',#245,.T.);
#284=FACE_BOUND('',#246,.T.);
#285=FACE_BOUND('',#247,.T.);
#286=FACE_BOUND('',#248,.T.);
#287=FACE_BOUND('',#249,.T.);
#288=FACE_BOUND('',#250,.T.);
#289=FACE_BOUND('',#251,.T.);
#290=FACE_BOUND('',#252,.T.);
#291=TOROIDAL_SURFACE('',#332,15.65,0.6);
#292=TOROIDAL_SURFACE('',#348,14.3514710292422,0.6);
#293=TOROIDAL_SURFACE('',#356,15.65,0.6);
#294=ADVANCED_FACE('',(#253,#254),#291,.F.);
#295=ADVANCED_FACE('',(#255,#256),#63,.F.);
#296=ADVANCED_FACE('',(#257,#258),#58,.T.);
#297=ADVANCED_FACE('',(#259,#260),#54,.T.);
#298=ADVANCED_FACE('',(#261,#262),#59,.T.);
#299=ADVANCED_FACE('',(#263,#264),#64,.F.);
#300=ADVANCED_FACE('',(#265,#266),#60,.F.);
#301=ADVANCED_FACE('',(#267),#65,.F.);
#302=ADVANCED_FACE('',(#268,#269),#292,.T.);
#303=ADVANCED_FACE('',(#270,#271),#61,.T.);
#304=ADVANCED_FACE('',(#272,#273),#55,.T.);
#305=ADVANCED_FACE('',(#274,#275),#62,.T.);
#306=ADVANCED_FACE('',(#276,#277),#293,.F.);
#307=ADVANCED_FACE('',(#278,#279),#56,.T.);
#308=ADVANCED_FACE('',(#280),#66,.F.);
#309=ADVANCED_FACE('',(#281),#67,.F.);
#310=ADVANCED_FACE('',(#282),#68,.F.);
#311=ADVANCED_FACE('',(#283),#69,.F.);
#312=ADVANCED_FACE('',(#284),#70,.F.);
#313=ADVANCED_FACE('',(#285),#71,.F.);
#314=ADVANCED_FACE('',(#286),#72,.F.);
#315=ADVANCED_FACE('',(#287,#288),#57,.F.);
#316=ADVANCED_FACE('',(#289,#290),#73,.F.);
#317=CLOSED_SHELL('',(#294,#295,#296,#297,#298,#299,#300,#301,#302,#303,
#304,#305,#306,#307,#308,#309,#310,#311,#312,#313,#314,#315,#316));
#318=STYLED_ITEM('',(#319),#326);
#319=PRESENTATION_STYLE_ASSIGNMENT((#320));
#320=SURFACE_STYLE_USAGE(.BOTH.,#321);
#321=SURFACE_SIDE_STYLE('',(#322));
#322=SURFACE_STYLE_FILL_AREA(#323);
#323=FILL_AREA_STYLE('',(#324));
#324=FILL_AREA_STYLE_COLOUR('',#325);
#325=COLOUR_RGB('',0.549019634723663,0.549019634723663,0.549019634723663);
#326=MANIFOLD_SOLID_BREP('',#317);
#327=SHAPE_DEFINITION_REPRESENTATION(#593,#329);
#328=SHAPE_DEFINITION_REPRESENTATION(#592,#330);
#329=SHAPE_REPRESENTATION('090336_337020000_00275871',(#331),#586);
#330=SHAPE_REPRESENTATION('090336_337020000_vereinfacht_STP_00415638',(#331,
#370),#585);
#331=AXIS2_PLACEMENT_3D('',#463,#371,#372);
#332=AXIS2_PLACEMENT_3D('',#464,#373,#374);
#333=AXIS2_PLACEMENT_3D('',#465,#375,#376);
#334=AXIS2_PLACEMENT_3D('',#467,#377,#378);
#335=AXIS2_PLACEMENT_3D('',#469,#379,#380);
#336=AXIS2_PLACEMENT_3D('',#470,#381,#382);
#337=AXIS2_PLACEMENT_3D('',#472,#383,#384);
#338=AXIS2_PLACEMENT_3D('',#473,#385,#386);
#339=AXIS2_PLACEMENT_3D('',#475,#387,#388);
#340=AXIS2_PLACEMENT_3D('',#476,#389,#390);
#341=AXIS2_PLACEMENT_3D('',#478,#391,#392);
#342=AXIS2_PLACEMENT_3D('',#479,#393,#394);
#343=AXIS2_PLACEMENT_3D('',#481,#395,#396);
#344=AXIS2_PLACEMENT_3D('',#482,#397,#398);
#345=AXIS2_PLACEMENT_3D('',#484,#399,#400);
#346=AXIS2_PLACEMENT_3D('',#533,#401,#402);
#347=AXIS2_PLACEMENT_3D('',#534,#403,#404);
#348=AXIS2_PLACEMENT_3D('',#536,#405,#406);
#349=AXIS2_PLACEMENT_3D('',#537,#407,#408);
#350=AXIS2_PLACEMENT_3D('',#539,#409,#410);
#351=AXIS2_PLACEMENT_3D('',#540,#411,#412);
#352=AXIS2_PLACEMENT_3D('',#542,#413,#414);
#353=AXIS2_PLACEMENT_3D('',#543,#415,#416);
#354=AXIS2_PLACEMENT_3D('',#545,#417,#418);
#355=AXIS2_PLACEMENT_3D('',#546,#419,#420);
#356=AXIS2_PLACEMENT_3D('',#548,#421,#422);
#357=AXIS2_PLACEMENT_3D('',#549,#423,#424);
#358=AXIS2_PLACEMENT_3D('',#551,#425,#426);
#359=AXIS2_PLACEMENT_3D('',#552,#427,#428);
#360=AXIS2_PLACEMENT_3D('',#558,#432,#433);
#361=AXIS2_PLACEMENT_3D('',#562,#436,#437);
#362=AXIS2_PLACEMENT_3D('',#566,#440,#441);
#363=AXIS2_PLACEMENT_3D('',#570,#444,#445);
#364=AXIS2_PLACEMENT_3D('',#574,#448,#449);
#365=AXIS2_PLACEMENT_3D('',#576,#451,#452);
#366=AXIS2_PLACEMENT_3D('',#577,#453,#454);
#367=AXIS2_PLACEMENT_3D('',#579,#455,#456);
#368=AXIS2_PLACEMENT_3D('',#580,#457,#458);
#369=AXIS2_PLACEMENT_3D('',#582,#459,#460);
#370=AXIS2_PLACEMENT_3D('',#583,#461,#462);
#371=DIRECTION('',(0.,0.,1.));
#372=DIRECTION('',(1.,0.,0.));
#373=DIRECTION('',(-1.,0.,0.));
#374=DIRECTION('',(0.,0.,1.));
#375=DIRECTION('',(-1.,0.,0.));
#376=DIRECTION('',(0.,0.,1.));
#377=DIRECTION('',(-1.,0.,0.));
#378=DIRECTION('',(0.,0.,1.));
#379=DIRECTION('',(-1.,0.,0.));
#380=DIRECTION('',(0.,0.,1.));
#381=DIRECTION('',(-1.,0.,0.));
#382=DIRECTION('',(0.,0.,1.));
#383=DIRECTION('',(-1.,0.,0.));
#384=DIRECTION('',(0.,0.,1.));
#385=DIRECTION('',(-1.,0.,0.));
#386=DIRECTION('',(0.,0.,1.));
#387=DIRECTION('',(-1.,0.,0.));
#388=DIRECTION('',(0.,0.,1.));
#389=DIRECTION('',(-1.,0.,0.));
#390=DIRECTION('',(0.,0.,1.));
#391=DIRECTION('',(1.,0.,0.));
#392=DIRECTION('',(0.,0.,-1.));
#393=DIRECTION('',(-1.,0.,0.));
#394=DIRECTION('',(0.,0.,1.));
#395=DIRECTION('',(1.,0.,0.));
#396=DIRECTION('',(0.,0.,-1.));
#397=DIRECTION('',(-1.,0.,0.));
#398=DIRECTION('',(0.,0.,1.));
#399=DIRECTION('',(-1.,0.,0.));
#400=DIRECTION('',(0.,0.,1.));
#401=DIRECTION('',(-1.,0.,0.));
#402=DIRECTION('',(0.,0.,1.));
#403=DIRECTION('',(-1.,0.,0.));
#404=DIRECTION('',(0.,0.,1.));
#405=DIRECTION('',(-1.,0.,0.));
#406=DIRECTION('',(0.,0.,1.));
#407=DIRECTION('',(-1.,0.,0.));
#408=DIRECTION('',(0.,0.,1.));
#409=DIRECTION('',(-1.,0.,0.));
#410=DIRECTION('',(0.,0.,1.));
#411=DIRECTION('',(-1.,0.,0.));
#412=DIRECTION('',(0.,0.,1.));
#413=DIRECTION('',(-1.,0.,0.));
#414=DIRECTION('',(0.,0.,1.));
#415=DIRECTION('',(-1.,0.,0.));
#416=DIRECTION('',(0.,0.,1.));
#417=DIRECTION('',(1.,0.,0.));
#418=DIRECTION('',(0.,0.,-1.));
#419=DIRECTION('',(-1.,0.,0.));
#420=DIRECTION('',(0.,0.,1.));
#421=DIRECTION('',(-1.,0.,0.));
#422=DIRECTION('',(0.,0.,1.));
#423=DIRECTION('',(-1.,0.,0.));
#424=DIRECTION('',(0.,0.,1.));
#425=DIRECTION('',(-1.,0.,0.));
#426=DIRECTION('',(0.,0.,1.));
#427=DIRECTION('',(0.,-0.5,0.866025403784438));
#428=DIRECTION('',(0.,-0.866025403784439,-0.5));
#429=DIRECTION('',(-1.,0.,0.));
#430=DIRECTION('',(0.,0.866025403784439,0.5));
#431=DIRECTION('',(-1.,0.,0.));
#432=DIRECTION('',(0.,0.5,0.866025403784439));
#433=DIRECTION('',(0.,-0.866025403784439,0.5));
#434=DIRECTION('',(-1.,0.,0.));
#435=DIRECTION('',(0.,0.866025403784439,-0.5));
#436=DIRECTION('',(0.,1.,0.));
#437=DIRECTION('',(0.,0.,1.));
#438=DIRECTION('',(-1.,0.,0.));
#439=DIRECTION('',(0.,0.,-1.));
#440=DIRECTION('',(0.,0.5,-0.866025403784439));
#441=DIRECTION('',(0.,0.866025403784439,0.5));
#442=DIRECTION('',(-1.,0.,0.));
#443=DIRECTION('',(0.,-0.866025403784439,-0.5));
#444=DIRECTION('',(0.,-0.5,-0.866025403784438));
#445=DIRECTION('',(0.,0.866025403784438,-0.5));
#446=DIRECTION('',(-1.,0.,0.));
#447=DIRECTION('',(0.,-0.866025403784438,0.5));
#448=DIRECTION('',(0.,-1.,0.));
#449=DIRECTION('',(0.,0.,-1.));
#450=DIRECTION('',(0.,0.,1.));
#451=DIRECTION('',(1.,0.,0.));
#452=DIRECTION('',(0.,0.,-1.));
#453=DIRECTION('',(-1.,0.,0.));
#454=DIRECTION('',(0.,0.,1.));
#455=DIRECTION('',(-1.,0.,0.));
#456=DIRECTION('',(0.,0.,1.));
#457=DIRECTION('',(-1.,0.,0.));
#458=DIRECTION('',(0.,0.,1.));
#459=DIRECTION('',(-1.,0.,0.));
#460=DIRECTION('',(0.,0.,1.));
#461=DIRECTION('',(1.,0.,0.));
#462=DIRECTION('',(0.,-1.66533453693774E-16,1.));
#463=CARTESIAN_POINT('',(0.,0.,0.));
#464=CARTESIAN_POINT('',(0.6,0.,0.));
#465=CARTESIAN_POINT('',(0.,0.,0.));
#466=CARTESIAN_POINT('',(0.,0.,15.65));
#467=CARTESIAN_POINT('',(0.600000000000003,0.,0.));
#468=CARTESIAN_POINT('',(0.600000000000003,0.,15.05));
#469=CARTESIAN_POINT('',(0.,0.,15.65));
#470=CARTESIAN_POINT('',(0.,0.,0.));
#471=CARTESIAN_POINT('',(0.,0.,16.2));
#472=CARTESIAN_POINT('',(0.,0.,0.));
#473=CARTESIAN_POINT('',(-0.300000000000002,0.,0.));
#474=CARTESIAN_POINT('',(-0.300000000000002,0.,16.5));
#475=CARTESIAN_POINT('',(-60.,0.,0.));
#476=CARTESIAN_POINT('',(-5.7,0.,0.));
#477=CARTESIAN_POINT('',(-5.7,0.,16.5));
#478=CARTESIAN_POINT('',(-5.7,0.,0.));
#479=CARTESIAN_POINT('',(-6.,0.,0.));
#480=CARTESIAN_POINT('',(-6.,0.,16.2));
#481=CARTESIAN_POINT('',(-6.,0.,16.2));
#482=CARTESIAN_POINT('',(-6.,0.,0.));
#483=CARTESIAN_POINT('',(-6.,0.,3.5));
#484=CARTESIAN_POINT('',(-6.,0.,0.));
#485=CARTESIAN_POINT('',(-5.93782217350892,5.87357148117409E-15,-3.46410161513775));
#486=CARTESIAN_POINT('',(-5.72459301986054,0.213229153648387,-3.34099370587978));
#487=CARTESIAN_POINT('',(-5.33455165397574,0.658690672593293,-3.08380637800332));
#488=CARTESIAN_POINT('',(-5.03488842270016,1.49998502151562,-2.59808485918531));
#489=CARTESIAN_POINT('',(-5.32974667096787,2.33305127205366,-2.11711383518438));
#490=CARTESIAN_POINT('',(-5.72392569000027,2.78610351649146,-1.85554399990125));
#491=CARTESIAN_POINT('',(-5.93782217350887,3.00000000000006,-1.73205080756885));
#492=CARTESIAN_POINT('',(-5.93782217350892,6.07153216591882E-15,-3.46410161513775));
#493=CARTESIAN_POINT('',(-5.93782217350894,3.00000000000001,-1.73205080756887));
#494=CARTESIAN_POINT('',(-5.93782217350894,3.00000000000001,-1.73205080756887));
#495=CARTESIAN_POINT('',(-5.72692795479986,3.00000000000001,-1.48853113968442));
#496=CARTESIAN_POINT('',(-5.33175371619872,3.00000000000001,-0.966312919197143));
#497=CARTESIAN_POINT('',(-5.03509626624407,3.00000000000001,-0.00221164399268243));
#498=CARTESIAN_POINT('',(-5.33171185025712,3.00000000000001,0.967192118994962));
#499=CARTESIAN_POINT('',(-5.72602471596531,3.00000000000001,1.48748816931599));
#500=CARTESIAN_POINT('',(-5.9378221735089,3.00000000000001,1.73205080756893));
#501=CARTESIAN_POINT('',(-5.93782217350895,3.00000000000001,1.73205080756888));
#502=CARTESIAN_POINT('',(-5.93782217350895,3.00000000000001,1.73205080756888));
#503=CARTESIAN_POINT('',(-5.72459301986057,2.78677084635163,1.85515871682685));
#504=CARTESIAN_POINT('',(-5.33455165397576,2.34130932740672,2.11234604470331));
#505=CARTESIAN_POINT('',(-5.03488842270018,1.5000149784844,2.59806756352132));
#506=CARTESIAN_POINT('',(-5.32974667096787,0.666948727946358,3.07903858752226));
#507=CARTESIAN_POINT('',(-5.72392569000027,0.213896483508553,3.34060842280539));
#508=CARTESIAN_POINT('',(-5.93782217350887,-3.94122357236016E-14,3.46410161513779));
#509=CARTESIAN_POINT('',(-5.93782217350894,6.17995238316738E-15,3.46410161513776));
#510=CARTESIAN_POINT('',(-5.93782217350894,6.12231033502624E-15,3.46410161513776));
#511=CARTESIAN_POINT('',(-5.72459301986056,-0.213229153648374,3.34099370587979));
#512=CARTESIAN_POINT('',(-5.33455165397575,-0.658690672593276,3.08380637800333));
#513=CARTESIAN_POINT('',(-5.03488842270016,-1.49998502151559,2.59808485918532));
#514=CARTESIAN_POINT('',(-5.32974667096786,-2.33305127205364,2.11711383518439));
#515=CARTESIAN_POINT('',(-5.72392569000025,-2.78610351649144,1.85554399990126));
#516=CARTESIAN_POINT('',(-5.93782217350885,-3.00000000000004,1.73205080756886));
#517=CARTESIAN_POINT('',(-5.93782217350892,-2.99999999999999,1.73205080756888));
#518=CARTESIAN_POINT('',(-5.93782217350891,-2.99999999999999,-1.73205080756888));
#519=CARTESIAN_POINT('',(-5.72692795479983,-2.99999999999999,-1.48853113968442));
#520=CARTESIAN_POINT('',(-5.33175371619869,-2.99999999999999,-0.966312919197141));
#521=CARTESIAN_POINT('',(-5.03509626624402,-2.99999999999999,-0.00221164399268637));
#522=CARTESIAN_POINT('',(-5.33171185025709,-2.99999999999999,0.96719211899497));
#523=CARTESIAN_POINT('',(-5.72602471596527,-2.99999999999999,1.48748816931599));
#524=CARTESIAN_POINT('',(-5.93782217350887,-2.99999999999999,1.73205080756893));
#525=CARTESIAN_POINT('',(-5.93782217350891,-2.99999999999999,-1.73205080756888));
#526=CARTESIAN_POINT('',(-5.93782217350891,-2.99999999999999,-1.73205080756888));
#527=CARTESIAN_POINT('',(-5.72459301986053,-2.78677084635161,-1.85515871682684));
#528=CARTESIAN_POINT('',(-5.33455165397573,-2.3413093274067,-2.1123460447033));
#529=CARTESIAN_POINT('',(-5.03488842270015,-1.50001497848438,-2.59806756352132));
#530=CARTESIAN_POINT('',(-5.32974667096786,-0.666948727946339,-3.07903858752225));
#531=CARTESIAN_POINT('',(-5.72392569000026,-0.213896483508538,-3.34060842280538));
#532=CARTESIAN_POINT('',(-5.93782217350885,5.29798084678321E-14,-3.46410161513778));
#533=CARTESIAN_POINT('',(6.00000000000001,0.,0.));
#534=CARTESIAN_POINT('',(6.00000000000001,0.,0.));
#535=CARTESIAN_POINT('',(6.00000000000001,0.,14.3524710292422));
#536=CARTESIAN_POINT('',(5.40000083333392,0.,0.));
#537=CARTESIAN_POINT('',(5.82426490204585,0.,0.));
#538=CARTESIAN_POINT('',(5.82426490204585,0.,14.7757350979541));
#539=CARTESIAN_POINT('',(5.82426490204585,0.,0.));
#540=CARTESIAN_POINT('',(4.59999999999999,0.,0.));
#541=CARTESIAN_POINT('',(4.59999999999999,0.,16.));
#542=CARTESIAN_POINT('',(-60.,0.,0.));
#543=CARTESIAN_POINT('',(1.8,0.,0.));
#544=CARTESIAN_POINT('',(1.8,0.,16.));
#545=CARTESIAN_POINT('',(1.8,0.,0.));
#546=CARTESIAN_POINT('',(1.42472232502674,0.,0.));
#547=CARTESIAN_POINT('',(1.42472232502674,0.,15.35));
#548=CARTESIAN_POINT('',(0.905107082756083,0.,0.));
#549=CARTESIAN_POINT('',(0.905107082756082,0.,0.));
#550=CARTESIAN_POINT('',(0.905107082756082,0.,15.05));
#551=CARTESIAN_POINT('',(-60.,0.,0.));
#552=CARTESIAN_POINT('',(2.,-2.99999999999999,1.73205080756888));
#553=CARTESIAN_POINT('',(2.,6.17995238316738E-15,3.46410161513776));
#554=CARTESIAN_POINT('',(5.20417042793042E-15,6.17995238316738E-15,3.46410161513776));
#555=CARTESIAN_POINT('',(5.20417042793042E-15,-0.200961894323342,3.34807621135332));
#556=CARTESIAN_POINT('',(5.20417042793042E-15,-2.99999999999999,1.73205080756888));
#557=CARTESIAN_POINT('',(2.,-2.99999999999999,1.73205080756888));
#558=CARTESIAN_POINT('',(2.,6.17995238316738E-15,3.46410161513776));
#559=CARTESIAN_POINT('',(2.,3.00000000000001,1.73205080756888));
#560=CARTESIAN_POINT('',(5.20417042793042E-15,3.00000000000001,1.73205080756888));
#561=CARTESIAN_POINT('',(5.20417042793042E-15,0.200961894323345,3.34807621135332));
#562=CARTESIAN_POINT('',(2.,3.00000000000001,1.73205080756888));
#563=CARTESIAN_POINT('',(2.,3.00000000000001,-1.73205080756887));
#564=CARTESIAN_POINT('',(5.20417042793042E-15,3.00000000000001,-1.73205080756887));
#565=CARTESIAN_POINT('',(5.20417042793042E-15,3.00000000000001,3.));
#566=CARTESIAN_POINT('',(2.,3.00000000000001,-1.73205080756887));
#567=CARTESIAN_POINT('',(2.,6.07153216591882E-15,-3.46410161513775));
#568=CARTESIAN_POINT('',(5.20417042793042E-15,6.07153216591882E-15,-3.46410161513775));
#569=CARTESIAN_POINT('',(5.20417042793042E-15,2.79903810567666,-1.84807621135332));
#570=CARTESIAN_POINT('',(2.,6.60416846798578E-15,-3.46410161513775));
#571=CARTESIAN_POINT('',(2.,-2.99999999999999,-1.73205080756887));
#572=CARTESIAN_POINT('',(5.20417042793042E-15,-2.99999999999999,-1.73205080756887));
#573=CARTESIAN_POINT('',(5.20417042793042E-15,-2.79903810567666,-1.84807621135331));
#574=CARTESIAN_POINT('',(2.,-2.99999999999999,-1.73205080756887));
#575=CARTESIAN_POINT('',(5.20417042793042E-15,-2.99999999999999,3.));
#576=CARTESIAN_POINT('',(2.00000000000001,0.,4.));
#577=CARTESIAN_POINT('',(2.,0.,0.));
#578=CARTESIAN_POINT('',(2.,0.,4.));
#579=CARTESIAN_POINT('',(-60.,0.,0.));
#580=CARTESIAN_POINT('',(6.93889390390723E-15,0.,0.));
#581=CARTESIAN_POINT('',(6.93889390390723E-15,0.,4.));
#582=CARTESIAN_POINT('',(5.20417042793042E-15,0.,3.));
#583=CARTESIAN_POINT('',(0.,-6.93889390390723E-15,8.67361737988404E-16));
#584=MECHANICAL_DESIGN_GEOMETRIC_PRESENTATION_REPRESENTATION('',(#318),
#585);
#585=(
GEOMETRIC_REPRESENTATION_CONTEXT(3)
GLOBAL_UNCERTAINTY_ASSIGNED_CONTEXT((#587))
GLOBAL_UNIT_ASSIGNED_CONTEXT((#591,#590,#589))
REPRESENTATION_CONTEXT('090336_337020000_vereinfacht_STP_00415638',
'TOP_LEVEL_ASSEMBLY_PART')
);
#586=(
GEOMETRIC_REPRESENTATION_CONTEXT(3)
GLOBAL_UNCERTAINTY_ASSIGNED_CONTEXT((#588))
GLOBAL_UNIT_ASSIGNED_CONTEXT((#591,#590,#589))
REPRESENTATION_CONTEXT('090336_337020000_00275871','COMPONENT_PART')
);
#587=UNCERTAINTY_MEASURE_WITH_UNIT(LENGTH_MEASURE(0.005),#591,
'DISTANCE_ACCURACY_VALUE','Maximum Tolerance applied to model');
#588=UNCERTAINTY_MEASURE_WITH_UNIT(LENGTH_MEASURE(0.005),#591,
'DISTANCE_ACCURACY_VALUE','Maximum Tolerance applied to model');
#589=(
NAMED_UNIT(*)
SI_UNIT($,.STERADIAN.)
SOLID_ANGLE_UNIT()
);
#590=(
NAMED_UNIT(*)
PLANE_ANGLE_UNIT()
SI_UNIT($,.RADIAN.)
);
#591=(
LENGTH_UNIT()
NAMED_UNIT(*)
SI_UNIT(.MILLI.,.METRE.)
);
#592=PRODUCT_DEFINITION_SHAPE('','',#595);
#593=PRODUCT_DEFINITION_SHAPE('','',#596);
#594=PRODUCT_DEFINITION_SHAPE(' ','NAUO PRDDFN',#19);
#595=PRODUCT_DEFINITION('','',#599,#597);
#596=PRODUCT_DEFINITION('','',#600,#598);
#597=PRODUCT_DEFINITION_CONTEXT('',#610,'design');
#598=PRODUCT_DEFINITION_CONTEXT('',#610,'design');
#599=PRODUCT_DEFINITION_FORMATION_WITH_SPECIFIED_SOURCE('','',#603,
 .NOT_KNOWN.);
#600=PRODUCT_DEFINITION_FORMATION_WITH_SPECIFIED_SOURCE('','',#604,
 .NOT_KNOWN.);
#601=PRODUCT_RELATED_PRODUCT_CATEGORY('','',(#603));
#602=PRODUCT_RELATED_PRODUCT_CATEGORY('','',(#604));
#603=PRODUCT('090336_337020000_vereinfacht_STP_00415638',
'090336_337020000_vereinfacht_STP_00415638',
'090336_337020000_vereinfacht_STP_00415638',(#607));
#604=PRODUCT('090336_337020000_00275871','090336_337020000_00275871',
'090336_337020000_00275871',(#608));
#605=PRODUCT_CATEGORY('','');
#606=PRODUCT_CATEGORY('','');
#607=PRODUCT_CONTEXT('',#610,'mechanical');
#608=PRODUCT_CONTEXT('',#610,'mechanical');
#609=APPLICATION_PROTOCOL_DEFINITION('international standard',
'automotive_design',2010,#610);
#610=APPLICATION_CONTEXT(
'core data for automotive mechanical design processes');
ENDSEC;
END-ISO-10303-21;
