ISO-10303-21;
HEADER;
FILE_DESCRIPTION( ( 'Unknown' ), '1' );
FILE_NAME( 'C:/profilework_SE/SE_WORK/X/330025032.stp', 'Unknown', ( 'Unknown' ), ( 'Unknown' ), 'PSStep 15.0.49', 'Unknown', '  ' );
FILE_SCHEMA( ( 'AUTOMOTIVE_DESIGN { 1 0 10303 214 1 1 1 1 }' ) );
ENDSEC;
DATA;
#1 = MECHANICAL_DESIGN_GEOMETRIC_PRESENTATION_REPRESENTATION( ' ', ( #10, #11, #12, #13, #14, #15, #16, #17, #18, #19, #20, #21, #22, #23, #24, #25, #26 ), #6 );
#2 = PRODUCT_DEFINITION_CONTEXT( '', #27, 'design' );
#3 = APPLICATION_PROTOCOL_DEFINITION( 'international standard', 'automotive_design', 2001, #27 );
#4 = PRODUCT_CATEGORY_RELATIONSHIP( 'NONE', 'NONE', #28, #29 );
#5 = SHAPE_DEFINITION_REPRESENTATION( #30, #31 );
#6 =  ( GEOMETRIC_REPRESENTATION_CONTEXT( 3 )GLOBAL_UNCERTAINTY_ASSIGNED_CONTEXT( ( #34 ) )GLOBAL_UNIT_ASSIGNED_CONTEXT( ( #36, #37, #38 ) )REPRESENTATION_CONTEXT( 'NONE', 'WORKSPACE' ) );
#10 = STYLED_ITEM( '', ( #40 ), #41 );
#11 = STYLED_ITEM( '', ( #42 ), #43 );
#12 = STYLED_ITEM( '', ( #44 ), #45 );
#13 = STYLED_ITEM( '', ( #46 ), #47 );
#14 = STYLED_ITEM( '', ( #48 ), #49 );
#15 = STYLED_ITEM( '', ( #50 ), #51 );
#16 = STYLED_ITEM( '', ( #52 ), #53 );
#17 = STYLED_ITEM( '', ( #54 ), #55 );
#18 = STYLED_ITEM( '', ( #56 ), #57 );
#19 = STYLED_ITEM( '', ( #58 ), #59 );
#20 = STYLED_ITEM( '', ( #60 ), #61 );
#21 = STYLED_ITEM( '', ( #62 ), #63 );
#22 = STYLED_ITEM( '', ( #64 ), #65 );
#23 = STYLED_ITEM( '', ( #66 ), #67 );
#24 = STYLED_ITEM( '', ( #68 ), #69 );
#25 = STYLED_ITEM( '', ( #70 ), #71 );
#26 = STYLED_ITEM( '', ( #72 ), #73 );
#27 = APPLICATION_CONTEXT( 'core data for automotive mechanical design processes' );
#28 = PRODUCT_CATEGORY( 'part', 'NONE' );
#29 = PRODUCT_RELATED_PRODUCT_CATEGORY( 'detail', ' ', ( #74 ) );
#30 = PRODUCT_DEFINITION_SHAPE( 'NONE', 'NONE', #75 );
#31 = ADVANCED_BREP_SHAPE_REPRESENTATION( '1', ( #76, #77 ), #6 );
#34 = UNCERTAINTY_MEASURE_WITH_UNIT( LENGTH_MEASURE( 0.00100000000000000 ), #36, '', '' );
#36 =  ( CONVERSION_BASED_UNIT( 'MILLIMETRE', #80 )LENGTH_UNIT(  )NAMED_UNIT( #83 ) );
#37 =  ( NAMED_UNIT( #85 )PLANE_ANGLE_UNIT(  )SI_UNIT( $, .RADIAN. ) );
#38 =  ( NAMED_UNIT( #85 )SI_UNIT( $, .STERADIAN. )SOLID_ANGLE_UNIT(  ) );
#40 = PRESENTATION_STYLE_ASSIGNMENT( ( #91 ) );
#41 = ADVANCED_FACE( '', ( #92, #93 ), #94, .F. );
#42 = PRESENTATION_STYLE_ASSIGNMENT( ( #95 ) );
#43 = ADVANCED_FACE( '', ( #96, #97 ), #98, .F. );
#44 = PRESENTATION_STYLE_ASSIGNMENT( ( #99 ) );
#45 = ADVANCED_FACE( '', ( #100, #101 ), #102, .T. );
#46 = PRESENTATION_STYLE_ASSIGNMENT( ( #103 ) );
#47 = ADVANCED_FACE( '', ( #104, #105 ), #106, .F. );
#48 = PRESENTATION_STYLE_ASSIGNMENT( ( #107 ) );
#49 = ADVANCED_FACE( '', ( #108, #109 ), #110, .F. );
#50 = PRESENTATION_STYLE_ASSIGNMENT( ( #111 ) );
#51 = ADVANCED_FACE( '', ( #112, #113 ), #114, .F. );
#52 = PRESENTATION_STYLE_ASSIGNMENT( ( #115 ) );
#53 = ADVANCED_FACE( '', ( #116, #117 ), #118, .F. );
#54 = PRESENTATION_STYLE_ASSIGNMENT( ( #119 ) );
#55 = ADVANCED_FACE( '', ( #120, #121 ), #122, .F. );
#56 = PRESENTATION_STYLE_ASSIGNMENT( ( #123 ) );
#57 = ADVANCED_FACE( '', ( #124 ), #125, .T. );
#58 = PRESENTATION_STYLE_ASSIGNMENT( ( #126 ) );
#59 = ADVANCED_FACE( '', ( #127, #128 ), #129, .F. );
#60 = PRESENTATION_STYLE_ASSIGNMENT( ( #130 ) );
#61 = ADVANCED_FACE( '', ( #131, #132 ), #133, .T. );
#62 = PRESENTATION_STYLE_ASSIGNMENT( ( #134 ) );
#63 = ADVANCED_FACE( '', ( #135, #136 ), #137, .T. );
#64 = PRESENTATION_STYLE_ASSIGNMENT( ( #138 ) );
#65 = ADVANCED_FACE( '', ( #139 ), #140, .F. );
#66 = PRESENTATION_STYLE_ASSIGNMENT( ( #141 ) );
#67 = ADVANCED_FACE( '', ( #142, #143 ), #144, .T. );
#68 = PRESENTATION_STYLE_ASSIGNMENT( ( #145 ) );
#69 = ADVANCED_FACE( '', ( #146, #147 ), #148, .F. );
#70 = PRESENTATION_STYLE_ASSIGNMENT( ( #149 ) );
#71 = ADVANCED_FACE( '', ( #150 ), #151, .F. );
#72 = PRESENTATION_STYLE_ASSIGNMENT( ( #152 ) );
#73 = ADVANCED_FACE( '', ( #153 ), #154, .T. );
#74 = PRODUCT( '1', '1', 'PART-1-DESC', ( #155 ) );
#75 = PRODUCT_DEFINITION( 'NONE', 'NONE', #156, #2 );
#76 = MANIFOLD_SOLID_BREP( '1', #157 );
#77 = AXIS2_PLACEMENT_3D( '', #158, #159, #160 );
#80 = LENGTH_MEASURE_WITH_UNIT( LENGTH_MEASURE( 1.00000000000000 ), #161 );
#83 = DIMENSIONAL_EXPONENTS( 1.00000000000000, 0.000000000000000, 0.000000000000000, 0.000000000000000, 0.000000000000000, 0.000000000000000, 0.000000000000000 );
#85 = DIMENSIONAL_EXPONENTS( 0.000000000000000, 0.000000000000000, 0.000000000000000, 0.000000000000000, 0.000000000000000, 0.000000000000000, 0.000000000000000 );
#91 = SURFACE_STYLE_USAGE( .BOTH., #162 );
#92 = FACE_OUTER_BOUND( '', #163, .T. );
#93 = FACE_BOUND( '', #164, .T. );
#94 = PLANE( '', #165 );
#95 = SURFACE_STYLE_USAGE( .BOTH., #166 );
#96 = FACE_OUTER_BOUND( '', #167, .T. );
#97 = FACE_BOUND( '', #168, .T. );
#98 = PLANE( '', #169 );
#99 = SURFACE_STYLE_USAGE( .BOTH., #170 );
#100 = FACE_OUTER_BOUND( '', #171, .T. );
#101 = FACE_OUTER_BOUND( '', #172, .T. );
#102 = CYLINDRICAL_SURFACE( '', #173, 16.0000000000000 );
#103 = SURFACE_STYLE_USAGE( .BOTH., #174 );
#104 = FACE_OUTER_BOUND( '', #175, .T. );
#105 = FACE_OUTER_BOUND( '', #176, .T. );
#106 = CYLINDRICAL_SURFACE( '', #177, 10.6000000000000 );
#107 = SURFACE_STYLE_USAGE( .BOTH., #178 );
#108 = FACE_BOUND( '', #179, .T. );
#109 = FACE_OUTER_BOUND( '', #180, .T. );
#110 = PLANE( '', #181 );
#111 = SURFACE_STYLE_USAGE( .BOTH., #182 );
#112 = FACE_OUTER_BOUND( '', #183, .T. );
#113 = FACE_OUTER_BOUND( '', #184, .T. );
#114 = CYLINDRICAL_SURFACE( '', #185, 9.60000000000000 );
#115 = SURFACE_STYLE_USAGE( .BOTH., #186 );
#116 = FACE_BOUND( '', #187, .T. );
#117 = FACE_OUTER_BOUND( '', #188, .T. );
#118 = PLANE( '', #189 );
#119 = SURFACE_STYLE_USAGE( .BOTH., #190 );
#120 = FACE_BOUND( '', #191, .T. );
#121 = FACE_OUTER_BOUND( '', #192, .T. );
#122 = CONICAL_SURFACE( '', #193, 13.2557152573402, 0.139626340159546 );
#123 = SURFACE_STYLE_USAGE( .BOTH., #194 );
#124 = FACE_OUTER_BOUND( '', #195, .T. );
#125 = PLANE( '', #196 );
#126 = SURFACE_STYLE_USAGE( .BOTH., #197 );
#127 = FACE_OUTER_BOUND( '', #198, .T. );
#128 = FACE_OUTER_BOUND( '', #199, .T. );
#129 = CYLINDRICAL_SURFACE( '', #200, 9.05000000000000 );
#130 = SURFACE_STYLE_USAGE( .BOTH., #201 );
#131 = FACE_BOUND( '', #202, .T. );
#132 = FACE_OUTER_BOUND( '', #203, .T. );
#133 = CONICAL_SURFACE( '', #204, 18.0000000000000, 1.30899693899575 );
#134 = SURFACE_STYLE_USAGE( .BOTH., #205 );
#135 = FACE_OUTER_BOUND( '', #206, .T. );
#136 = FACE_OUTER_BOUND( '', #207, .T. );
#137 = CYLINDRICAL_SURFACE( '', #208, 24.5000000000000 );
#138 = SURFACE_STYLE_USAGE( .BOTH., #209 );
#139 = FACE_OUTER_BOUND( '', #210, .T. );
#140 = PLANE( '', #211 );
#141 = SURFACE_STYLE_USAGE( .BOTH., #212 );
#142 = FACE_OUTER_BOUND( '', #213, .T. );
#143 = FACE_OUTER_BOUND( '', #214, .T. );
#144 = CYLINDRICAL_SURFACE( '', #215, 18.0000000000000 );
#145 = SURFACE_STYLE_USAGE( .BOTH., #216 );
#146 = FACE_OUTER_BOUND( '', #217, .T. );
#147 = FACE_BOUND( '', #218, .T. );
#148 = CONICAL_SURFACE( '', #219, 10.6000000000000, 0.523598775598299 );
#149 = SURFACE_STYLE_USAGE( .BOTH., #220 );
#150 = FACE_OUTER_BOUND( '', #221, .T. );
#151 = PLANE( '', #222 );
#152 = SURFACE_STYLE_USAGE( .BOTH., #223 );
#153 = FACE_OUTER_BOUND( '', #224, .T. );
#154 = PLANE( '', #225 );
#155 = PRODUCT_CONTEXT( '', #27, 'mechanical' );
#156 = PRODUCT_DEFINITION_FORMATION_WITH_SPECIFIED_SOURCE( ' ', 'NONE', #74, .NOT_KNOWN. );
#157 = CLOSED_SHELL( '', ( #53, #63, #43, #45, #65, #71, #59, #55, #69, #47, #41, #51, #49, #61, #67, #57, #73 ) );
#158 = CARTESIAN_POINT( '', ( 0.000000000000000, 0.000000000000000, 0.000000000000000 ) );
#159 = DIRECTION( '', ( 0.000000000000000, 0.000000000000000, 1.00000000000000 ) );
#160 = DIRECTION( '', ( 1.00000000000000, 0.000000000000000, 0.000000000000000 ) );
#161 =  ( LENGTH_UNIT(  )NAMED_UNIT( #83 )SI_UNIT( .MILLI., .METRE. ) );
#162 = SURFACE_SIDE_STYLE( '', ( #227 ) );
#163 = EDGE_LOOP( '', ( #228 ) );
#164 = EDGE_LOOP( '', ( #229 ) );
#165 = AXIS2_PLACEMENT_3D( '', #230, #231, #232 );
#166 = SURFACE_SIDE_STYLE( '', ( #233 ) );
#167 = EDGE_LOOP( '', ( #234 ) );
#168 = EDGE_LOOP( '', ( #235 ) );
#169 = AXIS2_PLACEMENT_3D( '', #236, #237, #238 );
#170 = SURFACE_SIDE_STYLE( '', ( #239 ) );
#171 = EDGE_LOOP( '', ( #240 ) );
#172 = EDGE_LOOP( '', ( #241, #242, #243, #244 ) );
#173 = AXIS2_PLACEMENT_3D( '', #245, #246, #247 );
#174 = SURFACE_SIDE_STYLE( '', ( #248 ) );
#175 = EDGE_LOOP( '', ( #249 ) );
#176 = EDGE_LOOP( '', ( #250 ) );
#177 = AXIS2_PLACEMENT_3D( '', #251, #252, #253 );
#178 = SURFACE_SIDE_STYLE( '', ( #254 ) );
#179 = EDGE_LOOP( '', ( #255 ) );
#180 = EDGE_LOOP( '', ( #256 ) );
#181 = AXIS2_PLACEMENT_3D( '', #257, #258, #259 );
#182 = SURFACE_SIDE_STYLE( '', ( #260 ) );
#183 = EDGE_LOOP( '', ( #261 ) );
#184 = EDGE_LOOP( '', ( #262 ) );
#185 = AXIS2_PLACEMENT_3D( '', #263, #264, #265 );
#186 = SURFACE_SIDE_STYLE( '', ( #266 ) );
#187 = EDGE_LOOP( '', ( #267 ) );
#188 = EDGE_LOOP( '', ( #268 ) );
#189 = AXIS2_PLACEMENT_3D( '', #269, #270, #271 );
#190 = SURFACE_SIDE_STYLE( '', ( #272 ) );
#191 = EDGE_LOOP( '', ( #273 ) );
#192 = EDGE_LOOP( '', ( #274 ) );
#193 = AXIS2_PLACEMENT_3D( '', #275, #276, #277 );
#194 = SURFACE_SIDE_STYLE( '', ( #278 ) );
#195 = EDGE_LOOP( '', ( #279, #280 ) );
#196 = AXIS2_PLACEMENT_3D( '', #281, #282, #283 );
#197 = SURFACE_SIDE_STYLE( '', ( #284 ) );
#198 = EDGE_LOOP( '', ( #285 ) );
#199 = EDGE_LOOP( '', ( #286 ) );
#200 = AXIS2_PLACEMENT_3D( '', #287, #288, #289 );
#201 = SURFACE_SIDE_STYLE( '', ( #290 ) );
#202 = EDGE_LOOP( '', ( #291 ) );
#203 = EDGE_LOOP( '', ( #292 ) );
#204 = AXIS2_PLACEMENT_3D( '', #293, #294, #295 );
#205 = SURFACE_SIDE_STYLE( '', ( #296 ) );
#206 = EDGE_LOOP( '', ( #297 ) );
#207 = EDGE_LOOP( '', ( #298 ) );
#208 = AXIS2_PLACEMENT_3D( '', #299, #300, #301 );
#209 = SURFACE_SIDE_STYLE( '', ( #302 ) );
#210 = EDGE_LOOP( '', ( #303, #304 ) );
#211 = AXIS2_PLACEMENT_3D( '', #305, #306, #307 );
#212 = SURFACE_SIDE_STYLE( '', ( #308 ) );
#213 = EDGE_LOOP( '', ( #309 ) );
#214 = EDGE_LOOP( '', ( #310 ) );
#215 = AXIS2_PLACEMENT_3D( '', #311, #312, #313 );
#216 = SURFACE_SIDE_STYLE( '', ( #314 ) );
#217 = EDGE_LOOP( '', ( #315 ) );
#218 = EDGE_LOOP( '', ( #316 ) );
#219 = AXIS2_PLACEMENT_3D( '', #317, #318, #319 );
#220 = SURFACE_SIDE_STYLE( '', ( #320 ) );
#221 = EDGE_LOOP( '', ( #321 ) );
#222 = AXIS2_PLACEMENT_3D( '', #322, #323, #324 );
#223 = SURFACE_SIDE_STYLE( '', ( #325 ) );
#224 = EDGE_LOOP( '', ( #326, #327, #328, #329 ) );
#225 = AXIS2_PLACEMENT_3D( '', #330, #331, #332 );
#227 = SURFACE_STYLE_FILL_AREA( #333 );
#228 = ORIENTED_EDGE( '', *, *, #334, .F. );
#229 = ORIENTED_EDGE( '', *, *, #335, .T. );
#230 = CARTESIAN_POINT( '', ( -5.00000000000000, 0.000000000000000, 10.6000000000000 ) );
#231 = DIRECTION( '', ( -1.00000000000000, 0.000000000000000, 0.000000000000000 ) );
#232 = DIRECTION( '', ( 0.000000000000000, 0.000000000000000, 1.00000000000000 ) );
#233 = SURFACE_STYLE_FILL_AREA( #336 );
#234 = ORIENTED_EDGE( '', *, *, #337, .F. );
#235 = ORIENTED_EDGE( '', *, *, #338, .T. );
#236 = CARTESIAN_POINT( '', ( 22.0000000000000, 0.000000000000000, 16.0000000000000 ) );
#237 = DIRECTION( '', ( -1.00000000000000, 0.000000000000000, 0.000000000000000 ) );
#238 = DIRECTION( '', ( 0.000000000000000, 0.000000000000000, 1.00000000000000 ) );
#239 = SURFACE_STYLE_FILL_AREA( #339 );
#240 = ORIENTED_EDGE( '', *, *, #338, .F. );
#241 = ORIENTED_EDGE( '', *, *, #340, .F. );
#242 = ORIENTED_EDGE( '', *, *, #341, .T. );
#243 = ORIENTED_EDGE( '', *, *, #342, .F. );
#244 = ORIENTED_EDGE( '', *, *, #343, .F. );
#245 = CARTESIAN_POINT( '', ( 48.0000000000000, 0.000000000000000, 0.000000000000000 ) );
#246 = DIRECTION( '', ( 1.00000000000000, -0.000000000000000, -0.000000000000000 ) );
#247 = DIRECTION( '', ( 0.000000000000000, 0.000000000000000, 1.00000000000000 ) );
#248 = SURFACE_STYLE_FILL_AREA( #344 );
#249 = ORIENTED_EDGE( '', *, *, #345, .F. );
#250 = ORIENTED_EDGE( '', *, *, #334, .T. );
#251 = CARTESIAN_POINT( '', ( 48.0000000000000, 0.000000000000000, 0.000000000000000 ) );
#252 = DIRECTION( '', ( 1.00000000000000, -0.000000000000000, -0.000000000000000 ) );
#253 = DIRECTION( '', ( 0.000000000000000, 0.000000000000000, 1.00000000000000 ) );
#254 = SURFACE_STYLE_FILL_AREA( #346 );
#255 = ORIENTED_EDGE( '', *, *, #347, .F. );
#256 = ORIENTED_EDGE( '', *, *, #348, .T. );
#257 = CARTESIAN_POINT( '', ( -7.00000000000000, 0.000000000000000, 15.7607695154587 ) );
#258 = DIRECTION( '', ( 1.00000000000000, 0.000000000000000, 0.000000000000000 ) );
#259 = DIRECTION( '', ( 0.000000000000000, 0.000000000000000, -1.00000000000000 ) );
#260 = SURFACE_STYLE_FILL_AREA( #349 );
#261 = ORIENTED_EDGE( '', *, *, #335, .F. );
#262 = ORIENTED_EDGE( '', *, *, #347, .T. );
#263 = CARTESIAN_POINT( '', ( 48.0000000000000, 0.000000000000000, 0.000000000000000 ) );
#264 = DIRECTION( '', ( 1.00000000000000, -0.000000000000000, -0.000000000000000 ) );
#265 = DIRECTION( '', ( 0.000000000000000, 0.000000000000000, 1.00000000000000 ) );
#266 = SURFACE_STYLE_FILL_AREA( #350 );
#267 = ORIENTED_EDGE( '', *, *, #351, .F. );
#268 = ORIENTED_EDGE( '', *, *, #352, .T. );
#269 = CARTESIAN_POINT( '', ( 0.000000000000000, 0.000000000000000, 24.5000000000000 ) );
#270 = DIRECTION( '', ( 1.00000000000000, 0.000000000000000, 0.000000000000000 ) );
#271 = DIRECTION( '', ( 0.000000000000000, 0.000000000000000, -1.00000000000000 ) );
#272 = SURFACE_STYLE_FILL_AREA( #353 );
#273 = ORIENTED_EDGE( '', *, *, #354, .F. );
#274 = ORIENTED_EDGE( '', *, *, #355, .T. );
#275 = CARTESIAN_POINT( '', ( 4.58865555956169, 0.000000000000000, 0.000000000000000 ) );
#276 = DIRECTION( '', ( -1.00000000000000, 0.000000000000000, -0.000000000000000 ) );
#277 = DIRECTION( '', ( 0.000000000000000, 0.000000000000000, 1.00000000000000 ) );
#278 = SURFACE_STYLE_FILL_AREA( #356 );
#279 = ORIENTED_EDGE( '', *, *, #343, .T. );
#280 = ORIENTED_EDGE( '', *, *, #357, .T. );
#281 = CARTESIAN_POINT( '', ( 26.0000000000000, 14.0000000000000, 62.1000000000000 ) );
#282 = DIRECTION( '', ( 0.707106781186549, 0.707106781186546, 0.000000000000000 ) );
#283 = DIRECTION( '', ( -0.707106781186546, 0.707106781186549, 0.000000000000000 ) );
#284 = SURFACE_STYLE_FILL_AREA( #358 );
#285 = ORIENTED_EDGE( '', *, *, #359, .F. );
#286 = ORIENTED_EDGE( '', *, *, #354, .T. );
#287 = CARTESIAN_POINT( '', ( 48.0000000000000, 0.000000000000000, 0.000000000000000 ) );
#288 = DIRECTION( '', ( 1.00000000000000, -0.000000000000000, -0.000000000000000 ) );
#289 = DIRECTION( '', ( 0.000000000000000, 0.000000000000000, 1.00000000000000 ) );
#290 = SURFACE_STYLE_FILL_AREA( #360 );
#291 = ORIENTED_EDGE( '', *, *, #348, .F. );
#292 = ORIENTED_EDGE( '', *, *, #361, .T. );
#293 = CARTESIAN_POINT( '', ( -6.40000000000000, 0.000000000000000, 0.000000000000000 ) );
#294 = DIRECTION( '', ( 1.00000000000000, -0.000000000000000, 0.000000000000000 ) );
#295 = DIRECTION( '', ( 0.000000000000000, 0.000000000000000, -1.00000000000000 ) );
#296 = SURFACE_STYLE_FILL_AREA( #362 );
#297 = ORIENTED_EDGE( '', *, *, #352, .F. );
#298 = ORIENTED_EDGE( '', *, *, #337, .T. );
#299 = CARTESIAN_POINT( '', ( 48.0000000000000, 0.000000000000000, 0.000000000000000 ) );
#300 = DIRECTION( '', ( 1.00000000000000, -0.000000000000000, -0.000000000000000 ) );
#301 = DIRECTION( '', ( 0.000000000000000, 0.000000000000000, 1.00000000000000 ) );
#302 = SURFACE_STYLE_FILL_AREA( #363 );
#303 = ORIENTED_EDGE( '', *, *, #364, .F. );
#304 = ORIENTED_EDGE( '', *, *, #341, .F. );
#305 = CARTESIAN_POINT( '', ( 82.0000000000000, 0.000000000000000, 0.000000000000000 ) );
#306 = DIRECTION( '', ( -1.00000000000000, 0.000000000000000, 0.000000000000000 ) );
#307 = DIRECTION( '', ( 0.000000000000000, 0.000000000000000, 1.00000000000000 ) );
#308 = SURFACE_STYLE_FILL_AREA( #365 );
#309 = ORIENTED_EDGE( '', *, *, #361, .F. );
#310 = ORIENTED_EDGE( '', *, *, #351, .T. );
#311 = CARTESIAN_POINT( '', ( 48.0000000000000, 0.000000000000000, 0.000000000000000 ) );
#312 = DIRECTION( '', ( 1.00000000000000, -0.000000000000000, -0.000000000000000 ) );
#313 = DIRECTION( '', ( 0.000000000000000, 0.000000000000000, 1.00000000000000 ) );
#314 = SURFACE_STYLE_FILL_AREA( #366 );
#315 = ORIENTED_EDGE( '', *, *, #355, .F. );
#316 = ORIENTED_EDGE( '', *, *, #345, .T. );
#317 = CARTESIAN_POINT( '', ( -0.0111781965873373, 0.000000000000000, 0.000000000000000 ) );
#318 = DIRECTION( '', ( 1.00000000000000, -0.000000000000000, 0.000000000000000 ) );
#319 = DIRECTION( '', ( 0.000000000000000, 0.000000000000000, -1.00000000000000 ) );
#320 = SURFACE_STYLE_FILL_AREA( #367 );
#321 = ORIENTED_EDGE( '', *, *, #359, .T. );
#322 = CARTESIAN_POINT( '', ( 48.0000000000000, 0.000000000000000, 9.05000000000000 ) );
#323 = DIRECTION( '', ( 1.00000000000000, 0.000000000000000, 0.000000000000000 ) );
#324 = DIRECTION( '', ( 0.000000000000000, 0.000000000000000, -1.00000000000000 ) );
#325 = SURFACE_STYLE_FILL_AREA( #368 );
#326 = ORIENTED_EDGE( '', *, *, #340, .T. );
#327 = ORIENTED_EDGE( '', *, *, #357, .F. );
#328 = ORIENTED_EDGE( '', *, *, #342, .T. );
#329 = ORIENTED_EDGE( '', *, *, #364, .T. );
#330 = CARTESIAN_POINT( '', ( 77.2000000000000, 14.0000000000000, 62.1000000000000 ) );
#331 = DIRECTION( '', ( 1.35525271560688E-016, 1.00000000000000, 0.000000000000000 ) );
#332 = DIRECTION( '', ( -1.00000000000000, 1.35525271560688E-016, 0.000000000000000 ) );
#333 = FILL_AREA_STYLE( '', ( #369 ) );
#334 = EDGE_CURVE( '', #370, #370, #371, .T. );
#335 = EDGE_CURVE( '', #372, #372, #373, .T. );
#336 = FILL_AREA_STYLE( '', ( #374 ) );
#337 = EDGE_CURVE( '', #375, #375, #376, .T. );
#338 = EDGE_CURVE( '', #377, #377, #378, .T. );
#339 = FILL_AREA_STYLE( '', ( #379 ) );
#340 = EDGE_CURVE( '', #380, #381, #382, .T. );
#341 = EDGE_CURVE( '', #380, #383, #384, .T. );
#342 = EDGE_CURVE( '', #385, #383, #386, .F. );
#343 = EDGE_CURVE( '', #381, #385, #387, .T. );
#344 = FILL_AREA_STYLE( '', ( #388 ) );
#345 = EDGE_CURVE( '', #389, #389, #390, .T. );
#346 = FILL_AREA_STYLE( '', ( #391 ) );
#347 = EDGE_CURVE( '', #392, #392, #393, .T. );
#348 = EDGE_CURVE( '', #394, #394, #395, .T. );
#349 = FILL_AREA_STYLE( '', ( #396 ) );
#350 = FILL_AREA_STYLE( '', ( #397 ) );
#351 = EDGE_CURVE( '', #398, #398, #399, .T. );
#352 = EDGE_CURVE( '', #400, #400, #401, .T. );
#353 = FILL_AREA_STYLE( '', ( #402 ) );
#354 = EDGE_CURVE( '', #403, #403, #404, .T. );
#355 = EDGE_CURVE( '', #405, #405, #406, .T. );
#356 = FILL_AREA_STYLE( '', ( #407 ) );
#357 = EDGE_CURVE( '', #385, #381, #408, .T. );
#358 = FILL_AREA_STYLE( '', ( #409 ) );
#359 = EDGE_CURVE( '', #410, #410, #411, .T. );
#360 = FILL_AREA_STYLE( '', ( #412 ) );
#361 = EDGE_CURVE( '', #413, #413, #414, .T. );
#362 = FILL_AREA_STYLE( '', ( #415 ) );
#363 = FILL_AREA_STYLE( '', ( #416 ) );
#364 = EDGE_CURVE( '', #383, #380, #417, .T. );
#365 = FILL_AREA_STYLE( '', ( #418 ) );
#366 = FILL_AREA_STYLE( '', ( #419 ) );
#367 = FILL_AREA_STYLE( '', ( #420 ) );
#368 = FILL_AREA_STYLE( '', ( #421 ) );
#369 = FILL_AREA_STYLE_COLOUR( '', #422 );
#370 = VERTEX_POINT( '', #423 );
#371 = CIRCLE( '', #424, 10.6000000000000 );
#372 = VERTEX_POINT( '', #425 );
#373 = CIRCLE( '', #426, 9.60000000000000 );
#374 = FILL_AREA_STYLE_COLOUR( '', #427 );
#375 = VERTEX_POINT( '', #428 );
#376 = CIRCLE( '', #429, 24.5000000000000 );
#377 = VERTEX_POINT( '', #430 );
#378 = CIRCLE( '', #431, 16.0000000000000 );
#379 = FILL_AREA_STYLE_COLOUR( '', #432 );
#380 = VERTEX_POINT( '', #433 );
#381 = VERTEX_POINT( '', #434 );
#382 = LINE( '', #435, #436 );
#383 = VERTEX_POINT( '', #437 );
#384 = CIRCLE( '', #438, 16.0000000000000 );
#385 = VERTEX_POINT( '', #439 );
#386 = LINE( '', #440, #441 );
#387 = ELLIPSE( '', #442, 22.6274169979695, 16.0000000000000 );
#388 = FILL_AREA_STYLE_COLOUR( '', #443 );
#389 = VERTEX_POINT( '', #444 );
#390 = CIRCLE( '', #445, 10.6000000000000 );
#391 = FILL_AREA_STYLE_COLOUR( '', #446 );
#392 = VERTEX_POINT( '', #447 );
#393 = CIRCLE( '', #448, 9.60000000000000 );
#394 = VERTEX_POINT( '', #449 );
#395 = CIRCLE( '', #450, 15.7607695154587 );
#396 = FILL_AREA_STYLE_COLOUR( '', #451 );
#397 = FILL_AREA_STYLE_COLOUR( '', #452 );
#398 = VERTEX_POINT( '', #453 );
#399 = CIRCLE( '', #454, 18.0000000000000 );
#400 = VERTEX_POINT( '', #455 );
#401 = CIRCLE( '', #456, 24.5000000000000 );
#402 = FILL_AREA_STYLE_COLOUR( '', #457 );
#403 = VERTEX_POINT( '', #458 );
#404 = CIRCLE( '', #459, 9.05000000000000 );
#405 = VERTEX_POINT( '', #460 );
#406 = CIRCLE( '', #461, 13.2557152573402 );
#407 = FILL_AREA_STYLE_COLOUR( '', #462 );
#408 = LINE( '', #463, #464 );
#409 = FILL_AREA_STYLE_COLOUR( '', #465 );
#410 = VERTEX_POINT( '', #466 );
#411 = CIRCLE( '', #467, 9.05000000000000 );
#412 = FILL_AREA_STYLE_COLOUR( '', #468 );
#413 = VERTEX_POINT( '', #469 );
#414 = CIRCLE( '', #470, 18.0000000000000 );
#415 = FILL_AREA_STYLE_COLOUR( '', #471 );
#416 = FILL_AREA_STYLE_COLOUR( '', #472 );
#417 = LINE( '', #473, #474 );
#418 = FILL_AREA_STYLE_COLOUR( '', #475 );
#419 = FILL_AREA_STYLE_COLOUR( '', #476 );
#420 = FILL_AREA_STYLE_COLOUR( '', #477 );
#421 = FILL_AREA_STYLE_COLOUR( '', #478 );
#422 = COLOUR_RGB( '', 0.662745118141174, 0.686274528503418, 0.698039233684540 );
#423 = CARTESIAN_POINT( '', ( -5.00000000000000, 0.000000000000000, 10.6000000000000 ) );
#424 = AXIS2_PLACEMENT_3D( '', #479, #480, #481 );
#425 = CARTESIAN_POINT( '', ( -5.00000000000000, 0.000000000000000, 9.60000000000000 ) );
#426 = AXIS2_PLACEMENT_3D( '', #482, #483, #484 );
#427 = COLOUR_RGB( '', 0.662745118141174, 0.686274528503418, 0.698039233684540 );
#428 = CARTESIAN_POINT( '', ( 22.0000000000000, 0.000000000000000, 24.5000000000000 ) );
#429 = AXIS2_PLACEMENT_3D( '', #485, #486, #487 );
#430 = CARTESIAN_POINT( '', ( 22.0000000000000, 0.000000000000000, 16.0000000000000 ) );
#431 = AXIS2_PLACEMENT_3D( '', #488, #489, #490 );
#432 = COLOUR_RGB( '', 0.662745118141174, 0.686274528503418, 0.698039233684540 );
#433 = CARTESIAN_POINT( '', ( 82.0000000000000, 14.0000000000000, -7.74596669241478 ) );
#434 = CARTESIAN_POINT( '', ( 26.0000000000000, 14.0000000000000, -7.74596669241477 ) );
#435 = CARTESIAN_POINT( '', ( 48.0000000000000, 14.0000000000000, -7.74596669241478 ) );
#436 = VECTOR( '', #491, 1000.00000000000 );
#437 = CARTESIAN_POINT( '', ( 82.0000000000000, 14.0000000000000, 7.74596669241478 ) );
#438 = AXIS2_PLACEMENT_3D( '', #492, #493, #494 );
#439 = CARTESIAN_POINT( '', ( 26.0000000000000, 14.0000000000000, 7.74596669241478 ) );
#440 = CARTESIAN_POINT( '', ( 48.0000000000000, 14.0000000000000, 7.74596669241478 ) );
#441 = VECTOR( '', #495, 1000.00000000000 );
#442 = AXIS2_PLACEMENT_3D( '', #496, #497, #498 );
#443 = COLOUR_RGB( '', 0.662745118141174, 0.686274528503418, 0.698039233684540 );
#444 = CARTESIAN_POINT( '', ( -0.0111781965873373, 0.000000000000000, 10.6000000000000 ) );
#445 = AXIS2_PLACEMENT_3D( '', #499, #500, #501 );
#446 = COLOUR_RGB( '', 0.662745118141174, 0.686274528503418, 0.698039233684540 );
#447 = CARTESIAN_POINT( '', ( -7.00000000000000, 0.000000000000000, 9.60000000000000 ) );
#448 = AXIS2_PLACEMENT_3D( '', #502, #503, #504 );
#449 = CARTESIAN_POINT( '', ( -7.00000000000000, 0.000000000000000, 15.7607695154587 ) );
#450 = AXIS2_PLACEMENT_3D( '', #505, #506, #507 );
#451 = COLOUR_RGB( '', 0.662745118141174, 0.686274528503418, 0.698039233684540 );
#452 = COLOUR_RGB( '', 0.662745118141174, 0.686274528503418, 0.698039233684540 );
#453 = CARTESIAN_POINT( '', ( 0.000000000000000, 0.000000000000000, 18.0000000000000 ) );
#454 = AXIS2_PLACEMENT_3D( '', #508, #509, #510 );
#455 = CARTESIAN_POINT( '', ( 0.000000000000000, 0.000000000000000, 24.5000000000000 ) );
#456 = AXIS2_PLACEMENT_3D( '', #511, #512, #513 );
#457 = COLOUR_RGB( '', 0.662745118141174, 0.686274528503418, 0.698039233684540 );
#458 = CARTESIAN_POINT( '', ( 34.5138745626093, 0.000000000000000, 9.05000000000000 ) );
#459 = AXIS2_PLACEMENT_3D( '', #514, #515, #516 );
#460 = CARTESIAN_POINT( '', ( 4.58865555956169, 0.000000000000000, 13.2557152573402 ) );
#461 = AXIS2_PLACEMENT_3D( '', #517, #518, #519 );
#462 = COLOUR_RGB( '', 0.662745118141174, 0.686274528503418, 0.698039233684540 );
#463 = CARTESIAN_POINT( '', ( 26.0000000000000, 14.0000000000000, 62.1000000000000 ) );
#464 = VECTOR( '', #520, 1000.00000000000 );
#465 = COLOUR_RGB( '', 0.662745118141174, 0.686274528503418, 0.698039233684540 );
#466 = CARTESIAN_POINT( '', ( 48.0000000000000, 0.000000000000000, 9.05000000000000 ) );
#467 = AXIS2_PLACEMENT_3D( '', #521, #522, #523 );
#468 = COLOUR_RGB( '', 0.662745118141174, 0.686274528503418, 0.698039233684540 );
#469 = CARTESIAN_POINT( '', ( -6.40000000000000, 0.000000000000000, 18.0000000000000 ) );
#470 = AXIS2_PLACEMENT_3D( '', #524, #525, #526 );
#471 = COLOUR_RGB( '', 0.662745118141174, 0.686274528503418, 0.698039233684540 );
#472 = COLOUR_RGB( '', 0.662745118141174, 0.686274528503418, 0.698039233684540 );
#473 = CARTESIAN_POINT( '', ( 82.0000000000000, 14.0000000000000, 0.000000000000000 ) );
#474 = VECTOR( '', #527, 1000.00000000000 );
#475 = COLOUR_RGB( '', 0.662745118141174, 0.686274528503418, 0.698039233684540 );
#476 = COLOUR_RGB( '', 0.662745118141174, 0.686274528503418, 0.698039233684540 );
#477 = COLOUR_RGB( '', 0.662745118141174, 0.686274528503418, 0.698039233684540 );
#478 = COLOUR_RGB( '', 0.662745118141174, 0.686274528503418, 0.698039233684540 );
#479 = CARTESIAN_POINT( '', ( -5.00000000000000, 0.000000000000000, 0.000000000000000 ) );
#480 = DIRECTION( '', ( -1.00000000000000, 0.000000000000000, 0.000000000000000 ) );
#481 = DIRECTION( '', ( 0.000000000000000, 0.000000000000000, 1.00000000000000 ) );
#482 = CARTESIAN_POINT( '', ( -5.00000000000000, 0.000000000000000, 0.000000000000000 ) );
#483 = DIRECTION( '', ( -1.00000000000000, 0.000000000000000, 0.000000000000000 ) );
#484 = DIRECTION( '', ( 0.000000000000000, 0.000000000000000, 1.00000000000000 ) );
#485 = CARTESIAN_POINT( '', ( 22.0000000000000, 0.000000000000000, 0.000000000000000 ) );
#486 = DIRECTION( '', ( -1.00000000000000, 0.000000000000000, 0.000000000000000 ) );
#487 = DIRECTION( '', ( 0.000000000000000, 0.000000000000000, 1.00000000000000 ) );
#488 = CARTESIAN_POINT( '', ( 22.0000000000000, 0.000000000000000, 0.000000000000000 ) );
#489 = DIRECTION( '', ( -1.00000000000000, 0.000000000000000, 0.000000000000000 ) );
#490 = DIRECTION( '', ( 0.000000000000000, 0.000000000000000, 1.00000000000000 ) );
#491 = DIRECTION( '', ( -1.00000000000000, 0.000000000000000, 0.000000000000000 ) );
#492 = CARTESIAN_POINT( '', ( 82.0000000000000, 0.000000000000000, 0.000000000000000 ) );
#493 = DIRECTION( '', ( -1.00000000000000, 0.000000000000000, 0.000000000000000 ) );
#494 = DIRECTION( '', ( 0.000000000000000, 0.000000000000000, 1.00000000000000 ) );
#495 = DIRECTION( '', ( -1.00000000000000, 0.000000000000000, 0.000000000000000 ) );
#496 = CARTESIAN_POINT( '', ( 40.0000000000000, 0.000000000000000, 0.000000000000000 ) );
#497 = DIRECTION( '', ( 0.707106781186549, 0.707106781186547, 0.000000000000000 ) );
#498 = DIRECTION( '', ( -0.707106781186546, 0.707106781186548, 0.000000000000000 ) );
#499 = CARTESIAN_POINT( '', ( -0.0111781965873373, 0.000000000000000, 0.000000000000000 ) );
#500 = DIRECTION( '', ( -1.00000000000000, 0.000000000000000, 0.000000000000000 ) );
#501 = DIRECTION( '', ( 0.000000000000000, 0.000000000000000, 1.00000000000000 ) );
#502 = CARTESIAN_POINT( '', ( -7.00000000000000, 0.000000000000000, 0.000000000000000 ) );
#503 = DIRECTION( '', ( -1.00000000000000, 0.000000000000000, 0.000000000000000 ) );
#504 = DIRECTION( '', ( 0.000000000000000, 0.000000000000000, 1.00000000000000 ) );
#505 = CARTESIAN_POINT( '', ( -7.00000000000000, 0.000000000000000, 0.000000000000000 ) );
#506 = DIRECTION( '', ( -1.00000000000000, 0.000000000000000, 0.000000000000000 ) );
#507 = DIRECTION( '', ( 0.000000000000000, 0.000000000000000, 1.00000000000000 ) );
#508 = CARTESIAN_POINT( '', ( 0.000000000000000, 0.000000000000000, 0.000000000000000 ) );
#509 = DIRECTION( '', ( -1.00000000000000, 0.000000000000000, 0.000000000000000 ) );
#510 = DIRECTION( '', ( 0.000000000000000, 0.000000000000000, 1.00000000000000 ) );
#511 = CARTESIAN_POINT( '', ( 0.000000000000000, 0.000000000000000, 0.000000000000000 ) );
#512 = DIRECTION( '', ( -1.00000000000000, 0.000000000000000, 0.000000000000000 ) );
#513 = DIRECTION( '', ( 0.000000000000000, 0.000000000000000, 1.00000000000000 ) );
#514 = CARTESIAN_POINT( '', ( 34.5138745626093, 0.000000000000000, 0.000000000000000 ) );
#515 = DIRECTION( '', ( -1.00000000000000, 0.000000000000000, 0.000000000000000 ) );
#516 = DIRECTION( '', ( 0.000000000000000, 0.000000000000000, 1.00000000000000 ) );
#517 = CARTESIAN_POINT( '', ( 4.58865555956169, 0.000000000000000, 0.000000000000000 ) );
#518 = DIRECTION( '', ( -1.00000000000000, 0.000000000000000, 0.000000000000000 ) );
#519 = DIRECTION( '', ( 0.000000000000000, 0.000000000000000, 1.00000000000000 ) );
#520 = DIRECTION( '', ( 0.000000000000000, 0.000000000000000, -1.00000000000000 ) );
#521 = CARTESIAN_POINT( '', ( 48.0000000000000, 0.000000000000000, 0.000000000000000 ) );
#522 = DIRECTION( '', ( -1.00000000000000, 0.000000000000000, 0.000000000000000 ) );
#523 = DIRECTION( '', ( 0.000000000000000, 0.000000000000000, 1.00000000000000 ) );
#524 = CARTESIAN_POINT( '', ( -6.40000000000000, 0.000000000000000, 0.000000000000000 ) );
#525 = DIRECTION( '', ( -1.00000000000000, 0.000000000000000, 0.000000000000000 ) );
#526 = DIRECTION( '', ( 0.000000000000000, 0.000000000000000, 1.00000000000000 ) );
#527 = DIRECTION( '', ( 0.000000000000000, 0.000000000000000, -1.00000000000000 ) );
ENDSEC;
END-ISO-10303-21;
