ISO-10303-21;
HEADER;
FILE_DESCRIPTION (( 'STEP AP214' ),
    '1' );
FILE_NAME ('95-1-78767-10.STEP',
    '2021-01-19T08:58:39',
    ( '' ),
    ( '' ),
    'SwSTEP 2.0',
    'SolidWorks 2020',
    '' );
FILE_SCHEMA (( 'AUTOMOTIVE_DESIGN' ));
ENDSEC;

DATA;
#1 = VERTEX_POINT ( 'NONE', #181 ) ;
#2 = AXIS2_PLACEMENT_3D ( 'NONE', #231, #109, #275 ) ;
#3 = PRESENTATION_STYLE_ASSIGNMENT (( #9 ) ) ;
#4 = ORIENTED_EDGE ( 'NONE', *, *, #313, .T. ) ;
#5 = EDGE_LOOP ( 'NONE', ( #250, #4, #151 ) ) ;
#6 = APPLICATION_PROTOCOL_DEFINITION ( 'draft international standard', 'automotive_design', 1998, #101 ) ;
#7 = ADVANCED_FACE ( 'NONE', ( #10 ), #80, .T. ) ;
#8 = ORIENTED_EDGE ( 'NONE', *, *, #147, .T. ) ;
#9 = SURFACE_STYLE_USAGE ( .BOTH. , #223 ) ;
#10 = FACE_OUTER_BOUND ( 'NONE', #217, .T. ) ;
#11 = FILL_AREA_STYLE_COLOUR ( '', #172 ) ;
#12 = DIRECTION ( 'NONE',  ( 1.000000000000000000, 1.749495427353361989E-17, -0.0000000000000000000 ) ) ;
#13 = CIRCLE ( 'NONE', #35, 5.999999999999993783 ) ;
#14 = CARTESIAN_POINT ( 'NONE',  ( 5.248486282060077954E-17, 9.182202750990953775E-34, 0.0000000000000000000 ) ) ;
#15 = CARTESIAN_POINT ( 'NONE',  ( 70.00000000000000000, 1.224646799147353651E-15, 0.0000000000000000000 ) ) ;
#16 = FACE_OUTER_BOUND ( 'NONE', #269, .T. ) ;
#17 = PRODUCT_CONTEXT ( 'NONE', #101, 'mechanical' ) ;
#18 = DIRECTION ( 'NONE',  ( -1.000000000000000000, -1.749495427353361989E-17, 0.0000000000000000000 ) ) ;
#19 = DIRECTION ( 'NONE',  ( 1.000000000000000000, 1.749495427353361989E-17, -0.0000000000000000000 ) ) ;
#20 = ADVANCED_FACE ( 'NONE', ( #79 ), #277, .T. ) ;
#21 = CARTESIAN_POINT ( 'NONE',  ( -929.9999999999998863, -1.627030747438626500E-14, 0.0000000000000000000 ) ) ;
#22 = VECTOR ( 'NONE', #196, 999.9999999999998863 ) ;
#23 = ORIENTED_EDGE ( 'NONE', *, *, #204, .F. ) ;
#24 = VERTEX_POINT ( 'NONE', #34 ) ;
#25 = ADVANCED_FACE ( 'NONE', ( #63 ), #37, .T. ) ;
#26 = ORIENTED_EDGE ( 'NONE', *, *, #122, .T. ) ;
#27 = DIRECTION ( 'NONE',  ( 1.000000000000000000, 1.749495427353378321E-17, -0.0000000000000000000 ) ) ;
#28 = AXIS2_PLACEMENT_3D ( 'NONE', #51, #297, #295 ) ;
#29 = CARTESIAN_POINT ( 'NONE',  ( 70.00000000000000000, 1.224646799147353651E-15, 0.0000000000000000000 ) ) ;
#30 = ORIENTED_EDGE ( 'NONE', *, *, #92, .F. ) ;
#31 = CARTESIAN_POINT ( 'NONE',  ( 1.000000000000000888, 5.999999999999993783, 0.0000000000000000000 ) ) ;
#32 = PLANE ( 'NONE',  #105 ) ;
#33 = DIRECTION ( 'NONE',  ( 1.000000000000000000, 1.749495427353378321E-17, -0.0000000000000000000 ) ) ;
#34 = CARTESIAN_POINT ( 'NONE',  ( 1.000000000000000888, -5.999999999999994671, 7.347880794884113820E-16 ) ) ;
#35 = AXIS2_PLACEMENT_3D ( 'NONE', #107, #33, #130 ) ;
#36 = DIRECTION ( 'NONE',  ( -1.000000000000000000, -1.749495427353361989E-17, 0.0000000000000000000 ) ) ;
#37 = CONICAL_SURFACE ( 'NONE', #2, 1732.050807568895380, 1.047197551196602294 ) ;
#38 = DIRECTION ( 'NONE',  ( 1.000000000000000000, 1.749495427353378321E-17, -0.0000000000000000000 ) ) ;
#39 = CONICAL_SURFACE ( 'NONE', #208, 1732.050807568895380, 1.047197551196602294 ) ;
#40 = CARTESIAN_POINT ( 'NONE',  ( 52.00000000000000711, 9.097376222237483081E-16, 0.0000000000000000000 ) ) ;
#41 = DIRECTION ( 'NONE',  ( 1.749495427353361681E-17, -1.000000000000000000, 0.0000000000000000000 ) ) ;
#42 = EDGE_LOOP ( 'NONE', ( #314, #273 ) ) ;
#43 = EDGE_CURVE ( 'NONE', #267, #1, #218, .T. ) ;
#44 = VECTOR ( 'NONE', #202, 1000.000000000000000 ) ;
#45 = VERTEX_POINT ( 'NONE', #210 ) ;
#46 = DIRECTION ( 'NONE',  ( 0.0000000000000000000, 1.000000000000000000, 0.0000000000000000000 ) ) ;
#47 = ORIENTED_EDGE ( 'NONE', *, *, #276, .T. ) ;
#48 = APPLICATION_CONTEXT ( 'automotive_design' ) ;
#49 = SURFACE_STYLE_FILL_AREA ( #154 ) ;
#50 = VERTEX_POINT ( 'NONE', #106 ) ;
#51 = CARTESIAN_POINT ( 'NONE',  ( 50.99999999999999289, 8.922426679502145464E-16, 0.0000000000000000000 ) ) ;
#52 = AXIS2_PLACEMENT_3D ( 'NONE', #40, #288, #67 ) ;
#53 = AXIS2_PLACEMENT_3D ( 'NONE', #286, #165, #41 ) ;
#54 = ORIENTED_EDGE ( 'NONE', *, *, #186, .F. ) ;
#55 = EDGE_CURVE ( 'NONE', #24, #304, #225, .T. ) ;
#56 = CARTESIAN_POINT ( 'NONE',  ( 50.99999999999999289, 8.922426679502145464E-16, 0.0000000000000000000 ) ) ;
#57 = CARTESIAN_POINT ( 'NONE',  ( 1.000000000000000888, 1.749495427353379861E-17, 0.0000000000000000000 ) ) ;
#58 = ADVANCED_FACE ( 'NONE', ( #307 ), #86, .T. ) ;
#59 = PRODUCT_DEFINITION_SHAPE ( 'NONE', 'NONE',  #81 ) ;
#60 = DIRECTION ( 'NONE',  ( 0.0000000000000000000, 1.000000000000000000, 0.0000000000000000000 ) ) ;
#61 = STYLED_ITEM ( 'NONE', ( #3 ), #188 ) ;
#62 = VECTOR ( 'NONE', #263, 1000.000000000000114 ) ;
#63 = FACE_OUTER_BOUND ( 'NONE', #128, .T. ) ;
#64 = DIRECTION ( 'NONE',  ( 0.0000000000000000000, -1.000000000000000000, 0.0000000000000000000 ) ) ;
#65 = EDGE_CURVE ( 'NONE', #296, #267, #284, .T. ) ;
#66 = DIRECTION ( 'NONE',  ( -1.000000000000000000, -1.749495427353361989E-17, 0.0000000000000000000 ) ) ;
#67 = DIRECTION ( 'NONE',  ( 0.0000000000000000000, 1.000000000000000000, 0.0000000000000000000 ) ) ;
#68 = CIRCLE ( 'NONE', #28, 5.999999999999996447 ) ;
#69 = LINE ( 'NONE', #184, #62 ) ;
#70 = DIRECTION ( 'NONE',  ( 0.0000000000000000000, 1.000000000000000000, 0.0000000000000000000 ) ) ;
#71 = FILL_AREA_STYLE_COLOUR ( '', #289 ) ;
#72 = ORIENTED_EDGE ( 'NONE', *, *, #65, .T. ) ;
#73 =( GEOMETRIC_REPRESENTATION_CONTEXT ( 3 ) GLOBAL_UNCERTAINTY_ASSIGNED_CONTEXT ( ( #193 ) ) GLOBAL_UNIT_ASSIGNED_CONTEXT ( ( #144, #126, #199 ) ) REPRESENTATION_CONTEXT ( 'NONE', 'WORKASPACE' ) );
#74 = ORIENTED_EDGE ( 'NONE', *, *, #43, .T. ) ;
#75 = ORIENTED_EDGE ( 'NONE', *, *, #265, .F. ) ;
#76 = ORIENTED_EDGE ( 'NONE', *, *, #141, .F. ) ;
#77 = AXIS2_PLACEMENT_3D ( 'NONE', #280, #157, #255 ) ;
#78 = ORIENTED_EDGE ( 'NONE', *, *, #55, .F. ) ;
#79 = FACE_OUTER_BOUND ( 'NONE', #142, .T. ) ;
#80 = CYLINDRICAL_SURFACE ( 'NONE', #177, 4.999999999999997335 ) ;
#81 = PRODUCT_DEFINITION ( 'UNKNOWN', '', #279, #291 ) ;
#82 = AXIS2_PLACEMENT_3D ( 'NONE', #179, #160, #152 ) ;
#83 = DIRECTION ( 'NONE',  ( 0.0000000000000000000, 1.000000000000000000, 0.0000000000000000000 ) ) ;
#84 =( GEOMETRIC_REPRESENTATION_CONTEXT ( 3 ) GLOBAL_UNCERTAINTY_ASSIGNED_CONTEXT ( ( #120 ) ) GLOBAL_UNIT_ASSIGNED_CONTEXT ( ( #212, #140, #261 ) ) REPRESENTATION_CONTEXT ( 'NONE', 'WORKASPACE' ) );
#85 = CARTESIAN_POINT ( 'NONE',  ( 67.11324865405191531, 1.174143216350930017E-15, 0.0000000000000000000 ) ) ;
#86 = CYLINDRICAL_SURFACE ( 'NONE', #77, 4.999999999999997335 ) ;
#87 = ADVANCED_FACE ( 'NONE', ( #278 ), #132, .T. ) ;
#88 = VECTOR ( 'NONE', #159, 999.9999999999998863 ) ;
#89 = DIRECTION ( 'NONE',  ( 0.0000000000000000000, 0.0000000000000000000, 1.000000000000000000 ) ) ;
#90 = CARTESIAN_POINT ( 'NONE',  ( 52.00000000000000711, 9.097376222237483081E-16, 0.0000000000000000000 ) ) ;
#91 = PRESENTATION_LAYER_ASSIGNMENT (  '', '', ( #162 ) ) ;
#92 = EDGE_CURVE ( 'NONE', #50, #299, #187, .T. ) ;
#93 = AXIS2_PLACEMENT_3D ( 'NONE', #85, #259, #206 ) ;
#94 = VECTOR ( 'NONE', #183, 1000.000000000000114 ) ;
#95 = EDGE_LOOP ( 'NONE', ( #143, #102, #97, #198 ) ) ;
#96 = ADVANCED_FACE ( 'NONE', ( #131 ), #246, .T. ) ;
#97 = ORIENTED_EDGE ( 'NONE', *, *, #115, .F. ) ;
#98 = ORIENTED_EDGE ( 'NONE', *, *, #226, .F. ) ;
#99 = ADVANCED_FACE ( 'NONE', ( #230 ), #32, .T. ) ;
#100 = LINE ( 'NONE', #252, #201 ) ;
#101 = APPLICATION_CONTEXT ( 'automotive_design' ) ;
#102 = ORIENTED_EDGE ( 'NONE', *, *, #209, .T. ) ;
#103 = EDGE_LOOP ( 'NONE', ( #168, #26, #30, #54 ) ) ;
#104 = DIRECTION ( 'NONE',  ( 1.000000000000000000, 1.749495427353361989E-17, -0.0000000000000000000 ) ) ;
#105 = AXIS2_PLACEMENT_3D ( 'NONE', #14, #224, #200 ) ;
#106 = CARTESIAN_POINT ( 'NONE',  ( 67.11324865405191531, 4.999999999999998224, 0.0000000000000000000 ) ) ;
#107 = CARTESIAN_POINT ( 'NONE',  ( 1.000000000000000888, 1.749495427353379861E-17, 0.0000000000000000000 ) ) ;
#108 = SHAPE_DEFINITION_REPRESENTATION ( #59, #188 ) ;
#109 = DIRECTION ( 'NONE',  ( -1.000000000000000000, -1.749495427353361989E-17, 0.0000000000000000000 ) ) ;
#110 = LINE ( 'NONE', #161, #22 ) ;
#111 = AXIS2_PLACEMENT_3D ( 'NONE', #112, #180, #282 ) ;
#112 = CARTESIAN_POINT ( 'NONE',  ( 52.00000000000000711, 9.097376222237483081E-16, 0.0000000000000000000 ) ) ;
#113 = LINE ( 'NONE', #305, #136 ) ;
#114 = DIRECTION ( 'NONE',  ( 1.000000000000000000, 1.749495427353361989E-17, -0.0000000000000000000 ) ) ;
#115 = EDGE_CURVE ( 'NONE', #304, #24, #13, .T. ) ;
#116 = CARTESIAN_POINT ( 'NONE',  ( 52.00000000000000711, 4.999999999999998224, 6.735557395310439065E-16 ) ) ;
#117 = VECTOR ( 'NONE', #214, 1000.000000000000000 ) ;
#118 = PRESENTATION_STYLE_ASSIGNMENT (( #189 ) ) ;
#119 = CARTESIAN_POINT ( 'NONE',  ( 70.00000000000000000, 4.999999999999998224, 0.0000000000000000000 ) ) ;
#120 = UNCERTAINTY_MEASURE_WITH_UNIT (LENGTH_MEASURE( 1.000000000000000082E-05 ), #212, 'distance_accuracy_value', 'NONE');
#121 = AXIS2_PLACEMENT_3D ( 'NONE', #237, #19, #303 ) ;
#122 = EDGE_CURVE ( 'NONE', #296, #299, #227, .T. ) ;
#123 = ORIENTED_EDGE ( 'NONE', *, *, #256, .F. ) ;
#124 = ORIENTED_EDGE ( 'NONE', *, *, #122, .F. ) ;
#125 = CLOSED_SHELL ( 'NONE', ( #311, #182, #58, #138, #87, #99, #240, #20, #7, #25, #96 ) ) ;
#126 =( NAMED_UNIT ( * ) PLANE_ANGLE_UNIT ( ) SI_UNIT ( $, .RADIAN. ) );
#127 = CIRCLE ( 'NONE', #52, 4.999999999999997335 ) ;
#128 = EDGE_LOOP ( 'NONE', ( #194, #8, #248 ) ) ;
#129 = EDGE_LOOP ( 'NONE', ( #290, #98, #47, #78 ) ) ;
#130 = DIRECTION ( 'NONE',  ( 0.0000000000000000000, -1.000000000000000000, 0.0000000000000000000 ) ) ;
#131 = FACE_OUTER_BOUND ( 'NONE', #129, .T. ) ;
#132 = CYLINDRICAL_SURFACE ( 'NONE', #205, 5.999999999999993783 ) ;
#133 = AXIS2_PLACEMENT_3D ( 'NONE', #56, #104, #176 ) ;
#134 = DIRECTION ( 'NONE',  ( 0.0000000000000000000, 1.000000000000000000, 0.0000000000000000000 ) ) ;
#135 = EDGE_CURVE ( 'NONE', #169, #45, #229, .T. ) ;
#136 = VECTOR ( 'NONE', #258, 1000.000000000000000 ) ;
#137 = DIRECTION ( 'NONE',  ( 1.000000000000000000, 1.749495427353361989E-17, -0.0000000000000000000 ) ) ;
#138 = ADVANCED_FACE ( 'NONE', ( #16 ), #156, .T. ) ;
#139 = CARTESIAN_POINT ( 'NONE',  ( 70.00000000000000000, 5.999999999999994671, 0.0000000000000000000 ) ) ;
#140 =( NAMED_UNIT ( * ) PLANE_ANGLE_UNIT ( ) SI_UNIT ( $, .RADIAN. ) );
#141 = EDGE_CURVE ( 'NONE', #304, #1, #232, .T. ) ;
#142 = EDGE_LOOP ( 'NONE', ( #75, #244, #72, #74 ) ) ;
#143 = ORIENTED_EDGE ( 'NONE', *, *, #135, .F. ) ;
#144 =( LENGTH_UNIT ( ) NAMED_UNIT ( * ) SI_UNIT ( .MILLI., .METRE. ) );
#145 = ORIENTED_EDGE ( 'NONE', *, *, #65, .F. ) ;
#146 = ORIENTED_EDGE ( 'NONE', *, *, #195, .T. ) ;
#147 = EDGE_CURVE ( 'NONE', #219, #299, #236, .T. ) ;
#148 = CIRCLE ( 'NONE', #190, 4.999999999999997335 ) ;
#149 = CARTESIAN_POINT ( 'NONE',  ( 67.11324865405191531, -4.999999999999996447, 6.123233995736763324E-16 ) ) ;
#150 = CYLINDRICAL_SURFACE ( 'NONE', #166, 5.999999999999993783 ) ;
#151 = ORIENTED_EDGE ( 'NONE', *, *, #92, .T. ) ;
#152 = DIRECTION ( 'NONE',  ( 0.0000000000000000000, -1.000000000000000000, 0.0000000000000000000 ) ) ;
#153 = MANIFOLD_SOLID_BREP ( 'Fase1', #125 ) ;
#154 = FILL_AREA_STYLE ('',( #11 ) ) ;
#155 = CARTESIAN_POINT ( 'NONE',  ( 70.00000000000000000, 1.224646799147353651E-15, 0.0000000000000000000 ) ) ;
#156 = CONICAL_SURFACE ( 'NONE', #111, 4.999999999999997335, 0.7853981633974405074 ) ;
#157 = DIRECTION ( 'NONE',  ( 1.000000000000000000, 1.749495427353361989E-17, -0.0000000000000000000 ) ) ;
#158 = CARTESIAN_POINT ( 'NONE',  ( 0.0000000000000000000, 0.0000000000000000000, 0.0000000000000000000 ) ) ;
#159 = DIRECTION ( 'NONE',  ( -0.7071067811865531239, -0.7071067811865420216, 0.0000000000000000000 ) ) ;
#160 = DIRECTION ( 'NONE',  ( 1.000000000000000000, 1.749495427353378321E-17, -0.0000000000000000000 ) ) ;
#161 = CARTESIAN_POINT ( 'NONE',  ( 52.00000000000000711, 4.999999999999998224, 6.123233995736763324E-16 ) ) ;
#162 = STYLED_ITEM ( 'NONE', ( #118 ), #153 ) ;
#163 = AXIS2_PLACEMENT_3D ( 'NONE', #257, #38, #134 ) ;
#164 = SURFACE_STYLE_FILL_AREA ( #234 ) ;
#165 = DIRECTION ( 'NONE',  ( -1.000000000000000000, -1.749495427353361989E-17, 0.0000000000000000000 ) ) ;
#166 = AXIS2_PLACEMENT_3D ( 'NONE', #29, #298, #283 ) ;
#167 = ORIENTED_EDGE ( 'NONE', *, *, #115, .T. ) ;
#168 = ORIENTED_EDGE ( 'NONE', *, *, #204, .T. ) ;
#169 = VERTEX_POINT ( 'NONE', #239 ) ;
#170 = ORIENTED_EDGE ( 'NONE', *, *, #256, .T. ) ;
#171 =( LENGTH_UNIT ( ) NAMED_UNIT ( * ) SI_UNIT ( .MILLI., .METRE. ) );
#172 = COLOUR_RGB ( '',0.7921568627450980005, 0.8196078431372548767, 0.9333333333333333481 ) ;
#173 = ORIENTED_EDGE ( 'NONE', *, *, #55, .T. ) ;
#174 = DIRECTION ( 'NONE',  ( 1.000000000000000000, 1.749495427353361989E-17, -0.0000000000000000000 ) ) ;
#175 = FACE_OUTER_BOUND ( 'NONE', #95, .T. ) ;
#176 = DIRECTION ( 'NONE',  ( 0.0000000000000000000, 1.000000000000000000, 0.0000000000000000000 ) ) ;
#177 = AXIS2_PLACEMENT_3D ( 'NONE', #155, #174, #83 ) ;
#178 = PRESENTATION_LAYER_ASSIGNMENT (  '', '', ( #61 ) ) ;
#179 = CARTESIAN_POINT ( 'NONE',  ( 1.000000000000000888, 1.749495427353379861E-17, 0.0000000000000000000 ) ) ;
#180 = DIRECTION ( 'NONE',  ( -1.000000000000000000, -1.749495427353361989E-17, 0.0000000000000000000 ) ) ;
#181 = CARTESIAN_POINT ( 'NONE',  ( 50.99999999999999289, 5.999999999999997335, 0.0000000000000000000 ) ) ;
#182 = ADVANCED_FACE ( 'NONE', ( #285 ), #39, .T. ) ;
#183 = DIRECTION ( 'NONE',  ( -0.4999999999999960032, -0.8660254037844409281, 0.0000000000000000000 ) ) ;
#184 = CARTESIAN_POINT ( 'NONE',  ( 1.000000000000000888, -5.999999999999993783, 7.347880794884111847E-16 ) ) ;
#185 = CARTESIAN_POINT ( 'NONE',  ( 70.00000000000000000, 1.224646799147353651E-15, 0.0000000000000000000 ) ) ;
#186 = EDGE_CURVE ( 'NONE', #197, #50, #262, .T. ) ;
#187 = CIRCLE ( 'NONE', #93, 4.999999999999997335 ) ;
#188 = ADVANCED_BREP_SHAPE_REPRESENTATION ( '95-1-78767-10', ( #153, #264 ), #309 ) ;
#189 = SURFACE_STYLE_USAGE ( .BOTH. , #310 ) ;
#190 = AXIS2_PLACEMENT_3D ( 'NONE', #90, #137, #70 ) ;
#191 = ORIENTED_EDGE ( 'NONE', *, *, #238, .F. ) ;
#192 = DIRECTION ( 'NONE',  ( -0.4999999999999960032, 0.8660254037844409281, 1.060575238724909627E-16 ) ) ;
#193 = UNCERTAINTY_MEASURE_WITH_UNIT (LENGTH_MEASURE( 1.000000000000000082E-05 ), #144, 'distance_accuracy_value', 'NONE');
#194 = ORIENTED_EDGE ( 'NONE', *, *, #313, .F. ) ;
#195 = EDGE_CURVE ( 'NONE', #296, #197, #127, .T. ) ;
#196 = DIRECTION ( 'NONE',  ( -0.7071067811865531239, 0.7071067811865420216, 8.659560562354866298E-17 ) ) ;
#197 = VERTEX_POINT ( 'NONE', #116 ) ;
#198 = ORIENTED_EDGE ( 'NONE', *, *, #276, .F. ) ;
#199 =( NAMED_UNIT ( * ) SI_UNIT ( $, .STERADIAN. ) SOLID_ANGLE_UNIT ( ) );
#200 = DIRECTION ( 'NONE',  ( 1.749495427353361989E-17, -1.000000000000000000, 0.0000000000000000000 ) ) ;
#201 = VECTOR ( 'NONE', #249, 1000.000000000000114 ) ;
#202 = DIRECTION ( 'NONE',  ( 1.000000000000000000, 1.749495427353361989E-17, -0.0000000000000000000 ) ) ;
#203 = DIRECTION ( 'NONE',  ( 1.749495427353361681E-17, -1.000000000000000000, 0.0000000000000000000 ) ) ;
#204 = EDGE_CURVE ( 'NONE', #197, #296, #148, .T. ) ;
#205 = AXIS2_PLACEMENT_3D ( 'NONE', #15, #12, #60 ) ;
#206 = DIRECTION ( 'NONE',  ( 0.0000000000000000000, 1.000000000000000000, 0.0000000000000000000 ) ) ;
#207 = FACE_OUTER_BOUND ( 'NONE', #294, .T. ) ;
#208 = AXIS2_PLACEMENT_3D ( 'NONE', #21, #18, #308 ) ;
#209 = EDGE_CURVE ( 'NONE', #169, #24, #69, .T. ) ;
#210 = CARTESIAN_POINT ( 'NONE',  ( -3.498990854706716582E-17, 4.999999999999990230, 0.0000000000000000000 ) ) ;
#211 = DIRECTION ( 'NONE',  ( 1.000000000000000000, 0.0000000000000000000, 0.0000000000000000000 ) ) ;
#212 =( LENGTH_UNIT ( ) NAMED_UNIT ( * ) SI_UNIT ( .MILLI., .METRE. ) );
#213 = AXIS2_PLACEMENT_3D ( 'NONE', #302, #36, #203 ) ;
#214 = DIRECTION ( 'NONE',  ( 1.000000000000000000, 1.749495427353361989E-17, -0.0000000000000000000 ) ) ;
#215 = CIRCLE ( 'NONE', #121, 4.999999999999997335 ) ;
#216 = ORIENTED_EDGE ( 'NONE', *, *, #293, .T. ) ;
#217 = EDGE_LOOP ( 'NONE', ( #124, #146, #243, #191 ) ) ;
#218 = CIRCLE ( 'NONE', #133, 5.999999999999996447 ) ;
#219 = VERTEX_POINT ( 'NONE', #235 ) ;
#220 = MECHANICAL_DESIGN_GEOMETRIC_PRESENTATION_REPRESENTATION (  '', ( #61 ), #73 ) ;
#221 = ORIENTED_EDGE ( 'NONE', *, *, #43, .F. ) ;
#222 = ORIENTED_EDGE ( 'NONE', *, *, #265, .T. ) ;
#223 = SURFACE_SIDE_STYLE ('',( #49 ) ) ;
#224 = DIRECTION ( 'NONE',  ( -1.000000000000000000, -1.749495427353361989E-17, 0.0000000000000000000 ) ) ;
#225 = CIRCLE ( 'NONE', #82, 5.999999999999993783 ) ;
#226 = EDGE_CURVE ( 'NONE', #45, #169, #281, .T. ) ;
#227 = LINE ( 'NONE', #300, #44 ) ;
#228 = VECTOR ( 'NONE', #114, 1000.000000000000000 ) ;
#229 = CIRCLE ( 'NONE', #213, 4.999999999999990230 ) ;
#230 = FACE_OUTER_BOUND ( 'NONE', #42, .T. ) ;
#231 = CARTESIAN_POINT ( 'NONE',  ( -929.9999999999998863, -1.627030747438626500E-14, 0.0000000000000000000 ) ) ;
#232 = LINE ( 'NONE', #139, #117 ) ;
#233 = CONICAL_SURFACE ( 'NONE', #272, 5.999999999999993783, 0.7853981633974496113 ) ;
#234 = FILL_AREA_STYLE ('',( #71 ) ) ;
#235 = CARTESIAN_POINT ( 'NONE',  ( 70.00000000000000000, 1.224646799147353651E-15, 0.0000000000000000000 ) ) ;
#236 = LINE ( 'NONE', #185, #94 ) ;
#237 = CARTESIAN_POINT ( 'NONE',  ( 67.11324865405191531, 1.174143216350930017E-15, 0.0000000000000000000 ) ) ;
#238 = EDGE_CURVE ( 'NONE', #299, #50, #215, .T. ) ;
#239 = CARTESIAN_POINT ( 'NONE',  ( 1.399596341882687126E-16, -4.999999999999990230, 6.735557395310433148E-16 ) ) ;
#240 = ADVANCED_FACE ( 'NONE', ( #207 ), #150, .T. ) ;
#241 = UNCERTAINTY_MEASURE_WITH_UNIT (LENGTH_MEASURE( 1.000000000000000082E-05 ), #171, 'distance_accuracy_value', 'NONE');
#242 = MECHANICAL_DESIGN_GEOMETRIC_PRESENTATION_REPRESENTATION (  '', ( #162 ), #84 ) ;
#243 = ORIENTED_EDGE ( 'NONE', *, *, #186, .T. ) ;
#244 = ORIENTED_EDGE ( 'NONE', *, *, #195, .F. ) ;
#245 = LINE ( 'NONE', #251, #312 ) ;
#246 = CONICAL_SURFACE ( 'NONE', #163, 5.999999999999993783, 0.7853981633974496113 ) ;
#247 = AXIS2_PLACEMENT_3D ( 'NONE', #306, #66, #64 ) ;
#248 = ORIENTED_EDGE ( 'NONE', *, *, #238, .T. ) ;
#249 = DIRECTION ( 'NONE',  ( 0.7071067811865465735, 0.7071067811865483499, 0.0000000000000000000 ) ) ;
#250 = ORIENTED_EDGE ( 'NONE', *, *, #147, .F. ) ;
#251 = CARTESIAN_POINT ( 'NONE',  ( 70.00000000000000000, 1.224646799147353651E-15, 0.0000000000000000000 ) ) ;
#252 = CARTESIAN_POINT ( 'NONE',  ( 1.000000000000000888, 5.999999999999993783, 0.0000000000000000000 ) ) ;
#253 = CARTESIAN_POINT ( 'NONE',  ( 52.00000000000000711, -4.999999999999996447, 0.0000000000000000000 ) ) ;
#254 = APPLICATION_PROTOCOL_DEFINITION ( 'draft international standard', 'automotive_design', 1998, #48 ) ;
#255 = DIRECTION ( 'NONE',  ( 0.0000000000000000000, 1.000000000000000000, 0.0000000000000000000 ) ) ;
#256 = EDGE_CURVE ( 'NONE', #24, #267, #113, .T. ) ;
#257 = CARTESIAN_POINT ( 'NONE',  ( 1.000000000000000888, 1.749495427353379861E-17, 0.0000000000000000000 ) ) ;
#258 = DIRECTION ( 'NONE',  ( 1.000000000000000000, 1.749495427353361989E-17, -0.0000000000000000000 ) ) ;
#259 = DIRECTION ( 'NONE',  ( 1.000000000000000000, 1.749495427353361989E-17, -0.0000000000000000000 ) ) ;
#260 = PRODUCT ( '95-1-78767-10', '95-1-78767-10', '', ( #17 ) ) ;
#261 =( NAMED_UNIT ( * ) SI_UNIT ( $, .STERADIAN. ) SOLID_ANGLE_UNIT ( ) );
#262 = LINE ( 'NONE', #119, #228 ) ;
#263 = DIRECTION ( 'NONE',  ( 0.7071067811865465735, -0.7071067811865483499, 8.659560562354942719E-17 ) ) ;
#264 = AXIS2_PLACEMENT_3D ( 'NONE', #158, #89, #211 ) ;
#265 = EDGE_CURVE ( 'NONE', #197, #1, #110, .T. ) ;
#266 = EDGE_LOOP ( 'NONE', ( #167, #170, #270, #76 ) ) ;
#267 = VERTEX_POINT ( 'NONE', #268 ) ;
#268 = CARTESIAN_POINT ( 'NONE',  ( 50.99999999999999289, -5.999999999999995559, 7.347880794884114806E-16 ) ) ;
#269 = EDGE_LOOP ( 'NONE', ( #23, #222, #216, #145 ) ) ;
#270 = ORIENTED_EDGE ( 'NONE', *, *, #293, .F. ) ;
#271 =( NAMED_UNIT ( * ) PLANE_ANGLE_UNIT ( ) SI_UNIT ( $, .RADIAN. ) );
#272 = AXIS2_PLACEMENT_3D ( 'NONE', #57, #27, #46 ) ;
#273 = ORIENTED_EDGE ( 'NONE', *, *, #135, .T. ) ;
#274 =( NAMED_UNIT ( * ) SI_UNIT ( $, .STERADIAN. ) SOLID_ANGLE_UNIT ( ) );
#275 = DIRECTION ( 'NONE',  ( 0.0000000000000000000, -1.000000000000000000, 0.0000000000000000000 ) ) ;
#276 = EDGE_CURVE ( 'NONE', #45, #304, #100, .T. ) ;
#277 = CONICAL_SURFACE ( 'NONE', #247, 4.999999999999997335, 0.7853981633974405074 ) ;
#278 = FACE_OUTER_BOUND ( 'NONE', #266, .T. ) ;
#279 = PRODUCT_DEFINITION_FORMATION_WITH_SPECIFIED_SOURCE ( 'ANY', '', #260, .NOT_KNOWN. ) ;
#280 = CARTESIAN_POINT ( 'NONE',  ( 70.00000000000000000, 1.224646799147353651E-15, 0.0000000000000000000 ) ) ;
#281 = CIRCLE ( 'NONE', #53, 4.999999999999990230 ) ;
#282 = DIRECTION ( 'NONE',  ( 0.0000000000000000000, -1.000000000000000000, 0.0000000000000000000 ) ) ;
#283 = DIRECTION ( 'NONE',  ( 0.0000000000000000000, 1.000000000000000000, 0.0000000000000000000 ) ) ;
#284 = LINE ( 'NONE', #253, #88 ) ;
#285 = FACE_OUTER_BOUND ( 'NONE', #5, .T. ) ;
#286 = CARTESIAN_POINT ( 'NONE',  ( 5.248486282060077954E-17, 9.182202750991039303E-34, 0.0000000000000000000 ) ) ;
#287 = PRODUCT_RELATED_PRODUCT_CATEGORY ( 'part', '', ( #260 ) ) ;
#288 = DIRECTION ( 'NONE',  ( 1.000000000000000000, 1.749495427353361989E-17, -0.0000000000000000000 ) ) ;
#289 = COLOUR_RGB ( '',0.7921568627450980005, 0.8196078431372548767, 0.9333333333333333481 ) ;
#290 = ORIENTED_EDGE ( 'NONE', *, *, #209, .F. ) ;
#291 = PRODUCT_DEFINITION_CONTEXT ( 'detailed design', #48, 'design' ) ;
#292 = ORIENTED_EDGE ( 'NONE', *, *, #141, .T. ) ;
#293 = EDGE_CURVE ( 'NONE', #1, #267, #68, .T. ) ;
#294 = EDGE_LOOP ( 'NONE', ( #123, #173, #292, #221 ) ) ;
#295 = DIRECTION ( 'NONE',  ( 0.0000000000000000000, 1.000000000000000000, 0.0000000000000000000 ) ) ;
#296 = VERTEX_POINT ( 'NONE', #301 ) ;
#297 = DIRECTION ( 'NONE',  ( 1.000000000000000000, 1.749495427353361989E-17, -0.0000000000000000000 ) ) ;
#298 = DIRECTION ( 'NONE',  ( 1.000000000000000000, 1.749495427353361989E-17, -0.0000000000000000000 ) ) ;
#299 = VERTEX_POINT ( 'NONE', #149 ) ;
#300 = CARTESIAN_POINT ( 'NONE',  ( 70.00000000000000000, -4.999999999999996447, 6.123233995736763324E-16 ) ) ;
#301 = CARTESIAN_POINT ( 'NONE',  ( 52.00000000000000711, -4.999999999999996447, 0.0000000000000000000 ) ) ;
#302 = CARTESIAN_POINT ( 'NONE',  ( 5.248486282060077954E-17, 9.182202750991039303E-34, 0.0000000000000000000 ) ) ;
#303 = DIRECTION ( 'NONE',  ( 0.0000000000000000000, 1.000000000000000000, 0.0000000000000000000 ) ) ;
#304 = VERTEX_POINT ( 'NONE', #31 ) ;
#305 = CARTESIAN_POINT ( 'NONE',  ( 70.00000000000000000, -5.999999999999992895, 7.347880794884111847E-16 ) ) ;
#306 = CARTESIAN_POINT ( 'NONE',  ( 52.00000000000000711, 9.097376222237483081E-16, 0.0000000000000000000 ) ) ;
#307 = FACE_OUTER_BOUND ( 'NONE', #103, .T. ) ;
#308 = DIRECTION ( 'NONE',  ( 0.0000000000000000000, -1.000000000000000000, 0.0000000000000000000 ) ) ;
#309 =( GEOMETRIC_REPRESENTATION_CONTEXT ( 3 ) GLOBAL_UNCERTAINTY_ASSIGNED_CONTEXT ( ( #241 ) ) GLOBAL_UNIT_ASSIGNED_CONTEXT ( ( #171, #271, #274 ) ) REPRESENTATION_CONTEXT ( 'NONE', 'WORKASPACE' ) );
#310 = SURFACE_SIDE_STYLE ('',( #164 ) ) ;
#311 = ADVANCED_FACE ( 'NONE', ( #175 ), #233, .T. ) ;
#312 = VECTOR ( 'NONE', #192, 1000.000000000000114 ) ;
#313 = EDGE_CURVE ( 'NONE', #219, #50, #245, .T. ) ;
#314 = ORIENTED_EDGE ( 'NONE', *, *, #226, .T. ) ;
ENDSEC;
END-ISO-10303-21;
