ISO-10303-21;
HEADER;
FILE_DESCRIPTION (( 'STEP AP214' ),
    '1' );
FILE_NAME ('95-1-78766-10.STEP',
    '2021-01-18T05:45:32',
    ( '' ),
    ( '' ),
    'SwSTEP 2.0',
    'SolidWorks 2020',
    '' );
FILE_SCHEMA (( 'AUTOMOTIVE_DESIGN' ));
ENDSEC;

DATA;
#1 =( NAMED_UNIT ( * ) PLANE_ANGLE_UNIT ( ) SI_UNIT ( $, .RADIAN. ) );
#2 = PRODUCT_RELATED_PRODUCT_CATEGORY ( 'part', '', ( #106 ) ) ;
#3 = ORIENTED_EDGE ( 'NONE', *, *, #181, .T. ) ;
#4 = DIRECTION ( 'NONE',  ( 1.000000000000000000, 1.749495427353364454E-17, -0.0000000000000000000 ) ) ;
#5 = EDGE_CURVE ( 'NONE', #161, #129, #290, .T. ) ;
#6 = ORIENTED_EDGE ( 'NONE', *, *, #60, .T. ) ;
#7 = CARTESIAN_POINT ( 'NONE',  ( 65.00000000000001421, 1.137172027779687012E-15, 0.0000000000000000000 ) ) ;
#8 =( GEOMETRIC_REPRESENTATION_CONTEXT ( 3 ) GLOBAL_UNCERTAINTY_ASSIGNED_CONTEXT ( ( #280 ) ) GLOBAL_UNIT_ASSIGNED_CONTEXT ( ( #91, #200, #70 ) ) REPRESENTATION_CONTEXT ( 'NONE', 'WORKASPACE' ) );
#9 = FACE_OUTER_BOUND ( 'NONE', #204, .T. ) ;
#10 = DIRECTION ( 'NONE',  ( 1.000000000000000000, 1.749495427353364454E-17, -0.0000000000000000000 ) ) ;
#11 = ADVANCED_FACE ( 'NONE', ( #59 ), #292, .T. ) ;
#12 = DIRECTION ( 'NONE',  ( -1.000000000000000000, -1.749495427353364454E-17, 0.0000000000000000000 ) ) ;
#13 = EDGE_CURVE ( 'NONE', #43, #92, #215, .T. ) ;
#14 = AXIS2_PLACEMENT_3D ( 'NONE', #7, #299, #103 ) ;
#15 = CARTESIAN_POINT ( 'NONE',  ( 70.00000000000000000, 4.999999999999998224, 0.0000000000000000000 ) ) ;
#16 = CARTESIAN_POINT ( 'NONE',  ( 51.00000000000000711, 8.922426679502159269E-16, 0.0000000000000000000 ) ) ;
#17 = PRODUCT_DEFINITION_SHAPE ( 'NONE', 'NONE',  #234 ) ;
#18 = AXIS2_PLACEMENT_3D ( 'NONE', #147, #152, #35 ) ;
#19 = DIRECTION ( 'NONE',  ( 1.000000000000000000, 1.749495427353364454E-17, -0.0000000000000000000 ) ) ;
#20 = DIRECTION ( 'NONE',  ( 0.0000000000000000000, 1.000000000000000000, 0.0000000000000000000 ) ) ;
#21 = VECTOR ( 'NONE', #48, 1000.000000000000000 ) ;
#22 = ORIENTED_EDGE ( 'NONE', *, *, #307, .F. ) ;
#23 = DIRECTION ( 'NONE',  ( 1.000000000000000000, 1.749495427353378321E-17, -0.0000000000000000000 ) ) ;
#24 = AXIS2_PLACEMENT_3D ( 'NONE', #31, #124, #125 ) ;
#25 = ORIENTED_EDGE ( 'NONE', *, *, #198, .F. ) ;
#26 = EDGE_CURVE ( 'NONE', #238, #65, #199, .T. ) ;
#27 = APPLICATION_PROTOCOL_DEFINITION ( 'draft international standard', 'automotive_design', 1998, #99 ) ;
#28 = ORIENTED_EDGE ( 'NONE', *, *, #198, .T. ) ;
#29 = LINE ( 'NONE', #74, #113 ) ;
#30 = EDGE_LOOP ( 'NONE', ( #88, #142, #68, #140 ) ) ;
#31 = CARTESIAN_POINT ( 'NONE',  ( 1.000000000000000888, 1.749495427353360756E-17, 0.0000000000000000000 ) ) ;
#32 = DIRECTION ( 'NONE',  ( 1.000000000000000000, 0.0000000000000000000, 0.0000000000000000000 ) ) ;
#33 = AXIS2_PLACEMENT_3D ( 'NONE', #276, #173, #277 ) ;
#34 = ORIENTED_EDGE ( 'NONE', *, *, #60, .F. ) ;
#35 = DIRECTION ( 'NONE',  ( 0.0000000000000000000, 1.000000000000000000, 0.0000000000000000000 ) ) ;
#36 = DIRECTION ( 'NONE',  ( -0.7071067811865456854, 0.7071067811865493491, 8.659560562354955045E-17 ) ) ;
#37 = DIRECTION ( 'NONE',  ( 0.0000000000000000000, 1.000000000000000000, 0.0000000000000000000 ) ) ;
#38 = PRESENTATION_LAYER_ASSIGNMENT (  '', '', ( #270 ) ) ;
#39 = ADVANCED_FACE ( 'NONE', ( #9 ), #279, .T. ) ;
#40 = VECTOR ( 'NONE', #300, 1000.000000000000000 ) ;
#41 = LINE ( 'NONE', #214, #49 ) ;
#42 = DIRECTION ( 'NONE',  ( 0.0000000000000000000, -1.000000000000000000, 0.0000000000000000000 ) ) ;
#43 = VERTEX_POINT ( 'NONE', #171 ) ;
#44 = CARTESIAN_POINT ( 'NONE',  ( 1.000000000000000888, 5.999999999999994671, 0.0000000000000000000 ) ) ;
#45 = ORIENTED_EDGE ( 'NONE', *, *, #210, .F. ) ;
#46 = PRESENTATION_STYLE_ASSIGNMENT (( #244 ) ) ;
#47 = AXIS2_PLACEMENT_3D ( 'NONE', #117, #23, #76 ) ;
#48 = DIRECTION ( 'NONE',  ( 1.000000000000000000, 1.749495427353364454E-17, -0.0000000000000000000 ) ) ;
#49 = VECTOR ( 'NONE', #86, 1000.000000000000000 ) ;
#50 =( LENGTH_UNIT ( ) NAMED_UNIT ( * ) SI_UNIT ( .MILLI., .METRE. ) );
#51 = ORIENTED_EDGE ( 'NONE', *, *, #209, .T. ) ;
#52 = ADVANCED_FACE ( 'NONE', ( #273 ), #248, .T. ) ;
#53 = DIRECTION ( 'NONE',  ( 0.0000000000000000000, 1.000000000000000000, 0.0000000000000000000 ) ) ;
#54 = SURFACE_SIDE_STYLE ('',( #169 ) ) ;
#55 = CARTESIAN_POINT ( 'NONE',  ( 70.00000000000000000, 1.224646799147355031E-15, 0.0000000000000000000 ) ) ;
#56 = ORIENTED_EDGE ( 'NONE', *, *, #231, .T. ) ;
#57 = CARTESIAN_POINT ( 'NONE',  ( 70.00000000000000000, 1.224646799147355031E-15, 0.0000000000000000000 ) ) ;
#58 = ADVANCED_FACE ( 'NONE', ( #102 ), #150, .T. ) ;
#59 = FACE_OUTER_BOUND ( 'NONE', #310, .T. ) ;
#60 = EDGE_CURVE ( 'NONE', #188, #87, #272, .T. ) ;
#61 = CARTESIAN_POINT ( 'NONE',  ( 1.000000000000000888, 5.999999999999994671, 0.0000000000000000000 ) ) ;
#62 = CONICAL_SURFACE ( 'NONE', #130, 1000.000000000001592, 0.7853981633974490562 ) ;
#63 = DIRECTION ( 'NONE',  ( 1.000000000000000000, 1.749495427353364454E-17, -0.0000000000000000000 ) ) ;
#64 = CARTESIAN_POINT ( 'NONE',  ( 5.248486282060086582E-17, -1.916747741636245009E-31, 0.0000000000000000000 ) ) ;
#65 = VERTEX_POINT ( 'NONE', #100 ) ;
#66 = VECTOR ( 'NONE', #36, 1000.000000000000000 ) ;
#67 = FACE_OUTER_BOUND ( 'NONE', #118, .T. ) ;
#68 = ORIENTED_EDGE ( 'NONE', *, *, #137, .T. ) ;
#69 = DIRECTION ( 'NONE',  ( 1.000000000000000000, 1.749495427353364454E-17, -0.0000000000000000000 ) ) ;
#70 =( NAMED_UNIT ( * ) SI_UNIT ( $, .STERADIAN. ) SOLID_ANGLE_UNIT ( ) );
#71 = EDGE_LOOP ( 'NONE', ( #115, #261 ) ) ;
#72 = FILL_AREA_STYLE ('',( #146 ) ) ;
#73 = ORIENTED_EDGE ( 'NONE', *, *, #240, .F. ) ;
#74 = CARTESIAN_POINT ( 'NONE',  ( 70.00000000000000000, -5.999999999999993783, 7.347880794884112834E-16 ) ) ;
#75 = DIRECTION ( 'NONE',  ( 0.0000000000000000000, -1.000000000000000000, 0.0000000000000000000 ) ) ;
#76 = DIRECTION ( 'NONE',  ( 0.0000000000000000000, 1.000000000000000000, 0.0000000000000000000 ) ) ;
#77 = DIRECTION ( 'NONE',  ( 1.749495427353364762E-17, -1.000000000000000000, 0.0000000000000000000 ) ) ;
#78 = SHAPE_DEFINITION_REPRESENTATION ( #17, #301 ) ;
#79 = EDGE_LOOP ( 'NONE', ( #264, #216, #288 ) ) ;
#80 = UNCERTAINTY_MEASURE_WITH_UNIT (LENGTH_MEASURE( 1.000000000000000082E-05 ), #50, 'distance_accuracy_value', 'NONE');
#81 = DIRECTION ( 'NONE',  ( 1.749495427353364454E-17, -1.000000000000000000, 0.0000000000000000000 ) ) ;
#82 = CARTESIAN_POINT ( 'NONE',  ( 51.00000000000000711, 5.999999999999997335, 0.0000000000000000000 ) ) ;
#83 = MECHANICAL_DESIGN_GEOMETRIC_PRESENTATION_REPRESENTATION (  '', ( #270 ), #8 ) ;
#84 = DIRECTION ( 'NONE',  ( -1.000000000000000000, -1.749495427353364454E-17, 0.0000000000000000000 ) ) ;
#85 = CARTESIAN_POINT ( 'NONE',  ( -929.9999999999998863, -1.627030747438628709E-14, 0.0000000000000000000 ) ) ;
#86 = DIRECTION ( 'NONE',  ( -0.7071067811865470176, -0.7071067811865481278, 0.0000000000000000000 ) ) ;
#87 = VERTEX_POINT ( 'NONE', #202 ) ;
#88 = ORIENTED_EDGE ( 'NONE', *, *, #101, .F. ) ;
#89 = EDGE_CURVE ( 'NONE', #87, #188, #254, .T. ) ;
#90 = PRESENTATION_LAYER_ASSIGNMENT (  '', '', ( #189 ) ) ;
#91 =( LENGTH_UNIT ( ) NAMED_UNIT ( * ) SI_UNIT ( .MILLI., .METRE. ) );
#92 = VERTEX_POINT ( 'NONE', #82 ) ;
#93 = LINE ( 'NONE', #119, #21 ) ;
#94 = VERTEX_POINT ( 'NONE', #57 ) ;
#95 =( NAMED_UNIT ( * ) SI_UNIT ( $, .STERADIAN. ) SOLID_ANGLE_UNIT ( ) );
#96 = ORIENTED_EDGE ( 'NONE', *, *, #231, .F. ) ;
#97 = AXIS2_PLACEMENT_3D ( 'NONE', #175, #271, #230 ) ;
#98 = FILL_AREA_STYLE ('',( #226 ) ) ;
#99 = APPLICATION_CONTEXT ( 'automotive_design' ) ;
#100 = CARTESIAN_POINT ( 'NONE',  ( -3.498990854706721512E-17, 4.999999999999991118, 0.0000000000000000000 ) ) ;
#101 = EDGE_CURVE ( 'NONE', #238, #129, #251, .T. ) ;
#102 = FACE_OUTER_BOUND ( 'NONE', #71, .T. ) ;
#103 = DIRECTION ( 'NONE',  ( 0.0000000000000000000, 1.000000000000000000, 0.0000000000000000000 ) ) ;
#104 = DIRECTION ( 'NONE',  ( 1.000000000000000000, 1.749495427353364454E-17, -0.0000000000000000000 ) ) ;
#105 = CONICAL_SURFACE ( 'NONE', #286, 4.999999999999997335, 0.7853981633974509435 ) ;
#106 = PRODUCT ( '95-1-78766-10', '95-1-78766-10', '', ( #172 ) ) ;
#107 = EDGE_CURVE ( 'NONE', #225, #92, #247, .T. ) ;
#108 = LINE ( 'NONE', #212, #109 ) ;
#109 = VECTOR ( 'NONE', #63, 1000.000000000000000 ) ;
#110 = DIRECTION ( 'NONE',  ( 1.749495427353364762E-17, -1.000000000000000000, 0.0000000000000000000 ) ) ;
#111 = SURFACE_SIDE_STYLE ('',( #201 ) ) ;
#112 = EDGE_LOOP ( 'NONE', ( #195, #221, #285, #164 ) ) ;
#113 = VECTOR ( 'NONE', #4, 1000.000000000000000 ) ;
#114 = DIRECTION ( 'NONE',  ( 0.0000000000000000000, -1.000000000000000000, 0.0000000000000000000 ) ) ;
#115 = ORIENTED_EDGE ( 'NONE', *, *, #158, .T. ) ;
#116 = COLOUR_RGB ( '',0.7921568627450980005, 0.8196078431372548767, 0.9333333333333333481 ) ;
#117 = CARTESIAN_POINT ( 'NONE',  ( 1.000000000000000888, 1.749495427353360756E-17, 0.0000000000000000000 ) ) ;
#118 = EDGE_LOOP ( 'NONE', ( #96, #120, #170, #282 ) ) ;
#119 = CARTESIAN_POINT ( 'NONE',  ( 70.00000000000000000, 5.999999999999995559, 0.0000000000000000000 ) ) ;
#120 = ORIENTED_EDGE ( 'NONE', *, *, #107, .T. ) ;
#121 = DIRECTION ( 'NONE',  ( 1.000000000000000000, 1.749495427353364454E-17, -0.0000000000000000000 ) ) ;
#122 = DIRECTION ( 'NONE',  ( 0.7071067811865465735, -0.7071067811865483499, 8.659560562354942719E-17 ) ) ;
#123 = ADVANCED_FACE ( 'NONE', ( #245 ), #174, .T. ) ;
#124 = DIRECTION ( 'NONE',  ( 1.000000000000000000, 1.749495427353378321E-17, -0.0000000000000000000 ) ) ;
#125 = DIRECTION ( 'NONE',  ( 0.0000000000000000000, 1.000000000000000000, 0.0000000000000000000 ) ) ;
#126 = AXIS2_PLACEMENT_3D ( 'NONE', #148, #167, #32 ) ;
#127 = MANIFOLD_SOLID_BREP ( 'Fase1', #252 ) ;
#128 = CARTESIAN_POINT ( 'NONE',  ( 5.248486282060086582E-17, 9.182202750990982855E-34, 0.0000000000000000000 ) ) ;
#129 = VERTEX_POINT ( 'NONE', #131 ) ;
#130 = AXIS2_PLACEMENT_3D ( 'NONE', #85, #84, #180 ) ;
#131 = CARTESIAN_POINT ( 'NONE',  ( 1.000000000000000888, -5.999999999999994671, 7.347880794884112834E-16 ) ) ;
#132 = DIRECTION ( 'NONE',  ( 1.000000000000000000, 1.749495427353378321E-17, -0.0000000000000000000 ) ) ;
#133 = AXIS2_PLACEMENT_3D ( 'NONE', #55, #10, #179 ) ;
#134 = VECTOR ( 'NONE', #304, 1000.000000000000114 ) ;
#135 = DIRECTION ( 'NONE',  ( 0.0000000000000000000, 1.000000000000000000, 0.0000000000000000000 ) ) ;
#136 = CARTESIAN_POINT ( 'NONE',  ( 52.00000000000000711, 4.999999999999998224, 6.735557395310439065E-16 ) ) ;
#137 = EDGE_CURVE ( 'NONE', #65, #161, #228, .T. ) ;
#138 = EDGE_LOOP ( 'NONE', ( #197, #28, #168, #296 ) ) ;
#139 =( NAMED_UNIT ( * ) SI_UNIT ( $, .STERADIAN. ) SOLID_ANGLE_UNIT ( ) );
#140 = ORIENTED_EDGE ( 'NONE', *, *, #209, .F. ) ;
#141 = DIRECTION ( 'NONE',  ( 0.0000000000000000000, -1.000000000000000000, 0.0000000000000000000 ) ) ;
#142 = ORIENTED_EDGE ( 'NONE', *, *, #158, .F. ) ;
#143 = AXIS2_PLACEMENT_3D ( 'NONE', #255, #19, #283 ) ;
#144 = ORIENTED_EDGE ( 'NONE', *, *, #13, .T. ) ;
#145 = CARTESIAN_POINT ( 'NONE',  ( 70.00000000000000000, 1.224646799147355031E-15, 0.0000000000000000000 ) ) ;
#146 = FILL_AREA_STYLE_COLOUR ( '', #235 ) ;
#147 = CARTESIAN_POINT ( 'NONE',  ( 70.00000000000000000, 1.224646799147355031E-15, 0.0000000000000000000 ) ) ;
#148 = CARTESIAN_POINT ( 'NONE',  ( 0.0000000000000000000, 0.0000000000000000000, 0.0000000000000000000 ) ) ;
#149 = EDGE_CURVE ( 'NONE', #92, #43, #314, .T. ) ;
#150 = PLANE ( 'NONE',  #284 ) ;
#151 = AXIS2_PLACEMENT_3D ( 'NONE', #190, #160, #37 ) ;
#152 = DIRECTION ( 'NONE',  ( 1.000000000000000000, 1.749495427353364454E-17, -0.0000000000000000000 ) ) ;
#153 = CARTESIAN_POINT ( 'NONE',  ( 1.000000000000000888, -5.999999999999994671, 7.347880794884112834E-16 ) ) ;
#154 = CARTESIAN_POINT ( 'NONE',  ( 5.248486282060086582E-17, -1.916747741636245009E-31, 0.0000000000000000000 ) ) ;
#155 = CONICAL_SURFACE ( 'NONE', #297, 4.999999999999997335, 0.7853981633974509435 ) ;
#156 = AXIS2_PLACEMENT_3D ( 'NONE', #154, #232, #77 ) ;
#157 = CARTESIAN_POINT ( 'NONE',  ( 1.000000000000000888, 1.749495427353360756E-17, 0.0000000000000000000 ) ) ;
#158 = EDGE_CURVE ( 'NONE', #65, #238, #227, .T. ) ;
#159 = CARTESIAN_POINT ( 'NONE',  ( 1.399596341882689344E-16, -4.999999999999991118, 6.735557395310433148E-16 ) ) ;
#160 = DIRECTION ( 'NONE',  ( 1.000000000000000000, 1.749495427353364454E-17, -0.0000000000000000000 ) ) ;
#161 = VERTEX_POINT ( 'NONE', #61 ) ;
#162 = AXIS2_PLACEMENT_3D ( 'NONE', #291, #12, #75 ) ;
#163 = CARTESIAN_POINT ( 'NONE',  ( 65.00000000000001421, 4.999999999999998224, 0.0000000000000000000 ) ) ;
#164 = ORIENTED_EDGE ( 'NONE', *, *, #137, .F. ) ;
#165 = AXIS2_PLACEMENT_3D ( 'NONE', #239, #69, #20 ) ;
#166 = FACE_OUTER_BOUND ( 'NONE', #193, .T. ) ;
#167 = DIRECTION ( 'NONE',  ( 0.0000000000000000000, 0.0000000000000000000, 1.000000000000000000 ) ) ;
#168 = ORIENTED_EDGE ( 'NONE', *, *, #210, .T. ) ;
#169 = SURFACE_STYLE_FILL_AREA ( #72 ) ;
#170 = ORIENTED_EDGE ( 'NONE', *, *, #149, .T. ) ;
#171 = CARTESIAN_POINT ( 'NONE',  ( 51.00000000000000711, -5.999999999999996447, 7.347880794884114806E-16 ) ) ;
#172 = PRODUCT_CONTEXT ( 'NONE', #99, 'mechanical' ) ;
#173 = DIRECTION ( 'NONE',  ( 1.000000000000000000, 1.749495427353364454E-17, -0.0000000000000000000 ) ) ;
#174 = CONICAL_SURFACE ( 'NONE', #24, 5.999999999999994671, 0.7853981633974496113 ) ;
#175 = CARTESIAN_POINT ( 'NONE',  ( 1.000000000000000888, 1.749495427353360756E-17, 0.0000000000000000000 ) ) ;
#176 = APPLICATION_CONTEXT ( 'automotive_design' ) ;
#177 = ADVANCED_FACE ( 'NONE', ( #166 ), #281, .T. ) ;
#178 = CARTESIAN_POINT ( 'NONE',  ( 65.00000000000001421, 1.137172027779687012E-15, 0.0000000000000000000 ) ) ;
#179 = DIRECTION ( 'NONE',  ( 0.0000000000000000000, 1.000000000000000000, 0.0000000000000000000 ) ) ;
#180 = DIRECTION ( 'NONE',  ( 0.0000000000000000000, -1.000000000000000000, 0.0000000000000000000 ) ) ;
#181 = EDGE_CURVE ( 'NONE', #308, #43, #219, .T. ) ;
#182 = AXIS2_PLACEMENT_3D ( 'NONE', #157, #132, #42 ) ;
#183 = FACE_OUTER_BOUND ( 'NONE', #186, .T. ) ;
#184 = ADVANCED_FACE ( 'NONE', ( #183 ), #105, .T. ) ;
#185 = CARTESIAN_POINT ( 'NONE',  ( 52.00000000000000711, 9.097376222237494914E-16, 0.0000000000000000000 ) ) ;
#186 = EDGE_LOOP ( 'NONE', ( #205, #25, #3, #144 ) ) ;
#187 = LINE ( 'NONE', #15, #250 ) ;
#188 = VERTEX_POINT ( 'NONE', #163 ) ;
#189 = STYLED_ITEM ( 'NONE', ( #237 ), #127 ) ;
#190 = CARTESIAN_POINT ( 'NONE',  ( 52.00000000000000711, 9.097376222237494914E-16, 0.0000000000000000000 ) ) ;
#191 = ORIENTED_EDGE ( 'NONE', *, *, #213, .T. ) ;
#192 = AXIS2_PLACEMENT_3D ( 'NONE', #16, #104, #135 ) ;
#193 = EDGE_LOOP ( 'NONE', ( #56, #191, #34, #45 ) ) ;
#194 = CARTESIAN_POINT ( 'NONE',  ( 70.00000000000000000, 1.224646799147355031E-15, 0.0000000000000000000 ) ) ;
#195 = ORIENTED_EDGE ( 'NONE', *, *, #26, .F. ) ;
#196 = LINE ( 'NONE', #145, #289 ) ;
#197 = ORIENTED_EDGE ( 'NONE', *, *, #213, .F. ) ;
#198 = EDGE_CURVE ( 'NONE', #308, #225, #211, .T. ) ;
#199 = CIRCLE ( 'NONE', #156, 4.999999999999991118 ) ;
#200 =( NAMED_UNIT ( * ) PLANE_ANGLE_UNIT ( ) SI_UNIT ( $, .RADIAN. ) );
#201 = SURFACE_STYLE_FILL_AREA ( #98 ) ;
#202 = CARTESIAN_POINT ( 'NONE',  ( 65.00000000000001421, -4.999999999999996447, 6.123233995736763324E-16 ) ) ;
#203 = UNCERTAINTY_MEASURE_WITH_UNIT (LENGTH_MEASURE( 1.000000000000000082E-05 ), #217, 'distance_accuracy_value', 'NONE');
#204 = EDGE_LOOP ( 'NONE', ( #73, #243, #6 ) ) ;
#205 = ORIENTED_EDGE ( 'NONE', *, *, #107, .F. ) ;
#206 = ADVANCED_FACE ( 'NONE', ( #207 ), #62, .T. ) ;
#207 = FACE_OUTER_BOUND ( 'NONE', #79, .T. ) ;
#208 = VECTOR ( 'NONE', #122, 1000.000000000000114 ) ;
#209 = EDGE_CURVE ( 'NONE', #129, #161, #267, .T. ) ;
#210 = EDGE_CURVE ( 'NONE', #225, #188, #187, .T. ) ;
#211 = CIRCLE ( 'NONE', #151, 4.999999999999997335 ) ;
#212 = CARTESIAN_POINT ( 'NONE',  ( 70.00000000000000000, -4.999999999999996447, 6.123233995736763324E-16 ) ) ;
#213 = EDGE_CURVE ( 'NONE', #308, #87, #108, .T. ) ;
#214 = CARTESIAN_POINT ( 'NONE',  ( 70.00000000000000000, 1.224646799147355031E-15, 0.0000000000000000000 ) ) ;
#215 = CIRCLE ( 'NONE', #33, 5.999999999999996447 ) ;
#216 = ORIENTED_EDGE ( 'NONE', *, *, #240, .T. ) ;
#217 =( LENGTH_UNIT ( ) NAMED_UNIT ( * ) SI_UNIT ( .MILLI., .METRE. ) );
#218 = EDGE_LOOP ( 'NONE', ( #22, #51, #258, #223 ) ) ;
#219 = LINE ( 'NONE', #309, #40 ) ;
#220 = CARTESIAN_POINT ( 'NONE',  ( 52.00000000000000711, -4.999999999999996447, 0.0000000000000000000 ) ) ;
#221 = ORIENTED_EDGE ( 'NONE', *, *, #101, .T. ) ;
#222 = DIRECTION ( 'NONE',  ( -0.7071067811865470176, 0.7071067811865481278, 8.659560562354940254E-17 ) ) ;
#223 = ORIENTED_EDGE ( 'NONE', *, *, #13, .F. ) ;
#224 = CYLINDRICAL_SURFACE ( 'NONE', #263, 5.999999999999994671 ) ;
#225 = VERTEX_POINT ( 'NONE', #136 ) ;
#226 = FILL_AREA_STYLE_COLOUR ( '', #116 ) ;
#227 = CIRCLE ( 'NONE', #302, 4.999999999999991118 ) ;
#228 = LINE ( 'NONE', #44, #134 ) ;
#229 = CONICAL_SURFACE ( 'NONE', #47, 5.999999999999994671, 0.7853981633974496113 ) ;
#230 = DIRECTION ( 'NONE',  ( 0.0000000000000000000, -1.000000000000000000, 0.0000000000000000000 ) ) ;
#231 = EDGE_CURVE ( 'NONE', #225, #308, #305, .T. ) ;
#232 = DIRECTION ( 'NONE',  ( -1.000000000000000000, -1.749495427353364454E-17, 0.0000000000000000000 ) ) ;
#233 =( NAMED_UNIT ( * ) PLANE_ANGLE_UNIT ( ) SI_UNIT ( $, .RADIAN. ) );
#234 = PRODUCT_DEFINITION ( 'UNKNOWN', '', #303, #274 ) ;
#235 = COLOUR_RGB ( '',0.7921568627450980005, 0.8196078431372548767, 0.9333333333333333481 ) ;
#236 = AXIS2_PLACEMENT_3D ( 'NONE', #178, #268, #53 ) ;
#237 = PRESENTATION_STYLE_ASSIGNMENT (( #257 ) ) ;
#238 = VERTEX_POINT ( 'NONE', #159 ) ;
#239 = CARTESIAN_POINT ( 'NONE',  ( 70.00000000000000000, 1.224646799147355031E-15, 0.0000000000000000000 ) ) ;
#240 = EDGE_CURVE ( 'NONE', #94, #87, #41, .T. ) ;
#241 = DIRECTION ( 'NONE',  ( 0.0000000000000000000, 1.000000000000000000, 0.0000000000000000000 ) ) ;
#242 = ORIENTED_EDGE ( 'NONE', *, *, #5, .T. ) ;
#243 = ORIENTED_EDGE ( 'NONE', *, *, #256, .T. ) ;
#244 = SURFACE_STYLE_USAGE ( .BOTH. , #54 ) ;
#245 = FACE_OUTER_BOUND ( 'NONE', #30, .T. ) ;
#246 = FACE_OUTER_BOUND ( 'NONE', #112, .T. ) ;
#247 = LINE ( 'NONE', #249, #66 ) ;
#248 = CYLINDRICAL_SURFACE ( 'NONE', #133, 4.999999999999997335 ) ;
#249 = CARTESIAN_POINT ( 'NONE',  ( 52.00000000000000711, 4.999999999999998224, 6.123233995736763324E-16 ) ) ;
#250 = VECTOR ( 'NONE', #306, 1000.000000000000000 ) ;
#251 = LINE ( 'NONE', #153, #208 ) ;
#252 = CLOSED_SHELL ( 'NONE', ( #294, #39, #177, #253, #11, #58, #260, #184, #52, #206, #123 ) ) ;
#253 = ADVANCED_FACE ( 'NONE', ( #67 ), #155, .T. ) ;
#254 = CIRCLE ( 'NONE', #236, 4.999999999999997335 ) ;
#255 = CARTESIAN_POINT ( 'NONE',  ( 52.00000000000000711, 9.097376222237494914E-16, 0.0000000000000000000 ) ) ;
#256 = EDGE_CURVE ( 'NONE', #94, #188, #196, .T. ) ;
#257 = SURFACE_STYLE_USAGE ( .BOTH. , #111 ) ;
#258 = ORIENTED_EDGE ( 'NONE', *, *, #266, .T. ) ;
#259 = CARTESIAN_POINT ( 'NONE',  ( 52.00000000000000711, 9.097376222237494914E-16, 0.0000000000000000000 ) ) ;
#260 = ADVANCED_FACE ( 'NONE', ( #262 ), #224, .T. ) ;
#261 = ORIENTED_EDGE ( 'NONE', *, *, #26, .T. ) ;
#262 = FACE_OUTER_BOUND ( 'NONE', #218, .T. ) ;
#263 = AXIS2_PLACEMENT_3D ( 'NONE', #194, #121, #241 ) ;
#264 = ORIENTED_EDGE ( 'NONE', *, *, #256, .F. ) ;
#265 = ORIENTED_EDGE ( 'NONE', *, *, #266, .F. ) ;
#266 = EDGE_CURVE ( 'NONE', #161, #92, #93, .T. ) ;
#267 = CIRCLE ( 'NONE', #182, 5.999999999999994671 ) ;
#268 = DIRECTION ( 'NONE',  ( 1.000000000000000000, 1.749495427353364454E-17, -0.0000000000000000000 ) ) ;
#269 = DIRECTION ( 'NONE',  ( -1.000000000000000000, -1.749495427353364454E-17, 0.0000000000000000000 ) ) ;
#270 = STYLED_ITEM ( 'NONE', ( #46 ), #301 ) ;
#271 = DIRECTION ( 'NONE',  ( 1.000000000000000000, 1.749495427353378321E-17, -0.0000000000000000000 ) ) ;
#272 = CIRCLE ( 'NONE', #14, 4.999999999999997335 ) ;
#273 = FACE_OUTER_BOUND ( 'NONE', #138, .T. ) ;
#274 = PRODUCT_DEFINITION_CONTEXT ( 'detailed design', #176, 'design' ) ;
#275 =( GEOMETRIC_REPRESENTATION_CONTEXT ( 3 ) GLOBAL_UNCERTAINTY_ASSIGNED_CONTEXT ( ( #203 ) ) GLOBAL_UNIT_ASSIGNED_CONTEXT ( ( #217, #233, #139 ) ) REPRESENTATION_CONTEXT ( 'NONE', 'WORKASPACE' ) );
#276 = CARTESIAN_POINT ( 'NONE',  ( 51.00000000000000711, 8.922426679502159269E-16, 0.0000000000000000000 ) ) ;
#277 = DIRECTION ( 'NONE',  ( 0.0000000000000000000, 1.000000000000000000, 0.0000000000000000000 ) ) ;
#278 = DIRECTION ( 'NONE',  ( -1.000000000000000000, -1.749495427353364454E-17, 0.0000000000000000000 ) ) ;
#279 = CONICAL_SURFACE ( 'NONE', #162, 1000.000000000001592, 0.7853981633974490562 ) ;
#280 = UNCERTAINTY_MEASURE_WITH_UNIT (LENGTH_MEASURE( 1.000000000000000082E-05 ), #91, 'distance_accuracy_value', 'NONE');
#281 = CYLINDRICAL_SURFACE ( 'NONE', #165, 4.999999999999997335 ) ;
#282 = ORIENTED_EDGE ( 'NONE', *, *, #181, .F. ) ;
#283 = DIRECTION ( 'NONE',  ( 0.0000000000000000000, 1.000000000000000000, 0.0000000000000000000 ) ) ;
#284 = AXIS2_PLACEMENT_3D ( 'NONE', #128, #298, #81 ) ;
#285 = ORIENTED_EDGE ( 'NONE', *, *, #5, .F. ) ;
#286 = AXIS2_PLACEMENT_3D ( 'NONE', #185, #311, #114 ) ;
#287 = ORIENTED_EDGE ( 'NONE', *, *, #149, .F. ) ;
#288 = ORIENTED_EDGE ( 'NONE', *, *, #89, .T. ) ;
#289 = VECTOR ( 'NONE', #222, 1000.000000000000000 ) ;
#290 = CIRCLE ( 'NONE', #97, 5.999999999999994671 ) ;
#291 = CARTESIAN_POINT ( 'NONE',  ( -929.9999999999998863, -1.627030747438628709E-14, 0.0000000000000000000 ) ) ;
#292 = CYLINDRICAL_SURFACE ( 'NONE', #18, 5.999999999999994671 ) ;
#293 =( GEOMETRIC_REPRESENTATION_CONTEXT ( 3 ) GLOBAL_UNCERTAINTY_ASSIGNED_CONTEXT ( ( #80 ) ) GLOBAL_UNIT_ASSIGNED_CONTEXT ( ( #50, #1, #95 ) ) REPRESENTATION_CONTEXT ( 'NONE', 'WORKASPACE' ) );
#294 = ADVANCED_FACE ( 'NONE', ( #246 ), #229, .T. ) ;
#295 = APPLICATION_PROTOCOL_DEFINITION ( 'draft international standard', 'automotive_design', 1998, #176 ) ;
#296 = ORIENTED_EDGE ( 'NONE', *, *, #89, .F. ) ;
#297 = AXIS2_PLACEMENT_3D ( 'NONE', #259, #269, #141 ) ;
#298 = DIRECTION ( 'NONE',  ( -1.000000000000000000, -1.749495427353364454E-17, 0.0000000000000000000 ) ) ;
#299 = DIRECTION ( 'NONE',  ( 1.000000000000000000, 1.749495427353364454E-17, -0.0000000000000000000 ) ) ;
#300 = DIRECTION ( 'NONE',  ( -0.7071067811865456854, -0.7071067811865493491, 0.0000000000000000000 ) ) ;
#301 = ADVANCED_BREP_SHAPE_REPRESENTATION ( '95-1-78766-10', ( #127, #126 ), #293 ) ;
#302 = AXIS2_PLACEMENT_3D ( 'NONE', #64, #278, #110 ) ;
#303 = PRODUCT_DEFINITION_FORMATION_WITH_SPECIFIED_SOURCE ( 'ANY', '', #106, .NOT_KNOWN. ) ;
#304 = DIRECTION ( 'NONE',  ( 0.7071067811865465735, 0.7071067811865483499, 0.0000000000000000000 ) ) ;
#305 = CIRCLE ( 'NONE', #143, 4.999999999999997335 ) ;
#306 = DIRECTION ( 'NONE',  ( 1.000000000000000000, 1.749495427353364454E-17, -0.0000000000000000000 ) ) ;
#307 = EDGE_CURVE ( 'NONE', #129, #43, #29, .T. ) ;
#308 = VERTEX_POINT ( 'NONE', #220 ) ;
#309 = CARTESIAN_POINT ( 'NONE',  ( 52.00000000000000711, -4.999999999999996447, 0.0000000000000000000 ) ) ;
#310 = EDGE_LOOP ( 'NONE', ( #242, #313, #287, #265 ) ) ;
#311 = DIRECTION ( 'NONE',  ( -1.000000000000000000, -1.749495427353364454E-17, 0.0000000000000000000 ) ) ;
#312 = MECHANICAL_DESIGN_GEOMETRIC_PRESENTATION_REPRESENTATION (  '', ( #189 ), #275 ) ;
#313 = ORIENTED_EDGE ( 'NONE', *, *, #307, .T. ) ;
#314 = CIRCLE ( 'NONE', #192, 5.999999999999996447 ) ;
ENDSEC;
END-ISO-10303-21;
