ISO-10303-21;
HEADER;
FILE_DESCRIPTION (( 'STEP AP214' ),
    '1' );
FILE_NAME ('95-1-78765-10.STEP',
    '2021-01-18T05:39:30',
    ( '' ),
    ( '' ),
    'SwSTEP 2.0',
    'SolidWorks 2020',
    '' );
FILE_SCHEMA (( 'AUTOMOTIVE_DESIGN' ));
ENDSEC;

DATA;
#1 = ADVANCED_BREP_SHAPE_REPRESENTATION ( '95-1-78765-10', ( #204, #256 ), #28 ) ;
#2 = EDGE_CURVE ( 'NONE', #27, #295, #268, .T. ) ;
#3 = SURFACE_STYLE_FILL_AREA ( #140 ) ;
#4 = AXIS2_PLACEMENT_3D ( 'NONE', #164, #21, #66 ) ;
#5 = ORIENTED_EDGE ( 'NONE', *, *, #182, .T. ) ;
#6 = ORIENTED_EDGE ( 'NONE', *, *, #184, .T. ) ;
#7 = AXIS2_PLACEMENT_3D ( 'NONE', #197, #196, #81 ) ;
#8 = ORIENTED_EDGE ( 'NONE', *, *, #155, .F. ) ;
#9 = APPLICATION_PROTOCOL_DEFINITION ( 'draft international standard', 'automotive_design', 1998, #41 ) ;
#10 = ORIENTED_EDGE ( 'NONE', *, *, #251, .T. ) ;
#11 = FACE_OUTER_BOUND ( 'NONE', #193, .T. ) ;
#12 = CARTESIAN_POINT ( 'NONE',  ( 0.5000000000000284217, -5.999999999999991118, 7.347880794884108889E-16 ) ) ;
#13 = FACE_OUTER_BOUND ( 'NONE', #124, .T. ) ;
#14 = DIRECTION ( 'NONE',  ( 0.0000000000000000000, -1.000000000000000000, 0.0000000000000000000 ) ) ;
#15 = AXIS2_PLACEMENT_3D ( 'NONE', #235, #46, #48 ) ;
#16 = DIRECTION ( 'NONE',  ( 0.7071067811865517916, -0.7071067811865431318, 8.659560562354879857E-17 ) ) ;
#17 = CIRCLE ( 'NONE', #302, 5.499999999999968914 ) ;
#18 = SURFACE_STYLE_FILL_AREA ( #183 ) ;
#19 = SURFACE_SIDE_STYLE ('',( #18 ) ) ;
#20 = ADVANCED_FACE ( 'NONE', ( #219 ), #203, .T. ) ;
#21 = DIRECTION ( 'NONE',  ( -1.000000000000000000, -3.498990854706733222E-17, 0.0000000000000000000 ) ) ;
#22 = ORIENTED_EDGE ( 'NONE', *, *, #72, .T. ) ;
#23 = ADVANCED_FACE ( 'NONE', ( #176 ), #242, .T. ) ;
#24 = CARTESIAN_POINT ( 'NONE',  ( 0.5000000000000281997, 1.749495427353456898E-17, 0.0000000000000000000 ) ) ;
#25 = CONICAL_SURFACE ( 'NONE', #128, 4.999999999999995559, 0.7853981633974415066 ) ;
#26 = SHAPE_DEFINITION_REPRESENTATION ( #192, #1 ) ;
#27 = VERTEX_POINT ( 'NONE', #107 ) ;
#28 =( GEOMETRIC_REPRESENTATION_CONTEXT ( 3 ) GLOBAL_UNCERTAINTY_ASSIGNED_CONTEXT ( ( #80 ) ) GLOBAL_UNIT_ASSIGNED_CONTEXT ( ( #142, #291, #51 ) ) REPRESENTATION_CONTEXT ( 'NONE', 'WORKASPACE' ) );
#29 = ORIENTED_EDGE ( 'NONE', *, *, #108, .F. ) ;
#30 = COLOUR_RGB ( '',0.7921568627450980005, 0.8196078431372548767, 0.9333333333333333481 ) ;
#31 = ORIENTED_EDGE ( 'NONE', *, *, #112, .T. ) ;
#32 = ORIENTED_EDGE ( 'NONE', *, *, #168, .F. ) ;
#33 = CARTESIAN_POINT ( 'NONE',  ( 51.00000000000000000, 1.784485335900433432E-15, 0.0000000000000000000 ) ) ;
#34 = DIRECTION ( 'NONE',  ( 0.0000000000000000000, 1.000000000000000000, 0.0000000000000000000 ) ) ;
#35 = DIRECTION ( 'NONE',  ( 1.000000000000000000, 3.498990854706716582E-17, -0.0000000000000000000 ) ) ;
#36 = CARTESIAN_POINT ( 'NONE',  ( 1.049697256412018919E-16, 3.672881100396385615E-33, 0.0000000000000000000 ) ) ;
#37 = EDGE_CURVE ( 'NONE', #55, #27, #104, .T. ) ;
#38 = PRODUCT_DEFINITION_CONTEXT ( 'detailed design', #41, 'design' ) ;
#39 = CARTESIAN_POINT ( 'NONE',  ( 0.5000000000000281997, 1.749495427353456898E-17, 0.0000000000000000000 ) ) ;
#40 = CIRCLE ( 'NONE', #165, 5.999999999999989342 ) ;
#41 = APPLICATION_CONTEXT ( 'automotive_design' ) ;
#42 = CIRCLE ( 'NONE', #116, 5.999999999999991118 ) ;
#43 = DIRECTION ( 'NONE',  ( 0.0000000000000000000, 1.000000000000000000, 0.0000000000000000000 ) ) ;
#44 = CIRCLE ( 'NONE', #213, 5.999999999999989342 ) ;
#45 = CARTESIAN_POINT ( 'NONE',  ( 51.00000000000000000, -5.999999999999987566, 7.347880794884107903E-16 ) ) ;
#46 = DIRECTION ( 'NONE',  ( -1.000000000000000000, -3.498990854706733222E-17, 0.0000000000000000000 ) ) ;
#47 = FACE_OUTER_BOUND ( 'NONE', #114, .T. ) ;
#48 = DIRECTION ( 'NONE',  ( 0.0000000000000000000, -1.000000000000000000, 0.0000000000000000000 ) ) ;
#49 = DIRECTION ( 'NONE',  ( 0.0000000000000000000, 1.000000000000000000, 0.0000000000000000000 ) ) ;
#50 = CARTESIAN_POINT ( 'NONE',  ( 70.00000000000000000, -5.999999999999988454, 7.347880794884108889E-16 ) ) ;
#51 =( NAMED_UNIT ( * ) SI_UNIT ( $, .STERADIAN. ) SOLID_ANGLE_UNIT ( ) );
#52 = EDGE_LOOP ( 'NONE', ( #71, #6 ) ) ;
#53 = EDGE_CURVE ( 'NONE', #247, #296, #153, .T. ) ;
#54 = AXIS2_PLACEMENT_3D ( 'NONE', #24, #290, #115 ) ;
#55 = VERTEX_POINT ( 'NONE', #180 ) ;
#56 = ORIENTED_EDGE ( 'NONE', *, *, #269, .F. ) ;
#57 = CARTESIAN_POINT ( 'NONE',  ( 70.00000000000000000, 2.449293598294713218E-15, 0.0000000000000000000 ) ) ;
#58 = CARTESIAN_POINT ( 'NONE',  ( 52.00000000000000711, -4.999999999999993783, 0.0000000000000000000 ) ) ;
#59 = ADVANCED_FACE ( 'NONE', ( #11 ), #25, .T. ) ;
#60 = DIRECTION ( 'NONE',  ( -0.8660254037844382635, -0.5000000000000006661, 0.0000000000000000000 ) ) ;
#61 = DIRECTION ( 'NONE',  ( -0.7071067811865523467, -0.7071067811865426878, 0.0000000000000000000 ) ) ;
#62 = VECTOR ( 'NONE', #16, 1000.000000000000114 ) ;
#63 = DIRECTION ( 'NONE',  ( 1.000000000000000000, 3.498990854706733222E-17, -0.0000000000000000000 ) ) ;
#64 = CARTESIAN_POINT ( 'NONE',  ( 61.33974596215563935, 4.999999999999996447, 0.0000000000000000000 ) ) ;
#65 = FILL_AREA_STYLE_COLOUR ( '', #30 ) ;
#66 = DIRECTION ( 'NONE',  ( 0.0000000000000000000, -1.000000000000000000, 0.0000000000000000000 ) ) ;
#67 = CARTESIAN_POINT ( 'NONE',  ( 61.33974596215563935, 2.146272101516168259E-15, 0.0000000000000000000 ) ) ;
#68 = VECTOR ( 'NONE', #252, 1000.000000000000000 ) ;
#69 = ORIENTED_EDGE ( 'NONE', *, *, #195, .T. ) ;
#70 = DIRECTION ( 'NONE',  ( 0.0000000000000000000, 1.000000000000000000, 0.0000000000000000000 ) ) ;
#71 = ORIENTED_EDGE ( 'NONE', *, *, #100, .T. ) ;
#72 = EDGE_CURVE ( 'NONE', #55, #97, #284, .T. ) ;
#73 = ORIENTED_EDGE ( 'NONE', *, *, #207, .T. ) ;
#74 = PRODUCT_CONTEXT ( 'NONE', #224, 'mechanical' ) ;
#75 = VECTOR ( 'NONE', #60, 1000.000000000000000 ) ;
#76 = ORIENTED_EDGE ( 'NONE', *, *, #2, .T. ) ;
#77 = CIRCLE ( 'NONE', #186, 4.999999999999995559 ) ;
#78 = EDGE_LOOP ( 'NONE', ( #169, #137, #293 ) ) ;
#79 = CARTESIAN_POINT ( 'NONE',  ( 1.049697256412018919E-16, 3.672881100396385615E-33, 0.0000000000000000000 ) ) ;
#80 = UNCERTAINTY_MEASURE_WITH_UNIT (LENGTH_MEASURE( 1.000000000000000082E-05 ), #142, 'distance_accuracy_value', 'NONE');
#81 = DIRECTION ( 'NONE',  ( 0.0000000000000000000, 1.000000000000000000, 0.0000000000000000000 ) ) ;
#82 = DIRECTION ( 'NONE',  ( 1.000000000000000000, 3.498990854706716582E-17, -0.0000000000000000000 ) ) ;
#83 = CONICAL_SURFACE ( 'NONE', #4, 4.999999999999995559, 0.7853981633974415066 ) ;
#84 = CLOSED_SHELL ( 'NONE', ( #286, #216, #308, #59, #263, #177, #20, #259, #141, #23, #218 ) ) ;
#85 = DIRECTION ( 'NONE',  ( 3.498990854706733838E-17, -1.000000000000000000, 0.0000000000000000000 ) ) ;
#86 = CARTESIAN_POINT ( 'NONE',  ( 0.5000000000000281997, 1.749495427353456898E-17, 0.0000000000000000000 ) ) ;
#87 = CARTESIAN_POINT ( 'NONE',  ( 52.00000000000000711, 4.999999999999997335, 6.123233995736761352E-16 ) ) ;
#88 = LINE ( 'NONE', #230, #246 ) ;
#89 = DIRECTION ( 'NONE',  ( -0.7071067811865523467, 0.7071067811865426878, 8.659560562354873694E-17 ) ) ;
#90 = ORIENTED_EDGE ( 'NONE', *, *, #37, .F. ) ;
#91 = PRESENTATION_LAYER_ASSIGNMENT (  '', '', ( #215 ) ) ;
#92 = FACE_OUTER_BOUND ( 'NONE', #152, .T. ) ;
#93 = STYLED_ITEM ( 'NONE', ( #136 ), #204 ) ;
#94 =( NAMED_UNIT ( * ) PLANE_ANGLE_UNIT ( ) SI_UNIT ( $, .RADIAN. ) );
#95 = SURFACE_STYLE_USAGE ( .BOTH. , #238 ) ;
#96 = DIRECTION ( 'NONE',  ( 1.000000000000000000, 3.498990854706733222E-17, -0.0000000000000000000 ) ) ;
#97 = VERTEX_POINT ( 'NONE', #126 ) ;
#98 = ORIENTED_EDGE ( 'NONE', *, *, #100, .F. ) ;
#99 = EDGE_LOOP ( 'NONE', ( #10, #173, #209, #32 ) ) ;
#100 = EDGE_CURVE ( 'NONE', #145, #172, #314, .T. ) ;
#101 = DIRECTION ( 'NONE',  ( 0.0000000000000000000, 1.000000000000000000, 0.0000000000000000000 ) ) ;
#102 = CYLINDRICAL_SURFACE ( 'NONE', #7, 4.999999999999995559 ) ;
#103 = EDGE_CURVE ( 'NONE', #119, #296, #300, .T. ) ;
#104 = CIRCLE ( 'NONE', #146, 5.999999999999991118 ) ;
#105 = CARTESIAN_POINT ( 'NONE',  ( 70.00000000000000000, 4.999999999999998224, 0.0000000000000000000 ) ) ;
#106 = AXIS2_PLACEMENT_3D ( 'NONE', #67, #166, #70 ) ;
#107 = CARTESIAN_POINT ( 'NONE',  ( 0.5000000000000284217, -5.999999999999992006, 7.347880794884110861E-16 ) ) ;
#108 = EDGE_CURVE ( 'NONE', #119, #295, #127, .T. ) ;
#109 =( GEOMETRIC_REPRESENTATION_CONTEXT ( 3 ) GLOBAL_UNCERTAINTY_ASSIGNED_CONTEXT ( ( #283 ) ) GLOBAL_UNIT_ASSIGNED_CONTEXT ( ( #212, #94, #311 ) ) REPRESENTATION_CONTEXT ( 'NONE', 'WORKASPACE' ) );
#110 = PLANE ( 'NONE',  #133 ) ;
#111 = CARTESIAN_POINT ( 'NONE',  ( 61.33974596215563935, 2.146272101516168259E-15, 0.0000000000000000000 ) ) ;
#112 = EDGE_CURVE ( 'NONE', #295, #97, #44, .T. ) ;
#113 = CYLINDRICAL_SURFACE ( 'NONE', #198, 5.999999999999991118 ) ;
#114 = EDGE_LOOP ( 'NONE', ( #310, #281, #90, #121 ) ) ;
#115 = DIRECTION ( 'NONE',  ( -3.614007241618353455E-17, 1.000000000000000000, 0.0000000000000000000 ) ) ;
#116 = AXIS2_PLACEMENT_3D ( 'NONE', #39, #82, #178 ) ;
#117 = SURFACE_STYLE_USAGE ( .BOTH. , #19 ) ;
#118 = PRESENTATION_STYLE_ASSIGNMENT (( #95 ) ) ;
#119 = VERTEX_POINT ( 'NONE', #222 ) ;
#120 = ORIENTED_EDGE ( 'NONE', *, *, #207, .F. ) ;
#121 = ORIENTED_EDGE ( 'NONE', *, *, #195, .F. ) ;
#122 = VECTOR ( 'NONE', #96, 1000.000000000000000 ) ;
#123 = APPLICATION_PROTOCOL_DEFINITION ( 'draft international standard', 'automotive_design', 1998, #224 ) ;
#124 = EDGE_LOOP ( 'NONE', ( #158, #149, #245, #294 ) ) ;
#125 = CARTESIAN_POINT ( 'NONE',  ( 70.00000000000000000, 5.999999999999993783, 0.0000000000000000000 ) ) ;
#126 = CARTESIAN_POINT ( 'NONE',  ( 51.00000000000000000, 5.999999999999991118, 0.0000000000000000000 ) ) ;
#127 = LINE ( 'NONE', #58, #229 ) ;
#128 = AXIS2_PLACEMENT_3D ( 'NONE', #226, #305, #223 ) ;
#129 = EDGE_CURVE ( 'NONE', #172, #27, #131, .T. ) ;
#130 = DIRECTION ( 'NONE',  ( -1.000000000000000000, -3.498990854706733222E-17, 0.0000000000000000000 ) ) ;
#131 = LINE ( 'NONE', #12, #62 ) ;
#132 = CONICAL_SURFACE ( 'NONE', #312, 5.999999999999991118, 0.7853981633974421728 ) ;
#133 = AXIS2_PLACEMENT_3D ( 'NONE', #160, #199, #301 ) ;
#134 = CARTESIAN_POINT ( 'NONE',  ( 52.00000000000000711, 4.999999999999997335, 6.735557395310433148E-16 ) ) ;
#135 = DIRECTION ( 'NONE',  ( 1.000000000000000000, 3.498990854706716582E-17, -0.0000000000000000000 ) ) ;
#136 = PRESENTATION_STYLE_ASSIGNMENT (( #117 ) ) ;
#137 = ORIENTED_EDGE ( 'NONE', *, *, #279, .T. ) ;
#138 = DIRECTION ( 'NONE',  ( 0.0000000000000000000, 1.000000000000000000, 0.0000000000000000000 ) ) ;
#139 = DIRECTION ( 'NONE',  ( 0.7071067811865517916, 0.7071067811865431318, 0.0000000000000000000 ) ) ;
#140 = FILL_AREA_STYLE ('',( #266 ) ) ;
#141 = ADVANCED_FACE ( 'NONE', ( #13 ), #102, .T. ) ;
#142 =( LENGTH_UNIT ( ) NAMED_UNIT ( * ) SI_UNIT ( .MILLI., .METRE. ) );
#143 = ORIENTED_EDGE ( 'NONE', *, *, #37, .T. ) ;
#144 = FACE_OUTER_BOUND ( 'NONE', #99, .T. ) ;
#145 = VERTEX_POINT ( 'NONE', #156 ) ;
#146 = AXIS2_PLACEMENT_3D ( 'NONE', #86, #35, #255 ) ;
#147 = VECTOR ( 'NONE', #258, 1000.000000000000000 ) ;
#148 = CARTESIAN_POINT ( 'NONE',  ( 70.00000000000000000, 2.449293598294713218E-15, 0.0000000000000000000 ) ) ;
#149 = ORIENTED_EDGE ( 'NONE', *, *, #155, .T. ) ;
#150 = CONICAL_SURFACE ( 'NONE', #15, 577.3502691896268288, 0.5235987755982995928 ) ;
#151 = DIRECTION ( 'NONE',  ( 1.000000000000000000, 0.0000000000000000000, 0.0000000000000000000 ) ) ;
#152 = EDGE_LOOP ( 'NONE', ( #143, #76, #120, #189 ) ) ;
#153 = LINE ( 'NONE', #57, #75 ) ;
#154 = DIRECTION ( 'NONE',  ( 1.000000000000000000, 3.498990854706733222E-17, -0.0000000000000000000 ) ) ;
#155 = EDGE_CURVE ( 'NONE', #119, #272, #191, .T. ) ;
#156 = CARTESIAN_POINT ( 'NONE',  ( -8.747477136766739069E-17, 5.499999999999968914, 0.0000000000000000000 ) ) ;
#157 = DIRECTION ( 'NONE',  ( -1.000000000000000000, -3.498990854706733222E-17, 0.0000000000000000000 ) ) ;
#158 = ORIENTED_EDGE ( 'NONE', *, *, #103, .F. ) ;
#159 = UNCERTAINTY_MEASURE_WITH_UNIT (LENGTH_MEASURE( 1.000000000000000082E-05 ), #267, 'distance_accuracy_value', 'NONE');
#160 = CARTESIAN_POINT ( 'NONE',  ( 1.049697256412018919E-16, 3.672881100396402721E-33, 0.0000000000000000000 ) ) ;
#161 = DIRECTION ( 'NONE',  ( 0.0000000000000000000, 1.000000000000000000, 0.0000000000000000000 ) ) ;
#162 = CARTESIAN_POINT ( 'NONE',  ( 70.00000000000000000, 2.449293598294713218E-15, 0.0000000000000000000 ) ) ;
#163 = CIRCLE ( 'NONE', #106, 4.999999999999994671 ) ;
#164 = CARTESIAN_POINT ( 'NONE',  ( 52.00000000000000711, 1.819475244447501349E-15, 0.0000000000000000000 ) ) ;
#165 = AXIS2_PLACEMENT_3D ( 'NONE', #236, #260, #138 ) ;
#166 = DIRECTION ( 'NONE',  ( 1.000000000000000000, 3.498990854706733222E-17, -0.0000000000000000000 ) ) ;
#167 = CYLINDRICAL_SURFACE ( 'NONE', #243, 4.999999999999995559 ) ;
#168 = EDGE_CURVE ( 'NONE', #272, #276, #174, .T. ) ;
#169 = ORIENTED_EDGE ( 'NONE', *, *, #53, .F. ) ;
#170 = ORIENTED_EDGE ( 'NONE', *, *, #129, .F. ) ;
#171 = EDGE_LOOP ( 'NONE', ( #170, #98, #69, #274 ) ) ;
#172 = VERTEX_POINT ( 'NONE', #253 ) ;
#173 = ORIENTED_EDGE ( 'NONE', *, *, #103, .T. ) ;
#174 = LINE ( 'NONE', #105, #304 ) ;
#175 = CONICAL_SURFACE ( 'NONE', #54, 5.999999999999991118, 0.7853981633974421728 ) ;
#176 = FACE_OUTER_BOUND ( 'NONE', #190, .T. ) ;
#177 = ADVANCED_FACE ( 'NONE', ( #277 ), #110, .T. ) ;
#178 = DIRECTION ( 'NONE',  ( 3.614007241618353455E-17, -1.000000000000000000, 0.0000000000000000000 ) ) ;
#179 = CARTESIAN_POINT ( 'NONE',  ( -929.9999999999998863, -3.254061494877261836E-14, 0.0000000000000000000 ) ) ;
#180 = CARTESIAN_POINT ( 'NONE',  ( 0.5000000000000279776, 5.999999999999991118, 0.0000000000000000000 ) ) ;
#181 = FACE_OUTER_BOUND ( 'NONE', #78, .T. ) ;
#182 = EDGE_CURVE ( 'NONE', #27, #55, #42, .T. ) ;
#183 = FILL_AREA_STYLE ('',( #65 ) ) ;
#184 = EDGE_CURVE ( 'NONE', #172, #145, #17, .T. ) ;
#185 = CARTESIAN_POINT ( 'NONE',  ( 70.00000000000000000, 2.449293598294713218E-15, 0.0000000000000000000 ) ) ;
#186 = AXIS2_PLACEMENT_3D ( 'NONE', #233, #306, #257 ) ;
#187 = DIRECTION ( 'NONE',  ( 1.000000000000000000, 3.498990854706733222E-17, -0.0000000000000000000 ) ) ;
#188 = EDGE_LOOP ( 'NONE', ( #234, #5, #22, #239 ) ) ;
#189 = ORIENTED_EDGE ( 'NONE', *, *, #72, .F. ) ;
#190 = EDGE_LOOP ( 'NONE', ( #214, #220, #194 ) ) ;
#191 = CIRCLE ( 'NONE', #249, 4.999999999999995559 ) ;
#192 = PRODUCT_DEFINITION_SHAPE ( 'NONE', 'NONE',  #202 ) ;
#193 = EDGE_LOOP ( 'NONE', ( #241, #298, #73, #29 ) ) ;
#194 = ORIENTED_EDGE ( 'NONE', *, *, #297, .T. ) ;
#195 = EDGE_CURVE ( 'NONE', #145, #55, #88, .T. ) ;
#196 = DIRECTION ( 'NONE',  ( 1.000000000000000000, 3.498990854706733222E-17, -0.0000000000000000000 ) ) ;
#197 = CARTESIAN_POINT ( 'NONE',  ( 70.00000000000000000, 2.449293598294713218E-15, 0.0000000000000000000 ) ) ;
#198 = AXIS2_PLACEMENT_3D ( 'NONE', #185, #208, #43 ) ;
#199 = DIRECTION ( 'NONE',  ( -1.000000000000000000, -3.498990854706733222E-17, 0.0000000000000000000 ) ) ;
#200 = MECHANICAL_DESIGN_GEOMETRIC_PRESENTATION_REPRESENTATION (  '', ( #93 ), #109 ) ;
#201 = DIRECTION ( 'NONE',  ( 1.000000000000000000, 3.498990854706733222E-17, -0.0000000000000000000 ) ) ;
#202 = PRODUCT_DEFINITION ( 'UNKNOWN', '', #265, #38 ) ;
#203 = CYLINDRICAL_SURFACE ( 'NONE', #248, 5.999999999999991118 ) ;
#204 = MANIFOLD_SOLID_BREP ( 'Fase1', #84 ) ;
#205 = FACE_OUTER_BOUND ( 'NONE', #171, .T. ) ;
#206 = CARTESIAN_POINT ( 'NONE',  ( 70.00000000000000000, 2.449293598294713218E-15, 0.0000000000000000000 ) ) ;
#207 = EDGE_CURVE ( 'NONE', #97, #295, #40, .T. ) ;
#208 = DIRECTION ( 'NONE',  ( 1.000000000000000000, 3.498990854706733222E-17, -0.0000000000000000000 ) ) ;
#209 = ORIENTED_EDGE ( 'NONE', *, *, #232, .F. ) ;
#210 = CARTESIAN_POINT ( 'NONE',  ( 61.33974596215563935, -4.999999999999992895, 6.123233995736760366E-16 ) ) ;
#211 = PRODUCT ( '95-1-78765-10', '95-1-78765-10', '', ( #74 ) ) ;
#212 =( LENGTH_UNIT ( ) NAMED_UNIT ( * ) SI_UNIT ( .MILLI., .METRE. ) );
#213 = AXIS2_PLACEMENT_3D ( 'NONE', #33, #221, #101 ) ;
#214 = ORIENTED_EDGE ( 'NONE', *, *, #279, .F. ) ;
#215 = STYLED_ITEM ( 'NONE', ( #118 ), #1 ) ;
#216 = ADVANCED_FACE ( 'NONE', ( #181 ), #150, .T. ) ;
#217 = ORIENTED_EDGE ( 'NONE', *, *, #108, .T. ) ;
#218 = ADVANCED_FACE ( 'NONE', ( #205 ), #132, .T. ) ;
#219 = FACE_OUTER_BOUND ( 'NONE', #188, .T. ) ;
#220 = ORIENTED_EDGE ( 'NONE', *, *, #53, .T. ) ;
#221 = DIRECTION ( 'NONE',  ( 1.000000000000000000, 3.498990854706733222E-17, -0.0000000000000000000 ) ) ;
#222 = CARTESIAN_POINT ( 'NONE',  ( 52.00000000000000711, -4.999999999999993783, 0.0000000000000000000 ) ) ;
#223 = DIRECTION ( 'NONE',  ( 0.0000000000000000000, -1.000000000000000000, 0.0000000000000000000 ) ) ;
#224 = APPLICATION_CONTEXT ( 'automotive_design' ) ;
#225 = COLOUR_RGB ( '',0.7921568627450980005, 0.8196078431372548767, 0.9333333333333333481 ) ;
#226 = CARTESIAN_POINT ( 'NONE',  ( 52.00000000000000711, 1.819475244447501349E-15, 0.0000000000000000000 ) ) ;
#227 = AXIS2_PLACEMENT_3D ( 'NONE', #111, #313, #161 ) ;
#228 = CARTESIAN_POINT ( 'NONE',  ( 70.00000000000000000, -4.999999999999992895, 6.123233995736761352E-16 ) ) ;
#229 = VECTOR ( 'NONE', #61, 1000.000000000000000 ) ;
#230 = CARTESIAN_POINT ( 'NONE',  ( 0.5000000000000279776, 5.999999999999991118, 0.0000000000000000000 ) ) ;
#231 = AXIS2_PLACEMENT_3D ( 'NONE', #179, #278, #14 ) ;
#232 = EDGE_CURVE ( 'NONE', #276, #296, #289, .T. ) ;
#233 = CARTESIAN_POINT ( 'NONE',  ( 52.00000000000000711, 1.819475244447501349E-15, 0.0000000000000000000 ) ) ;
#234 = ORIENTED_EDGE ( 'NONE', *, *, #2, .F. ) ;
#235 = CARTESIAN_POINT ( 'NONE',  ( -929.9999999999998863, -3.254061494877261836E-14, 0.0000000000000000000 ) ) ;
#236 = CARTESIAN_POINT ( 'NONE',  ( 51.00000000000000000, 1.784485335900433432E-15, 0.0000000000000000000 ) ) ;
#237 = PRODUCT_RELATED_PRODUCT_CATEGORY ( 'part', '', ( #211 ) ) ;
#238 = SURFACE_SIDE_STYLE ('',( #3 ) ) ;
#239 = ORIENTED_EDGE ( 'NONE', *, *, #112, .F. ) ;
#240 =( NAMED_UNIT ( * ) SI_UNIT ( $, .STERADIAN. ) SOLID_ANGLE_UNIT ( ) );
#241 = ORIENTED_EDGE ( 'NONE', *, *, #251, .F. ) ;
#242 = CONICAL_SURFACE ( 'NONE', #231, 577.3502691896268288, 0.5235987755982995928 ) ;
#243 = AXIS2_PLACEMENT_3D ( 'NONE', #148, #187, #49 ) ;
#244 = DIRECTION ( 'NONE',  ( 0.0000000000000000000, 0.0000000000000000000, 1.000000000000000000 ) ) ;
#245 = ORIENTED_EDGE ( 'NONE', *, *, #168, .T. ) ;
#246 = VECTOR ( 'NONE', #139, 1000.000000000000114 ) ;
#247 = VERTEX_POINT ( 'NONE', #206 ) ;
#248 = AXIS2_PLACEMENT_3D ( 'NONE', #280, #154, #34 ) ;
#249 = AXIS2_PLACEMENT_3D ( 'NONE', #303, #63, #299 ) ;
#250 = DIRECTION ( 'NONE',  ( 3.498990854706733838E-17, -1.000000000000000000, 0.0000000000000000000 ) ) ;
#251 = EDGE_CURVE ( 'NONE', #272, #119, #77, .T. ) ;
#252 = DIRECTION ( 'NONE',  ( 1.000000000000000000, 3.498990854706733222E-17, -0.0000000000000000000 ) ) ;
#253 = CARTESIAN_POINT ( 'NONE',  ( 2.974142226500710882E-16, -5.499999999999968914, 7.041719095097256228E-16 ) ) ;
#254 = DIRECTION ( 'NONE',  ( 1.000000000000000000, 3.498990854706733222E-17, -0.0000000000000000000 ) ) ;
#255 = DIRECTION ( 'NONE',  ( 3.614007241618353455E-17, -1.000000000000000000, 0.0000000000000000000 ) ) ;
#256 = AXIS2_PLACEMENT_3D ( 'NONE', #292, #244, #151 ) ;
#257 = DIRECTION ( 'NONE',  ( 0.0000000000000000000, 1.000000000000000000, 0.0000000000000000000 ) ) ;
#258 = DIRECTION ( 'NONE',  ( -0.8660254037844382635, 0.5000000000000006661, 6.123233995736774664E-17 ) ) ;
#259 = ADVANCED_FACE ( 'NONE', ( #287 ), #83, .T. ) ;
#260 = DIRECTION ( 'NONE',  ( 1.000000000000000000, 3.498990854706733222E-17, -0.0000000000000000000 ) ) ;
#261 =( GEOMETRIC_REPRESENTATION_CONTEXT ( 3 ) GLOBAL_UNCERTAINTY_ASSIGNED_CONTEXT ( ( #159 ) ) GLOBAL_UNIT_ASSIGNED_CONTEXT ( ( #267, #270, #240 ) ) REPRESENTATION_CONTEXT ( 'NONE', 'WORKASPACE' ) );
#262 = LINE ( 'NONE', #162, #147 ) ;
#263 = ADVANCED_FACE ( 'NONE', ( #92 ), #113, .T. ) ;
#264 = DIRECTION ( 'NONE',  ( -3.614007241618353455E-17, 1.000000000000000000, 0.0000000000000000000 ) ) ;
#265 = PRODUCT_DEFINITION_FORMATION_WITH_SPECIFIED_SOURCE ( 'ANY', '', #211, .NOT_KNOWN. ) ;
#266 = FILL_AREA_STYLE_COLOUR ( '', #225 ) ;
#267 =( LENGTH_UNIT ( ) NAMED_UNIT ( * ) SI_UNIT ( .MILLI., .METRE. ) );
#268 = LINE ( 'NONE', #50, #122 ) ;
#269 = EDGE_CURVE ( 'NONE', #272, #97, #307, .T. ) ;
#270 =( NAMED_UNIT ( * ) PLANE_ANGLE_UNIT ( ) SI_UNIT ( $, .RADIAN. ) );
#271 = EDGE_LOOP ( 'NONE', ( #56, #8, #217, #31 ) ) ;
#272 = VERTEX_POINT ( 'NONE', #134 ) ;
#273 = MECHANICAL_DESIGN_GEOMETRIC_PRESENTATION_REPRESENTATION (  '', ( #215 ), #261 ) ;
#274 = ORIENTED_EDGE ( 'NONE', *, *, #182, .F. ) ;
#275 = PRESENTATION_LAYER_ASSIGNMENT (  '', '', ( #93 ) ) ;
#276 = VERTEX_POINT ( 'NONE', #64 ) ;
#277 = FACE_OUTER_BOUND ( 'NONE', #52, .T. ) ;
#278 = DIRECTION ( 'NONE',  ( -1.000000000000000000, -3.498990854706733222E-17, 0.0000000000000000000 ) ) ;
#279 = EDGE_CURVE ( 'NONE', #247, #276, #262, .T. ) ;
#280 = CARTESIAN_POINT ( 'NONE',  ( 70.00000000000000000, 2.449293598294713218E-15, 0.0000000000000000000 ) ) ;
#281 = ORIENTED_EDGE ( 'NONE', *, *, #129, .T. ) ;
#282 = AXIS2_PLACEMENT_3D ( 'NONE', #79, #157, #250 ) ;
#283 = UNCERTAINTY_MEASURE_WITH_UNIT (LENGTH_MEASURE( 1.000000000000000082E-05 ), #212, 'distance_accuracy_value', 'NONE');
#284 = LINE ( 'NONE', #125, #309 ) ;
#285 = CARTESIAN_POINT ( 'NONE',  ( 0.5000000000000281997, 1.749495427353456898E-17, 0.0000000000000000000 ) ) ;
#286 = ADVANCED_FACE ( 'NONE', ( #47 ), #175, .T. ) ;
#287 = FACE_OUTER_BOUND ( 'NONE', #271, .T. ) ;
#288 = VECTOR ( 'NONE', #89, 1000.000000000000000 ) ;
#289 = CIRCLE ( 'NONE', #227, 4.999999999999994671 ) ;
#290 = DIRECTION ( 'NONE',  ( 1.000000000000000000, 3.498990854706716582E-17, -0.0000000000000000000 ) ) ;
#291 =( NAMED_UNIT ( * ) PLANE_ANGLE_UNIT ( ) SI_UNIT ( $, .RADIAN. ) );
#292 = CARTESIAN_POINT ( 'NONE',  ( 0.0000000000000000000, 0.0000000000000000000, 0.0000000000000000000 ) ) ;
#293 = ORIENTED_EDGE ( 'NONE', *, *, #232, .T. ) ;
#294 = ORIENTED_EDGE ( 'NONE', *, *, #297, .F. ) ;
#295 = VERTEX_POINT ( 'NONE', #45 ) ;
#296 = VERTEX_POINT ( 'NONE', #210 ) ;
#297 = EDGE_CURVE ( 'NONE', #296, #276, #163, .T. ) ;
#298 = ORIENTED_EDGE ( 'NONE', *, *, #269, .T. ) ;
#299 = DIRECTION ( 'NONE',  ( 0.0000000000000000000, 1.000000000000000000, 0.0000000000000000000 ) ) ;
#300 = LINE ( 'NONE', #228, #68 ) ;
#301 = DIRECTION ( 'NONE',  ( 3.498990854706733222E-17, -1.000000000000000000, 0.0000000000000000000 ) ) ;
#302 = AXIS2_PLACEMENT_3D ( 'NONE', #36, #130, #85 ) ;
#303 = CARTESIAN_POINT ( 'NONE',  ( 52.00000000000000711, 1.819475244447501349E-15, 0.0000000000000000000 ) ) ;
#304 = VECTOR ( 'NONE', #254, 1000.000000000000000 ) ;
#305 = DIRECTION ( 'NONE',  ( -1.000000000000000000, -3.498990854706733222E-17, 0.0000000000000000000 ) ) ;
#306 = DIRECTION ( 'NONE',  ( 1.000000000000000000, 3.498990854706733222E-17, -0.0000000000000000000 ) ) ;
#307 = LINE ( 'NONE', #87, #288 ) ;
#308 = ADVANCED_FACE ( 'NONE', ( #144 ), #167, .T. ) ;
#309 = VECTOR ( 'NONE', #201, 1000.000000000000000 ) ;
#310 = ORIENTED_EDGE ( 'NONE', *, *, #184, .F. ) ;
#311 =( NAMED_UNIT ( * ) SI_UNIT ( $, .STERADIAN. ) SOLID_ANGLE_UNIT ( ) );
#312 = AXIS2_PLACEMENT_3D ( 'NONE', #285, #135, #264 ) ;
#313 = DIRECTION ( 'NONE',  ( 1.000000000000000000, 3.498990854706733222E-17, -0.0000000000000000000 ) ) ;
#314 = CIRCLE ( 'NONE', #282, 5.499999999999968914 ) ;
ENDSEC;
END-ISO-10303-21;
