ISO-10303-21;
HEADER;
FILE_DESCRIPTION (( 'STEP AP214' ),
    '1' );
FILE_NAME ('95-1-78762-10.STEP',
    '2021-01-13T13:58:43',
    ( '' ),
    ( '' ),
    'SwSTEP 2.0',
    'SolidWorks 2020',
    '' );
FILE_SCHEMA (( 'AUTOMOTIVE_DESIGN' ));
ENDSEC;

DATA;
#1 =( GEOMETRIC_REPRESENTATION_CONTEXT ( 3 ) GLOBAL_UNCERTAINTY_ASSIGNED_CONTEXT ( ( #72 ) ) GLOBAL_UNIT_ASSIGNED_CONTEXT ( ( #110, #70, #201 ) ) REPRESENTATION_CONTEXT ( 'NONE', 'WORKASPACE' ) );
#2 = ORIENTED_EDGE ( 'NONE', *, *, #269, .F. ) ;
#3 = FACE_OUTER_BOUND ( 'NONE', #181, .T. ) ;
#4 = VERTEX_POINT ( 'NONE', #304 ) ;
#5 = DIRECTION ( 'NONE',  ( 0.0000000000000000000, 1.000000000000000000, 0.0000000000000000000 ) ) ;
#6 = CONICAL_SURFACE ( 'NONE', #163, 5.999999999999991118, 0.7853981633974487231 ) ;
#7 = EDGE_CURVE ( 'NONE', #4, #251, #238, .T. ) ;
#8 = ORIENTED_EDGE ( 'NONE', *, *, #161, .F. ) ;
#9 = ORIENTED_EDGE ( 'NONE', *, *, #228, .F. ) ;
#10 = ORIENTED_EDGE ( 'NONE', *, *, #7, .T. ) ;
#11 = EDGE_CURVE ( 'NONE', #282, #116, #203, .T. ) ;
#12 = ORIENTED_EDGE ( 'NONE', *, *, #257, .F. ) ;
#13 =( LENGTH_UNIT ( ) NAMED_UNIT ( * ) SI_UNIT ( .MILLI., .METRE. ) );
#14 = EDGE_LOOP ( 'NONE', ( #274, #95, #44 ) ) ;
#15 = SHAPE_DEFINITION_REPRESENTATION ( #54, #180 ) ;
#16 = CARTESIAN_POINT ( 'NONE',  ( 51.00000000000000000, 8.922426679502157297E-16, 0.0000000000000000000 ) ) ;
#17 = CIRCLE ( 'NONE', #41, 4.999999999999996447 ) ;
#18 = VECTOR ( 'NONE', #177, 1000.000000000000000 ) ;
#19 = STYLED_ITEM ( 'NONE', ( #208 ), #180 ) ;
#20 = SURFACE_STYLE_FILL_AREA ( #235 ) ;
#21 = DIRECTION ( 'NONE',  ( 0.0000000000000000000, 1.000000000000000000, 0.0000000000000000000 ) ) ;
#22 = CARTESIAN_POINT ( 'NONE',  ( 1.000000000000000888, 5.999999999999991118, 0.0000000000000000000 ) ) ;
#23 =( NAMED_UNIT ( * ) SI_UNIT ( $, .STERADIAN. ) SOLID_ANGLE_UNIT ( ) );
#24 = COLOUR_RGB ( '',0.7921568627450980005, 0.8196078431372548767, 0.9333333333333333481 ) ;
#25 = AXIS2_PLACEMENT_3D ( 'NONE', #174, #227, #5 ) ;
#26 = CARTESIAN_POINT ( 'NONE',  ( 70.00000000000000000, 1.224646799147355031E-15, 0.0000000000000000000 ) ) ;
#27 = FACE_OUTER_BOUND ( 'NONE', #96, .T. ) ;
#28 = CARTESIAN_POINT ( 'NONE',  ( 67.11324865405190110, -4.999999999999996447, 6.123233995736763324E-16 ) ) ;
#29 = ORIENTED_EDGE ( 'NONE', *, *, #149, .F. ) ;
#30 = CONICAL_SURFACE ( 'NONE', #206, 4.999999999999996447, 0.7853981633974415066 ) ;
#31 = DIRECTION ( 'NONE',  ( 1.000000000000000000, 1.749495427353364454E-17, -0.0000000000000000000 ) ) ;
#32 = CARTESIAN_POINT ( 'NONE',  ( 1.000000000000000888, -5.999999999999991118, 7.347880794884108889E-16 ) ) ;
#33 = EDGE_LOOP ( 'NONE', ( #252, #182 ) ) ;
#34 = DIRECTION ( 'NONE',  ( 1.000000000000000000, 1.749495427353364454E-17, -0.0000000000000000000 ) ) ;
#35 = EDGE_CURVE ( 'NONE', #94, #302, #102, .T. ) ;
#36 = CONICAL_SURFACE ( 'NONE', #200, 4.999999999999996447, 0.7853981633974415066 ) ;
#37 = ORIENTED_EDGE ( 'NONE', *, *, #205, .T. ) ;
#38 = DIRECTION ( 'NONE',  ( 0.0000000000000000000, 1.000000000000000000, 0.0000000000000000000 ) ) ;
#39 = EDGE_LOOP ( 'NONE', ( #259, #93, #229, #209 ) ) ;
#40 = ORIENTED_EDGE ( 'NONE', *, *, #35, .F. ) ;
#41 = AXIS2_PLACEMENT_3D ( 'NONE', #51, #190, #123 ) ;
#42 = VECTOR ( 'NONE', #278, 1000.000000000000000 ) ;
#43 = FILL_AREA_STYLE_COLOUR ( '', #80 ) ;
#44 = ORIENTED_EDGE ( 'NONE', *, *, #98, .T. ) ;
#45 = SURFACE_STYLE_USAGE ( .BOTH. , #73 ) ;
#46 = DIRECTION ( 'NONE',  ( -1.000000000000000000, -1.749495427353364454E-17, 0.0000000000000000000 ) ) ;
#47 =( NAMED_UNIT ( * ) PLANE_ANGLE_UNIT ( ) SI_UNIT ( $, .RADIAN. ) );
#48 = CARTESIAN_POINT ( 'NONE',  ( 52.00000000000000711, 4.999999999999997335, 6.123233995736762338E-16 ) ) ;
#49 = APPLICATION_PROTOCOL_DEFINITION ( 'draft international standard', 'automotive_design', 1998, #183 ) ;
#50 = STYLED_ITEM ( 'NONE', ( #265 ), #52 ) ;
#51 = CARTESIAN_POINT ( 'NONE',  ( 52.00000000000000711, 9.097376222237494914E-16, 0.0000000000000000000 ) ) ;
#52 = MANIFOLD_SOLID_BREP ( 'Fase1', #144 ) ;
#53 = EDGE_CURVE ( 'NONE', #301, #282, #106, .T. ) ;
#54 = PRODUCT_DEFINITION_SHAPE ( 'NONE', 'NONE',  #221 ) ;
#55 = CARTESIAN_POINT ( 'NONE',  ( 51.00000000000000000, 5.999999999999991118, 0.0000000000000000000 ) ) ;
#56 = DIRECTION ( 'NONE',  ( 1.000000000000000000, 0.0000000000000000000, 0.0000000000000000000 ) ) ;
#57 = AXIS2_PLACEMENT_3D ( 'NONE', #225, #132, #294 ) ;
#58 = DIRECTION ( 'NONE',  ( 0.0000000000000000000, -1.000000000000000000, 0.0000000000000000000 ) ) ;
#59 = EDGE_CURVE ( 'NONE', #251, #4, #17, .T. ) ;
#60 = DIRECTION ( 'NONE',  ( 0.7071067811865472397, -0.7071067811865479058, 8.659560562354937789E-17 ) ) ;
#61 = CARTESIAN_POINT ( 'NONE',  ( 1.000000000000000888, 1.749495427353360756E-17, 0.0000000000000000000 ) ) ;
#62 = DIRECTION ( 'NONE',  ( 0.0000000000000000000, 1.000000000000000000, 0.0000000000000000000 ) ) ;
#63 = ORIENTED_EDGE ( 'NONE', *, *, #92, .F. ) ;
#64 = CARTESIAN_POINT ( 'NONE',  ( 52.00000000000000711, -4.999999999999995559, 0.0000000000000000000 ) ) ;
#65 = VERTEX_POINT ( 'NONE', #187 ) ;
#66 = VECTOR ( 'NONE', #108, 1000.000000000000000 ) ;
#67 = ORIENTED_EDGE ( 'NONE', *, *, #68, .F. ) ;
#68 = EDGE_CURVE ( 'NONE', #234, #65, #218, .T. ) ;
#69 = CARTESIAN_POINT ( 'NONE',  ( 1.000000000000000888, 1.749495427353360756E-17, 0.0000000000000000000 ) ) ;
#70 =( NAMED_UNIT ( * ) PLANE_ANGLE_UNIT ( ) SI_UNIT ( $, .RADIAN. ) );
#71 = VERTEX_POINT ( 'NONE', #122 ) ;
#72 = UNCERTAINTY_MEASURE_WITH_UNIT (LENGTH_MEASURE( 1.000000000000000082E-05 ), #110, 'distance_accuracy_value', 'NONE');
#73 = SURFACE_SIDE_STYLE ('',( #20 ) ) ;
#74 = CARTESIAN_POINT ( 'NONE',  ( 67.11324865405190110, 1.174143216350931200E-15, 0.0000000000000000000 ) ) ;
#75 = EDGE_CURVE ( 'NONE', #65, #282, #290, .T. ) ;
#76 = CARTESIAN_POINT ( 'NONE',  ( 0.0000000000000000000, 0.0000000000000000000, 0.0000000000000000000 ) ) ;
#77 =( LENGTH_UNIT ( ) NAMED_UNIT ( * ) SI_UNIT ( .MILLI., .METRE. ) );
#78 = DIRECTION ( 'NONE',  ( -0.7071067811865523467, 0.7071067811865426878, 8.659560562354873694E-17 ) ) ;
#79 = CIRCLE ( 'NONE', #288, 4.999999999999997335 ) ;
#80 = COLOUR_RGB ( '',0.7921568627450980005, 0.8196078431372548767, 0.9333333333333333481 ) ;
#81 = ADVANCED_FACE ( 'NONE', ( #287 ), #30, .T. ) ;
#82 = SURFACE_STYLE_USAGE ( .BOTH. , #101 ) ;
#83 = DIRECTION ( 'NONE',  ( 0.0000000000000000000, -1.000000000000000000, 0.0000000000000000000 ) ) ;
#84 = FACE_OUTER_BOUND ( 'NONE', #14, .T. ) ;
#85 = VECTOR ( 'NONE', #156, 1000.000000000000000 ) ;
#86 = CARTESIAN_POINT ( 'NONE',  ( 70.00000000000000000, -5.999999999999990230, 7.347880794884108889E-16 ) ) ;
#87 = CARTESIAN_POINT ( 'NONE',  ( 70.00000000000000000, 1.224646799147355031E-15, 0.0000000000000000000 ) ) ;
#88 = LINE ( 'NONE', #267, #18 ) ;
#89 = VECTOR ( 'NONE', #271, 1000.000000000000000 ) ;
#90 = CYLINDRICAL_SURFACE ( 'NONE', #145, 5.999999999999991118 ) ;
#91 =( GEOMETRIC_REPRESENTATION_CONTEXT ( 3 ) GLOBAL_UNCERTAINTY_ASSIGNED_CONTEXT ( ( #237 ) ) GLOBAL_UNIT_ASSIGNED_CONTEXT ( ( #13, #47, #162 ) ) REPRESENTATION_CONTEXT ( 'NONE', 'WORKASPACE' ) );
#92 = EDGE_CURVE ( 'NONE', #4, #116, #215, .T. ) ;
#93 = ORIENTED_EDGE ( 'NONE', *, *, #228, .T. ) ;
#94 = VERTEX_POINT ( 'NONE', #310 ) ;
#95 = ORIENTED_EDGE ( 'NONE', *, *, #149, .T. ) ;
#96 = EDGE_LOOP ( 'NONE', ( #9, #230, #164, #303 ) ) ;
#97 = LINE ( 'NONE', #212, #124 ) ;
#98 = EDGE_CURVE ( 'NONE', #302, #94, #79, .T. ) ;
#99 = CIRCLE ( 'NONE', #239, 4.999999999999989342 ) ;
#100 = DIRECTION ( 'NONE',  ( 0.7071067811865472397, 0.7071067811865479058, 0.0000000000000000000 ) ) ;
#101 = SURFACE_SIDE_STYLE ('',( #169 ) ) ;
#102 = CIRCLE ( 'NONE', #255, 4.999999999999997335 ) ;
#103 = ORIENTED_EDGE ( 'NONE', *, *, #231, .F. ) ;
#104 = CARTESIAN_POINT ( 'NONE',  ( 70.00000000000000000, -4.999999999999996447, 6.123233995736763324E-16 ) ) ;
#105 = DIRECTION ( 'NONE',  ( 0.0000000000000000000, -1.000000000000000000, 0.0000000000000000000 ) ) ;
#106 = CIRCLE ( 'NONE', #309, 5.999999999999991118 ) ;
#107 = ORIENTED_EDGE ( 'NONE', *, *, #53, .F. ) ;
#108 = DIRECTION ( 'NONE',  ( 1.000000000000000000, 1.749495427353364454E-17, -0.0000000000000000000 ) ) ;
#109 = LINE ( 'NONE', #128, #173 ) ;
#110 =( LENGTH_UNIT ( ) NAMED_UNIT ( * ) SI_UNIT ( .MILLI., .METRE. ) );
#111 = PRESENTATION_LAYER_ASSIGNMENT (  '', '', ( #19 ) ) ;
#112 = ORIENTED_EDGE ( 'NONE', *, *, #7, .F. ) ;
#113 = ADVANCED_FACE ( 'NONE', ( #186 ), #189, .T. ) ;
#114 = ORIENTED_EDGE ( 'NONE', *, *, #283, .F. ) ;
#115 = PRESENTATION_LAYER_ASSIGNMENT (  '', '', ( #50 ) ) ;
#116 = VERTEX_POINT ( 'NONE', #55 ) ;
#117 = ADVANCED_FACE ( 'NONE', ( #143 ), #266, .T. ) ;
#118 = ORIENTED_EDGE ( 'NONE', *, *, #92, .T. ) ;
#119 = DIRECTION ( 'NONE',  ( 1.749495427353364762E-17, -1.000000000000000000, 0.0000000000000000000 ) ) ;
#120 = AXIS2_PLACEMENT_3D ( 'NONE', #150, #127, #312 ) ;
#121 = FACE_OUTER_BOUND ( 'NONE', #33, .T. ) ;
#122 = CARTESIAN_POINT ( 'NONE',  ( 70.00000000000000000, 1.224646799147355031E-15, 0.0000000000000000000 ) ) ;
#123 = DIRECTION ( 'NONE',  ( 0.0000000000000000000, 1.000000000000000000, 0.0000000000000000000 ) ) ;
#124 = VECTOR ( 'NONE', #185, 1000.000000000000114 ) ;
#125 = CARTESIAN_POINT ( 'NONE',  ( 5.248486282060087199E-17, 9.182202750990984565E-34, 0.0000000000000000000 ) ) ;
#126 = ADVANCED_FACE ( 'NONE', ( #121 ), #244, .T. ) ;
#127 = DIRECTION ( 'NONE',  ( -1.000000000000000000, -1.749495427353364454E-17, 0.0000000000000000000 ) ) ;
#128 = CARTESIAN_POINT ( 'NONE',  ( 70.00000000000000000, 1.224646799147355031E-15, 0.0000000000000000000 ) ) ;
#129 = VECTOR ( 'NONE', #78, 1000.000000000000000 ) ;
#130 = EDGE_LOOP ( 'NONE', ( #29, #160, #191 ) ) ;
#131 = FACE_OUTER_BOUND ( 'NONE', #39, .T. ) ;
#132 = DIRECTION ( 'NONE',  ( 1.000000000000000000, 1.749495427353364454E-17, -0.0000000000000000000 ) ) ;
#133 = DIRECTION ( 'NONE',  ( -1.000000000000000000, -1.749495427353364454E-17, 0.0000000000000000000 ) ) ;
#134 = CIRCLE ( 'NONE', #284, 5.999999999999991118 ) ;
#135 = EDGE_LOOP ( 'NONE', ( #114, #12, #138, #107 ) ) ;
#136 = ORIENTED_EDGE ( 'NONE', *, *, #59, .F. ) ;
#137 =( GEOMETRIC_REPRESENTATION_CONTEXT ( 3 ) GLOBAL_UNCERTAINTY_ASSIGNED_CONTEXT ( ( #166 ) ) GLOBAL_UNIT_ASSIGNED_CONTEXT ( ( #77, #146, #23 ) ) REPRESENTATION_CONTEXT ( 'NONE', 'WORKASPACE' ) );
#138 = ORIENTED_EDGE ( 'NONE', *, *, #75, .T. ) ;
#139 = ORIENTED_EDGE ( 'NONE', *, *, #153, .T. ) ;
#140 = PRODUCT ( '95-1-78762-10', '95-1-78762-10', '', ( #243 ) ) ;
#141 = CARTESIAN_POINT ( 'NONE',  ( 5.248486282060087199E-17, -1.916747741636245009E-31, 0.0000000000000000000 ) ) ;
#142 = APPLICATION_PROTOCOL_DEFINITION ( 'draft international standard', 'automotive_design', 1998, #154 ) ;
#143 = FACE_OUTER_BOUND ( 'NONE', #262, .T. ) ;
#144 = CLOSED_SHELL ( 'NONE', ( #202, #113, #178, #171, #242, #126, #277, #81, #117, #213, #273 ) ) ;
#145 = AXIS2_PLACEMENT_3D ( 'NONE', #272, #247, #62 ) ;
#146 =( NAMED_UNIT ( * ) PLANE_ANGLE_UNIT ( ) SI_UNIT ( $, .RADIAN. ) );
#147 = DIRECTION ( 'NONE',  ( 1.000000000000000000, 1.749495427353364454E-17, -0.0000000000000000000 ) ) ;
#148 = CIRCLE ( 'NONE', #268, 5.999999999999990230 ) ;
#149 = EDGE_CURVE ( 'NONE', #71, #302, #97, .T. ) ;
#150 = CARTESIAN_POINT ( 'NONE',  ( -929.9999999999998863, -1.627030747438628709E-14, 0.0000000000000000000 ) ) ;
#151 = CARTESIAN_POINT ( 'NONE',  ( 1.399596341882688851E-16, -4.999999999999989342, 6.735557395310431176E-16 ) ) ;
#152 = CARTESIAN_POINT ( 'NONE',  ( 51.00000000000000000, -5.999999999999989342, 7.347880794884108889E-16 ) ) ;
#153 = EDGE_CURVE ( 'NONE', #226, #116, #261, .T. ) ;
#154 = APPLICATION_CONTEXT ( 'automotive_design' ) ;
#155 = LINE ( 'NONE', #270, #211 ) ;
#156 = DIRECTION ( 'NONE',  ( -0.7071067811865523467, -0.7071067811865426878, 0.0000000000000000000 ) ) ;
#157 = DIRECTION ( 'NONE',  ( 0.0000000000000000000, 1.000000000000000000, 0.0000000000000000000 ) ) ;
#158 = AXIS2_PLACEMENT_3D ( 'NONE', #165, #46, #289 ) ;
#159 = CARTESIAN_POINT ( 'NONE',  ( 52.00000000000000711, 9.097376222237494914E-16, 0.0000000000000000000 ) ) ;
#160 = ORIENTED_EDGE ( 'NONE', *, *, #306, .T. ) ;
#161 = EDGE_CURVE ( 'NONE', #251, #226, #307, .T. ) ;
#162 =( NAMED_UNIT ( * ) SI_UNIT ( $, .STERADIAN. ) SOLID_ANGLE_UNIT ( ) );
#163 = AXIS2_PLACEMENT_3D ( 'NONE', #61, #275, #220 ) ;
#164 = ORIENTED_EDGE ( 'NONE', *, *, #11, .T. ) ;
#165 = CARTESIAN_POINT ( 'NONE',  ( -929.9999999999998863, -1.627030747438628709E-14, 0.0000000000000000000 ) ) ;
#166 = UNCERTAINTY_MEASURE_WITH_UNIT (LENGTH_MEASURE( 1.000000000000000082E-05 ), #77, 'distance_accuracy_value', 'NONE');
#167 = DIRECTION ( 'NONE',  ( 0.0000000000000000000, 0.0000000000000000000, 1.000000000000000000 ) ) ;
#168 = FILL_AREA_STYLE_COLOUR ( '', #24 ) ;
#169 = SURFACE_STYLE_FILL_AREA ( #264 ) ;
#170 = CARTESIAN_POINT ( 'NONE',  ( 52.00000000000000711, 9.097376222237494914E-16, 0.0000000000000000000 ) ) ;
#171 = ADVANCED_FACE ( 'NONE', ( #3 ), #36, .T. ) ;
#172 = DIRECTION ( 'NONE',  ( -1.000000000000000000, -1.749495427353364454E-17, 0.0000000000000000000 ) ) ;
#173 = VECTOR ( 'NONE', #223, 1000.000000000000114 ) ;
#174 = CARTESIAN_POINT ( 'NONE',  ( 1.000000000000000888, 1.749495427353360756E-17, 0.0000000000000000000 ) ) ;
#175 = CARTESIAN_POINT ( 'NONE',  ( 51.00000000000000000, 8.922426679502157297E-16, 0.0000000000000000000 ) ) ;
#176 = FACE_OUTER_BOUND ( 'NONE', #135, .T. ) ;
#177 = DIRECTION ( 'NONE',  ( 1.000000000000000000, 1.749495427353364454E-17, -0.0000000000000000000 ) ) ;
#178 = ADVANCED_FACE ( 'NONE', ( #196 ), #193, .T. ) ;
#179 = CARTESIAN_POINT ( 'NONE',  ( 70.00000000000000000, 5.999999999999992006, 0.0000000000000000000 ) ) ;
#180 = ADVANCED_BREP_SHAPE_REPRESENTATION ( '95-1-78762-10', ( #52, #249 ), #1 ) ;
#181 = EDGE_LOOP ( 'NONE', ( #112, #118, #204, #8 ) ) ;
#182 = ORIENTED_EDGE ( 'NONE', *, *, #68, .T. ) ;
#183 = APPLICATION_CONTEXT ( 'automotive_design' ) ;
#184 = CONICAL_SURFACE ( 'NONE', #120, 1732.050807568887649, 1.047197551196600296 ) ;
#185 = DIRECTION ( 'NONE',  ( -0.4999999999999977240, -0.8660254037844398178, 0.0000000000000000000 ) ) ;
#186 = FACE_OUTER_BOUND ( 'NONE', #130, .T. ) ;
#187 = CARTESIAN_POINT ( 'NONE',  ( -3.498990854706718431E-17, 4.999999999999989342, 0.0000000000000000000 ) ) ;
#188 = DIRECTION ( 'NONE',  ( 0.0000000000000000000, 1.000000000000000000, 0.0000000000000000000 ) ) ;
#189 = CONICAL_SURFACE ( 'NONE', #158, 1732.050807568887649, 1.047197551196600296 ) ;
#190 = DIRECTION ( 'NONE',  ( 1.000000000000000000, 1.749495427353364454E-17, -0.0000000000000000000 ) ) ;
#191 = ORIENTED_EDGE ( 'NONE', *, *, #35, .T. ) ;
#192 = CARTESIAN_POINT ( 'NONE',  ( 52.00000000000000711, -4.999999999999995559, 0.0000000000000000000 ) ) ;
#193 = CYLINDRICAL_SURFACE ( 'NONE', #299, 4.999999999999997335 ) ;
#194 = PRODUCT_RELATED_PRODUCT_CATEGORY ( 'part', '', ( #140 ) ) ;
#195 = MECHANICAL_DESIGN_GEOMETRIC_PRESENTATION_REPRESENTATION (  '', ( #19 ), #91 ) ;
#196 = FACE_OUTER_BOUND ( 'NONE', #224, .T. ) ;
#197 = DIRECTION ( 'NONE',  ( 1.749495427353364762E-17, -1.000000000000000000, 0.0000000000000000000 ) ) ;
#198 = CYLINDRICAL_SURFACE ( 'NONE', #57, 5.999999999999991118 ) ;
#199 = AXIS2_PLACEMENT_3D ( 'NONE', #141, #241, #119 ) ;
#200 = AXIS2_PLACEMENT_3D ( 'NONE', #297, #133, #58 ) ;
#201 =( NAMED_UNIT ( * ) SI_UNIT ( $, .STERADIAN. ) SOLID_ANGLE_UNIT ( ) );
#202 = ADVANCED_FACE ( 'NONE', ( #250 ), #6, .T. ) ;
#203 = LINE ( 'NONE', #179, #42 ) ;
#204 = ORIENTED_EDGE ( 'NONE', *, *, #216, .T. ) ;
#205 = EDGE_CURVE ( 'NONE', #251, #302, #253, .T. ) ;
#206 = AXIS2_PLACEMENT_3D ( 'NONE', #170, #217, #83 ) ;
#207 = ORIENTED_EDGE ( 'NONE', *, *, #269, .T. ) ;
#208 = PRESENTATION_STYLE_ASSIGNMENT (( #45 ) ) ;
#209 = ORIENTED_EDGE ( 'NONE', *, *, #11, .F. ) ;
#210 = PRODUCT_DEFINITION_CONTEXT ( 'detailed design', #183, 'design' ) ;
#211 = VECTOR ( 'NONE', #60, 999.9999999999998863 ) ;
#212 = CARTESIAN_POINT ( 'NONE',  ( 70.00000000000000000, 1.224646799147355031E-15, 0.0000000000000000000 ) ) ;
#213 = ADVANCED_FACE ( 'NONE', ( #84 ), #184, .T. ) ;
#214 = DIRECTION ( 'NONE',  ( 0.0000000000000000000, 1.000000000000000000, 0.0000000000000000000 ) ) ;
#215 = LINE ( 'NONE', #48, #129 ) ;
#216 = EDGE_CURVE ( 'NONE', #116, #226, #148, .T. ) ;
#217 = DIRECTION ( 'NONE',  ( -1.000000000000000000, -1.749495427353364454E-17, 0.0000000000000000000 ) ) ;
#218 = CIRCLE ( 'NONE', #199, 4.999999999999989342 ) ;
#219 = DIRECTION ( 'NONE',  ( 1.749495427353364454E-17, -1.000000000000000000, 0.0000000000000000000 ) ) ;
#220 = DIRECTION ( 'NONE',  ( 0.0000000000000000000, 1.000000000000000000, 0.0000000000000000000 ) ) ;
#221 = PRODUCT_DEFINITION ( 'UNKNOWN', '', #240, #210 ) ;
#222 = ORIENTED_EDGE ( 'NONE', *, *, #205, .F. ) ;
#223 = DIRECTION ( 'NONE',  ( -0.4999999999999977240, 0.8660254037844398178, 1.060575238724908394E-16 ) ) ;
#224 = EDGE_LOOP ( 'NONE', ( #10, #37, #40, #2 ) ) ;
#225 = CARTESIAN_POINT ( 'NONE',  ( 70.00000000000000000, 1.224646799147355031E-15, 0.0000000000000000000 ) ) ;
#226 = VERTEX_POINT ( 'NONE', #152 ) ;
#227 = DIRECTION ( 'NONE',  ( 1.000000000000000000, 1.749495427353378321E-17, -0.0000000000000000000 ) ) ;
#228 = EDGE_CURVE ( 'NONE', #301, #226, #246, .T. ) ;
#229 = ORIENTED_EDGE ( 'NONE', *, *, #216, .F. ) ;
#230 = ORIENTED_EDGE ( 'NONE', *, *, #53, .T. ) ;
#231 = EDGE_CURVE ( 'NONE', #282, #301, #134, .T. ) ;
#232 = ORIENTED_EDGE ( 'NONE', *, *, #161, .T. ) ;
#233 = EDGE_LOOP ( 'NONE', ( #67, #281, #103, #260 ) ) ;
#234 = VERTEX_POINT ( 'NONE', #151 ) ;
#235 = FILL_AREA_STYLE ('',( #43 ) ) ;
#236 = DIRECTION ( 'NONE',  ( -1.000000000000000000, -1.749495427353364454E-17, 0.0000000000000000000 ) ) ;
#237 = UNCERTAINTY_MEASURE_WITH_UNIT (LENGTH_MEASURE( 1.000000000000000082E-05 ), #13, 'distance_accuracy_value', 'NONE');
#238 = CIRCLE ( 'NONE', #263, 4.999999999999996447 ) ;
#239 = AXIS2_PLACEMENT_3D ( 'NONE', #292, #172, #197 ) ;
#240 = PRODUCT_DEFINITION_FORMATION_WITH_SPECIFIED_SOURCE ( 'ANY', '', #140, .NOT_KNOWN. ) ;
#241 = DIRECTION ( 'NONE',  ( -1.000000000000000000, -1.749495427353364454E-17, 0.0000000000000000000 ) ) ;
#242 = ADVANCED_FACE ( 'NONE', ( #131 ), #198, .T. ) ;
#243 = PRODUCT_CONTEXT ( 'NONE', #154, 'mechanical' ) ;
#244 = PLANE ( 'NONE',  #256 ) ;
#245 = AXIS2_PLACEMENT_3D ( 'NONE', #26, #147, #21 ) ;
#246 = LINE ( 'NONE', #86, #66 ) ;
#247 = DIRECTION ( 'NONE',  ( 1.000000000000000000, 1.749495427353364454E-17, -0.0000000000000000000 ) ) ;
#248 = CARTESIAN_POINT ( 'NONE',  ( 1.000000000000000888, 1.749495427353360756E-17, 0.0000000000000000000 ) ) ;
#249 = AXIS2_PLACEMENT_3D ( 'NONE', #76, #167, #56 ) ;
#250 = FACE_OUTER_BOUND ( 'NONE', #233, .T. ) ;
#251 = VERTEX_POINT ( 'NONE', #192 ) ;
#252 = ORIENTED_EDGE ( 'NONE', *, *, #257, .T. ) ;
#253 = LINE ( 'NONE', #104, #89 ) ;
#254 = EDGE_LOOP ( 'NONE', ( #63, #136, #232, #139 ) ) ;
#255 = AXIS2_PLACEMENT_3D ( 'NONE', #258, #280, #38 ) ;
#256 = AXIS2_PLACEMENT_3D ( 'NONE', #125, #236, #219 ) ;
#257 = EDGE_CURVE ( 'NONE', #65, #234, #99, .T. ) ;
#258 = CARTESIAN_POINT ( 'NONE',  ( 67.11324865405190110, 1.174143216350931200E-15, 0.0000000000000000000 ) ) ;
#259 = ORIENTED_EDGE ( 'NONE', *, *, #231, .T. ) ;
#260 = ORIENTED_EDGE ( 'NONE', *, *, #75, .F. ) ;
#261 = CIRCLE ( 'NONE', #295, 5.999999999999990230 ) ;
#262 = EDGE_LOOP ( 'NONE', ( #222, #300, #207, #291 ) ) ;
#263 = AXIS2_PLACEMENT_3D ( 'NONE', #159, #276, #157 ) ;
#264 = FILL_AREA_STYLE ('',( #168 ) ) ;
#265 = PRESENTATION_STYLE_ASSIGNMENT (( #82 ) ) ;
#266 = CYLINDRICAL_SURFACE ( 'NONE', #245, 4.999999999999997335 ) ;
#267 = CARTESIAN_POINT ( 'NONE',  ( 70.00000000000000000, 4.999999999999998224, 0.0000000000000000000 ) ) ;
#268 = AXIS2_PLACEMENT_3D ( 'NONE', #175, #34, #313 ) ;
#269 = EDGE_CURVE ( 'NONE', #4, #94, #88, .T. ) ;
#270 = CARTESIAN_POINT ( 'NONE',  ( 1.000000000000000888, -5.999999999999991118, 7.347880794884108889E-16 ) ) ;
#271 = DIRECTION ( 'NONE',  ( 1.000000000000000000, 1.749495427353364454E-17, -0.0000000000000000000 ) ) ;
#272 = CARTESIAN_POINT ( 'NONE',  ( 70.00000000000000000, 1.224646799147355031E-15, 0.0000000000000000000 ) ) ;
#273 = ADVANCED_FACE ( 'NONE', ( #176 ), #314, .T. ) ;
#274 = ORIENTED_EDGE ( 'NONE', *, *, #306, .F. ) ;
#275 = DIRECTION ( 'NONE',  ( 1.000000000000000000, 1.749495427353378321E-17, -0.0000000000000000000 ) ) ;
#276 = DIRECTION ( 'NONE',  ( 1.000000000000000000, 1.749495427353364454E-17, -0.0000000000000000000 ) ) ;
#277 = ADVANCED_FACE ( 'NONE', ( #27 ), #90, .T. ) ;
#278 = DIRECTION ( 'NONE',  ( 1.000000000000000000, 1.749495427353364454E-17, -0.0000000000000000000 ) ) ;
#279 = VECTOR ( 'NONE', #100, 999.9999999999998863 ) ;
#280 = DIRECTION ( 'NONE',  ( 1.000000000000000000, 1.749495427353364454E-17, -0.0000000000000000000 ) ) ;
#281 = ORIENTED_EDGE ( 'NONE', *, *, #283, .T. ) ;
#282 = VERTEX_POINT ( 'NONE', #296 ) ;
#283 = EDGE_CURVE ( 'NONE', #234, #301, #155, .T. ) ;
#284 = AXIS2_PLACEMENT_3D ( 'NONE', #248, #311, #105 ) ;
#285 = DIRECTION ( 'NONE',  ( 1.000000000000000000, 1.749495427353364454E-17, -0.0000000000000000000 ) ) ;
#286 = DIRECTION ( 'NONE',  ( 1.000000000000000000, 1.749495427353378321E-17, -0.0000000000000000000 ) ) ;
#287 = FACE_OUTER_BOUND ( 'NONE', #254, .T. ) ;
#288 = AXIS2_PLACEMENT_3D ( 'NONE', #74, #308, #188 ) ;
#289 = DIRECTION ( 'NONE',  ( 0.0000000000000000000, -1.000000000000000000, 0.0000000000000000000 ) ) ;
#290 = LINE ( 'NONE', #22, #279 ) ;
#291 = ORIENTED_EDGE ( 'NONE', *, *, #98, .F. ) ;
#292 = CARTESIAN_POINT ( 'NONE',  ( 5.248486282060087199E-17, -1.916747741636245009E-31, 0.0000000000000000000 ) ) ;
#293 = MECHANICAL_DESIGN_GEOMETRIC_PRESENTATION_REPRESENTATION (  '', ( #50 ), #137 ) ;
#294 = DIRECTION ( 'NONE',  ( 0.0000000000000000000, 1.000000000000000000, 0.0000000000000000000 ) ) ;
#295 = AXIS2_PLACEMENT_3D ( 'NONE', #16, #285, #214 ) ;
#296 = CARTESIAN_POINT ( 'NONE',  ( 1.000000000000000888, 5.999999999999991118, 0.0000000000000000000 ) ) ;
#297 = CARTESIAN_POINT ( 'NONE',  ( 52.00000000000000711, 9.097376222237494914E-16, 0.0000000000000000000 ) ) ;
#298 = DIRECTION ( 'NONE',  ( 0.0000000000000000000, 1.000000000000000000, 0.0000000000000000000 ) ) ;
#299 = AXIS2_PLACEMENT_3D ( 'NONE', #87, #31, #298 ) ;
#300 = ORIENTED_EDGE ( 'NONE', *, *, #59, .T. ) ;
#301 = VERTEX_POINT ( 'NONE', #32 ) ;
#302 = VERTEX_POINT ( 'NONE', #28 ) ;
#303 = ORIENTED_EDGE ( 'NONE', *, *, #153, .F. ) ;
#304 = CARTESIAN_POINT ( 'NONE',  ( 52.00000000000000711, 4.999999999999997335, 6.735557395310435121E-16 ) ) ;
#305 = DIRECTION ( 'NONE',  ( 0.0000000000000000000, -1.000000000000000000, 0.0000000000000000000 ) ) ;
#306 = EDGE_CURVE ( 'NONE', #71, #94, #109, .T. ) ;
#307 = LINE ( 'NONE', #64, #85 ) ;
#308 = DIRECTION ( 'NONE',  ( 1.000000000000000000, 1.749495427353364454E-17, -0.0000000000000000000 ) ) ;
#309 = AXIS2_PLACEMENT_3D ( 'NONE', #69, #286, #305 ) ;
#310 = CARTESIAN_POINT ( 'NONE',  ( 67.11324865405190110, 4.999999999999998224, 0.0000000000000000000 ) ) ;
#311 = DIRECTION ( 'NONE',  ( 1.000000000000000000, 1.749495427353378321E-17, -0.0000000000000000000 ) ) ;
#312 = DIRECTION ( 'NONE',  ( 0.0000000000000000000, -1.000000000000000000, 0.0000000000000000000 ) ) ;
#313 = DIRECTION ( 'NONE',  ( 0.0000000000000000000, 1.000000000000000000, 0.0000000000000000000 ) ) ;
#314 = CONICAL_SURFACE ( 'NONE', #25, 5.999999999999991118, 0.7853981633974487231 ) ;
ENDSEC;
END-ISO-10303-21;
