ISO-10303-21;
HEADER;
FILE_DESCRIPTION (( 'STEP AP214' ),
    '1' );
FILE_NAME ('95-1-78761-10.STEP',
    '2021-01-13T13:44:40',
    ( '' ),
    ( '' ),
    'SwSTEP 2.0',
    'SolidWorks 2020',
    '' );
FILE_SCHEMA (( 'AUTOMOTIVE_DESIGN' ));
ENDSEC;

DATA;
#1 = ORIENTED_EDGE ( 'NONE', *, *, #129, .F. ) ;
#2 = DIRECTION ( 'NONE',  ( 1.000000000000000000, 3.498990854706733222E-17, -0.0000000000000000000 ) ) ;
#3 =( GEOMETRIC_REPRESENTATION_CONTEXT ( 3 ) GLOBAL_UNCERTAINTY_ASSIGNED_CONTEXT ( ( #154 ) ) GLOBAL_UNIT_ASSIGNED_CONTEXT ( ( #263, #143, #241 ) ) REPRESENTATION_CONTEXT ( 'NONE', 'WORKASPACE' ) );
#4 = DIRECTION ( 'NONE',  ( 0.0000000000000000000, 1.000000000000000000, 0.0000000000000000000 ) ) ;
#5 = DIRECTION ( 'NONE',  ( 0.0000000000000000000, -1.000000000000000000, 0.0000000000000000000 ) ) ;
#6 = DIRECTION ( 'NONE',  ( 0.0000000000000000000, 1.000000000000000000, 0.0000000000000000000 ) ) ;
#7 = VECTOR ( 'NONE', #60, 1000.000000000000000 ) ;
#8 = CARTESIAN_POINT ( 'NONE',  ( 51.00000000000000000, 1.784485335900433432E-15, 0.0000000000000000000 ) ) ;
#9 = FILL_AREA_STYLE ('',( #205 ) ) ;
#10 = CARTESIAN_POINT ( 'NONE',  ( 52.00000000000000711, 4.999999999999997335, 6.123233995736761352E-16 ) ) ;
#11 = CONICAL_SURFACE ( 'NONE', #16, 4.999999999999995559, 0.7853981633974415066 ) ;
#12 = DIRECTION ( 'NONE',  ( 1.000000000000000000, 3.498990854706733222E-17, -0.0000000000000000000 ) ) ;
#13 = MECHANICAL_DESIGN_GEOMETRIC_PRESENTATION_REPRESENTATION (  '', ( #252 ), #3 ) ;
#14 = DIRECTION ( 'NONE',  ( 1.000000000000000000, 3.498990854706733222E-17, -0.0000000000000000000 ) ) ;
#15 = CARTESIAN_POINT ( 'NONE',  ( 51.00000000000000000, 1.784485335900433432E-15, 0.0000000000000000000 ) ) ;
#16 = AXIS2_PLACEMENT_3D ( 'NONE', #76, #74, #273 ) ;
#17 = DIRECTION ( 'NONE',  ( 1.000000000000000000, 3.498990854706733222E-17, -0.0000000000000000000 ) ) ;
#18 = ORIENTED_EDGE ( 'NONE', *, *, #89, .F. ) ;
#19 = DIRECTION ( 'NONE',  ( 0.0000000000000000000, 1.000000000000000000, 0.0000000000000000000 ) ) ;
#20 = ORIENTED_EDGE ( 'NONE', *, *, #255, .F. ) ;
#21 = CARTESIAN_POINT ( 'NONE',  ( 0.5000000000000279776, 5.999999999999991118, 0.0000000000000000000 ) ) ;
#22 = EDGE_LOOP ( 'NONE', ( #167, #296, #195, #267 ) ) ;
#23 = LINE ( 'NONE', #266, #211 ) ;
#24 = DIRECTION ( 'NONE',  ( 3.614007241618353455E-17, -1.000000000000000000, 0.0000000000000000000 ) ) ;
#25 = CIRCLE ( 'NONE', #203, 5.999999999999989342 ) ;
#26 = DIRECTION ( 'NONE',  ( 3.614007241618353455E-17, -1.000000000000000000, 0.0000000000000000000 ) ) ;
#27 = AXIS2_PLACEMENT_3D ( 'NONE', #184, #283, #227 ) ;
#28 = CARTESIAN_POINT ( 'NONE',  ( 52.00000000000000711, 1.819475244447501349E-15, 0.0000000000000000000 ) ) ;
#29 = EDGE_CURVE ( 'NONE', #46, #224, #250, .T. ) ;
#30 = PRODUCT_CONTEXT ( 'NONE', #197, 'mechanical' ) ;
#31 = VERTEX_POINT ( 'NONE', #153 ) ;
#32 = ADVANCED_FACE ( 'NONE', ( #130 ), #11, .T. ) ;
#33 = DIRECTION ( 'NONE',  ( -3.614007241618353455E-17, 1.000000000000000000, 0.0000000000000000000 ) ) ;
#34 = FACE_OUTER_BOUND ( 'NONE', #295, .T. ) ;
#35 = DIRECTION ( 'NONE',  ( 0.0000000000000000000, -1.000000000000000000, 0.0000000000000000000 ) ) ;
#36 = LINE ( 'NONE', #10, #161 ) ;
#37 = CARTESIAN_POINT ( 'NONE',  ( 70.00000000000000000, 2.449293598294713218E-15, 0.0000000000000000000 ) ) ;
#38 = EDGE_CURVE ( 'NONE', #118, #31, #181, .T. ) ;
#39 = CARTESIAN_POINT ( 'NONE',  ( 1.049697256412018919E-16, 3.672881100396402721E-33, 0.0000000000000000000 ) ) ;
#40 = VECTOR ( 'NONE', #73, 1000.000000000000000 ) ;
#41 = FILL_AREA_STYLE ('',( #286 ) ) ;
#42 = ORIENTED_EDGE ( 'NONE', *, *, #53, .T. ) ;
#43 = ORIENTED_EDGE ( 'NONE', *, *, #176, .F. ) ;
#44 =( NAMED_UNIT ( * ) SI_UNIT ( $, .STERADIAN. ) SOLID_ANGLE_UNIT ( ) );
#45 = CIRCLE ( 'NONE', #144, 4.999999999999995559 ) ;
#46 = VERTEX_POINT ( 'NONE', #251 ) ;
#47 = EDGE_LOOP ( 'NONE', ( #141, #221, #150 ) ) ;
#48 = EDGE_CURVE ( 'NONE', #199, #118, #100, .T. ) ;
#49 = CYLINDRICAL_SURFACE ( 'NONE', #253, 5.999999999999991118 ) ;
#50 = ORIENTED_EDGE ( 'NONE', *, *, #146, .T. ) ;
#51 = CYLINDRICAL_SURFACE ( 'NONE', #52, 4.999999999999994671 ) ;
#52 = AXIS2_PLACEMENT_3D ( 'NONE', #302, #298, #4 ) ;
#53 = EDGE_CURVE ( 'NONE', #224, #314, #177, .T. ) ;
#54 = VERTEX_POINT ( 'NONE', #247 ) ;
#55 = FACE_OUTER_BOUND ( 'NONE', #244, .T. ) ;
#56 = DIRECTION ( 'NONE',  ( 1.000000000000000000, 3.498990854706733222E-17, -0.0000000000000000000 ) ) ;
#57 = ADVANCED_FACE ( 'NONE', ( #34 ), #51, .T. ) ;
#58 = DIRECTION ( 'NONE',  ( 1.000000000000000000, 3.498990854706733222E-17, -0.0000000000000000000 ) ) ;
#59 =( GEOMETRIC_REPRESENTATION_CONTEXT ( 3 ) GLOBAL_UNCERTAINTY_ASSIGNED_CONTEXT ( ( #116 ) ) GLOBAL_UNIT_ASSIGNED_CONTEXT ( ( #232, #110, #137 ) ) REPRESENTATION_CONTEXT ( 'NONE', 'WORKASPACE' ) );
#60 = DIRECTION ( 'NONE',  ( 1.000000000000000000, 3.498990854706733222E-17, -0.0000000000000000000 ) ) ;
#61 = ORIENTED_EDGE ( 'NONE', *, *, #176, .T. ) ;
#62 = CLOSED_SHELL ( 'NONE', ( #288, #229, #72, #239, #107, #156, #309, #32, #57, #95, #67 ) ) ;
#63 = ORIENTED_EDGE ( 'NONE', *, *, #261, .T. ) ;
#64 = PRODUCT_DEFINITION_FORMATION_WITH_SPECIFIED_SOURCE ( 'ANY', '', #225, .NOT_KNOWN. ) ;
#65 = COLOUR_RGB ( '',0.7921568627450980005, 0.8196078431372548767, 0.9333333333333333481 ) ;
#66 = LINE ( 'NONE', #21, #291 ) ;
#67 = ADVANCED_FACE ( 'NONE', ( #223 ), #80, .T. ) ;
#68 = VERTEX_POINT ( 'NONE', #179 ) ;
#69 = DIRECTION ( 'NONE',  ( 1.000000000000000000, 0.0000000000000000000, 0.0000000000000000000 ) ) ;
#70 = ORIENTED_EDGE ( 'NONE', *, *, #313, .F. ) ;
#71 = VERTEX_POINT ( 'NONE', #152 ) ;
#72 = ADVANCED_FACE ( 'NONE', ( #303 ), #105, .T. ) ;
#73 = DIRECTION ( 'NONE',  ( -0.7071067811865523467, -0.7071067811865426878, 0.0000000000000000000 ) ) ;
#74 = DIRECTION ( 'NONE',  ( -1.000000000000000000, -3.498990854706733222E-17, 0.0000000000000000000 ) ) ;
#75 = MECHANICAL_DESIGN_GEOMETRIC_PRESENTATION_REPRESENTATION (  '', ( #240 ), #59 ) ;
#76 = CARTESIAN_POINT ( 'NONE',  ( 52.00000000000000711, 1.819475244447501349E-15, 0.0000000000000000000 ) ) ;
#77 = PRESENTATION_LAYER_ASSIGNMENT (  '', '', ( #252 ) ) ;
#78 = CARTESIAN_POINT ( 'NONE',  ( 0.5000000000000281997, 1.749495427353456898E-17, 0.0000000000000000000 ) ) ;
#79 = EDGE_CURVE ( 'NONE', #46, #54, #198, .T. ) ;
#80 = CONICAL_SURFACE ( 'NONE', #190, 5.999999999999991118, 0.7853981633974421728 ) ;
#81 = CARTESIAN_POINT ( 'NONE',  ( -929.9999999999998863, -3.254061494877261836E-14, 0.0000000000000000000 ) ) ;
#82 = CARTESIAN_POINT ( 'NONE',  ( 65.00000000000001421, 2.274344055559376785E-15, 0.0000000000000000000 ) ) ;
#83 = CONICAL_SURFACE ( 'NONE', #27, 1000.000000000000455, 0.7853981633974485010 ) ;
#84 = VECTOR ( 'NONE', #196, 1000.000000000000114 ) ;
#85 = UNCERTAINTY_MEASURE_WITH_UNIT (LENGTH_MEASURE( 1.000000000000000082E-05 ), #171, 'distance_accuracy_value', 'NONE');
#86 = SURFACE_STYLE_USAGE ( .BOTH. , #305 ) ;
#87 = CIRCLE ( 'NONE', #104, 5.999999999999989342 ) ;
#88 = DIRECTION ( 'NONE',  ( -1.000000000000000000, -3.498990854706733222E-17, 0.0000000000000000000 ) ) ;
#89 = EDGE_CURVE ( 'NONE', #54, #71, #25, .T. ) ;
#90 = DIRECTION ( 'NONE',  ( 0.0000000000000000000, 1.000000000000000000, 0.0000000000000000000 ) ) ;
#91 = DIRECTION ( 'NONE',  ( 1.000000000000000000, 3.498990854706733222E-17, -0.0000000000000000000 ) ) ;
#92 = CONICAL_SURFACE ( 'NONE', #213, 4.999999999999995559, 0.7853981633974415066 ) ;
#93 = AXIS2_PLACEMENT_3D ( 'NONE', #39, #208, #233 ) ;
#94 = SURFACE_SIDE_STYLE ('',( #234 ) ) ;
#95 = ADVANCED_FACE ( 'NONE', ( #175 ), #162, .T. ) ;
#96 = ORIENTED_EDGE ( 'NONE', *, *, #192, .F. ) ;
#97 = ORIENTED_EDGE ( 'NONE', *, *, #163, .F. ) ;
#98 = EDGE_LOOP ( 'NONE', ( #166, #61, #97, #237 ) ) ;
#99 = DIRECTION ( 'NONE',  ( 1.000000000000000000, 3.498990854706716582E-17, -0.0000000000000000000 ) ) ;
#100 = LINE ( 'NONE', #124, #84 ) ;
#101 = ORIENTED_EDGE ( 'NONE', *, *, #276, .F. ) ;
#102 = CIRCLE ( 'NONE', #282, 5.499999999999968914 ) ;
#103 = DIRECTION ( 'NONE',  ( 1.000000000000000000, 3.498990854706716582E-17, -0.0000000000000000000 ) ) ;
#104 = AXIS2_PLACEMENT_3D ( 'NONE', #15, #14, #112 ) ;
#105 = CYLINDRICAL_SURFACE ( 'NONE', #136, 4.999999999999994671 ) ;
#106 = LINE ( 'NONE', #228, #206 ) ;
#107 = ADVANCED_FACE ( 'NONE', ( #180 ), #49, .T. ) ;
#108 = DIRECTION ( 'NONE',  ( -0.7071067811865523467, 0.7071067811865426878, 8.659560562354873694E-17 ) ) ;
#109 = AXIS2_PLACEMENT_3D ( 'NONE', #28, #201, #6 ) ;
#110 =( NAMED_UNIT ( * ) PLANE_ANGLE_UNIT ( ) SI_UNIT ( $, .RADIAN. ) );
#111 = PRESENTATION_STYLE_ASSIGNMENT (( #86 ) ) ;
#112 = DIRECTION ( 'NONE',  ( 0.0000000000000000000, 1.000000000000000000, 0.0000000000000000000 ) ) ;
#113 = FACE_OUTER_BOUND ( 'NONE', #212, .T. ) ;
#114 = AXIS2_PLACEMENT_3D ( 'NONE', #132, #12, #90 ) ;
#115 = EDGE_LOOP ( 'NONE', ( #172, #1, #226, #299 ) ) ;
#116 = UNCERTAINTY_MEASURE_WITH_UNIT (LENGTH_MEASURE( 1.000000000000000082E-05 ), #232, 'distance_accuracy_value', 'NONE');
#117 = CARTESIAN_POINT ( 'NONE',  ( 70.00000000000000000, 2.449293598294713218E-15, 0.0000000000000000000 ) ) ;
#118 = VERTEX_POINT ( 'NONE', #182 ) ;
#119 = DIRECTION ( 'NONE',  ( -0.7071067811865473507, -0.7071067811865477948, 0.0000000000000000000 ) ) ;
#120 = ORIENTED_EDGE ( 'NONE', *, *, #192, .T. ) ;
#121 = VECTOR ( 'NONE', #119, 999.9999999999998863 ) ;
#122 = DIRECTION ( 'NONE',  ( 1.000000000000000000, 3.498990854706716582E-17, -0.0000000000000000000 ) ) ;
#123 = ORIENTED_EDGE ( 'NONE', *, *, #163, .T. ) ;
#124 = CARTESIAN_POINT ( 'NONE',  ( 0.5000000000000284217, -5.999999999999991118, 7.347880794884108889E-16 ) ) ;
#125 = MANIFOLD_SOLID_BREP ( 'Fase1', #62 ) ;
#126 = DIRECTION ( 'NONE',  ( 0.0000000000000000000, 1.000000000000000000, 0.0000000000000000000 ) ) ;
#127 = CONICAL_SURFACE ( 'NONE', #135, 5.999999999999991118, 0.7853981633974421728 ) ;
#128 = CARTESIAN_POINT ( 'NONE',  ( 70.00000000000000000, 4.999999999999997335, 0.0000000000000000000 ) ) ;
#129 = EDGE_CURVE ( 'NONE', #270, #199, #102, .T. ) ;
#130 = FACE_OUTER_BOUND ( 'NONE', #22, .T. ) ;
#131 = ORIENTED_EDGE ( 'NONE', *, *, #79, .F. ) ;
#132 = CARTESIAN_POINT ( 'NONE',  ( 65.00000000000001421, 2.274344055559376785E-15, 0.0000000000000000000 ) ) ;
#133 = DIRECTION ( 'NONE',  ( -0.7071067811865473507, 0.7071067811865477948, 8.659560562354936556E-17 ) ) ;
#134 = DIRECTION ( 'NONE',  ( -1.000000000000000000, -3.498990854706733222E-17, 0.0000000000000000000 ) ) ;
#135 = AXIS2_PLACEMENT_3D ( 'NONE', #290, #122, #188 ) ;
#136 = AXIS2_PLACEMENT_3D ( 'NONE', #277, #219, #178 ) ;
#137 =( NAMED_UNIT ( * ) SI_UNIT ( $, .STERADIAN. ) SOLID_ANGLE_UNIT ( ) );
#138 = PRODUCT_DEFINITION_CONTEXT ( 'detailed design', #274, 'design' ) ;
#139 = CARTESIAN_POINT ( 'NONE',  ( 70.00000000000000000, 2.449293598294713218E-15, 0.0000000000000000000 ) ) ;
#140 = FACE_OUTER_BOUND ( 'NONE', #262, .T. ) ;
#141 = ORIENTED_EDGE ( 'NONE', *, *, #186, .F. ) ;
#142 =( GEOMETRIC_REPRESENTATION_CONTEXT ( 3 ) GLOBAL_UNCERTAINTY_ASSIGNED_CONTEXT ( ( #85 ) ) GLOBAL_UNIT_ASSIGNED_CONTEXT ( ( #171, #214, #44 ) ) REPRESENTATION_CONTEXT ( 'NONE', 'WORKASPACE' ) );
#143 =( NAMED_UNIT ( * ) PLANE_ANGLE_UNIT ( ) SI_UNIT ( $, .RADIAN. ) );
#144 = AXIS2_PLACEMENT_3D ( 'NONE', #281, #58, #158 ) ;
#145 = PRESENTATION_STYLE_ASSIGNMENT (( #312 ) ) ;
#146 = EDGE_CURVE ( 'NONE', #224, #46, #45, .T. ) ;
#147 = APPLICATION_PROTOCOL_DEFINITION ( 'draft international standard', 'automotive_design', 1998, #274 ) ;
#148 = DIRECTION ( 'NONE',  ( 1.000000000000000000, 3.498990854706733222E-17, -0.0000000000000000000 ) ) ;
#149 = CARTESIAN_POINT ( 'NONE',  ( 70.00000000000000000, 2.449293598294713218E-15, 0.0000000000000000000 ) ) ;
#150 = ORIENTED_EDGE ( 'NONE', *, *, #255, .T. ) ;
#151 = AXIS2_PLACEMENT_3D ( 'NONE', #268, #91, #19 ) ;
#152 = CARTESIAN_POINT ( 'NONE',  ( 51.00000000000000000, 5.999999999999991118, 0.0000000000000000000 ) ) ;
#153 = CARTESIAN_POINT ( 'NONE',  ( 0.5000000000000279776, 5.999999999999991118, 0.0000000000000000000 ) ) ;
#154 = UNCERTAINTY_MEASURE_WITH_UNIT (LENGTH_MEASURE( 1.000000000000000082E-05 ), #263, 'distance_accuracy_value', 'NONE');
#155 = FACE_OUTER_BOUND ( 'NONE', #275, .T. ) ;
#156 = ADVANCED_FACE ( 'NONE', ( #159 ), #160, .T. ) ;
#157 = DIRECTION ( 'NONE',  ( 0.0000000000000000000, 1.000000000000000000, 0.0000000000000000000 ) ) ;
#158 = DIRECTION ( 'NONE',  ( 0.0000000000000000000, 1.000000000000000000, 0.0000000000000000000 ) ) ;
#159 = FACE_OUTER_BOUND ( 'NONE', #265, .T. ) ;
#160 = PLANE ( 'NONE',  #93 ) ;
#161 = VECTOR ( 'NONE', #108, 1000.000000000000000 ) ;
#162 = CONICAL_SURFACE ( 'NONE', #246, 1000.000000000000455, 0.7853981633974485010 ) ;
#163 = EDGE_CURVE ( 'NONE', #71, #54, #87, .T. ) ;
#164 = ADVANCED_BREP_SHAPE_REPRESENTATION ( '95-1-78761-10', ( #125, #245 ), #142 ) ;
#165 = DIRECTION ( 'NONE',  ( 1.000000000000000000, 3.498990854706716582E-17, -0.0000000000000000000 ) ) ;
#166 = ORIENTED_EDGE ( 'NONE', *, *, #276, .T. ) ;
#167 = ORIENTED_EDGE ( 'NONE', *, *, #261, .F. ) ;
#168 = COLOUR_RGB ( '',0.7921568627450980005, 0.8196078431372548767, 0.9333333333333333481 ) ;
#169 = CYLINDRICAL_SURFACE ( 'NONE', #151, 5.999999999999991118 ) ;
#170 = ORIENTED_EDGE ( 'NONE', *, *, #129, .T. ) ;
#171 =( LENGTH_UNIT ( ) NAMED_UNIT ( * ) SI_UNIT ( .MILLI., .METRE. ) );
#172 = ORIENTED_EDGE ( 'NONE', *, *, #48, .F. ) ;
#173 = EDGE_LOOP ( 'NONE', ( #50, #287, #293, #235 ) ) ;
#174 = AXIS2_PLACEMENT_3D ( 'NONE', #230, #88, #306 ) ;
#175 = FACE_OUTER_BOUND ( 'NONE', #47, .T. ) ;
#176 = EDGE_CURVE ( 'NONE', #118, #54, #209, .T. ) ;
#177 = LINE ( 'NONE', #128, #292 ) ;
#178 = DIRECTION ( 'NONE',  ( 0.0000000000000000000, 1.000000000000000000, 0.0000000000000000000 ) ) ;
#179 = CARTESIAN_POINT ( 'NONE',  ( 65.00000000000001421, -4.999999999999991118, 6.123233995736759380E-16 ) ) ;
#180 = FACE_OUTER_BOUND ( 'NONE', #98, .T. ) ;
#181 = CIRCLE ( 'NONE', #220, 5.999999999999991118 ) ;
#182 = CARTESIAN_POINT ( 'NONE',  ( 0.5000000000000284217, -5.999999999999992006, 7.347880794884110861E-16 ) ) ;
#183 = CARTESIAN_POINT ( 'NONE',  ( 1.049697256412018919E-16, 3.672881100396385615E-33, 0.0000000000000000000 ) ) ;
#184 = CARTESIAN_POINT ( 'NONE',  ( -929.9999999999998863, -3.254061494877261836E-14, 0.0000000000000000000 ) ) ;
#185 = DIRECTION ( 'NONE',  ( 1.000000000000000000, 3.498990854706733222E-17, -0.0000000000000000000 ) ) ;
#186 = EDGE_CURVE ( 'NONE', #310, #314, #284, .T. ) ;
#187 = ORIENTED_EDGE ( 'NONE', *, *, #29, .T. ) ;
#188 = DIRECTION ( 'NONE',  ( -3.614007241618353455E-17, 1.000000000000000000, 0.0000000000000000000 ) ) ;
#189 = CARTESIAN_POINT ( 'NONE',  ( -8.747477136766739069E-17, 5.499999999999968914, 0.0000000000000000000 ) ) ;
#190 = AXIS2_PLACEMENT_3D ( 'NONE', #78, #99, #33 ) ;
#191 = CARTESIAN_POINT ( 'NONE',  ( 0.0000000000000000000, 0.0000000000000000000, 0.0000000000000000000 ) ) ;
#192 = EDGE_CURVE ( 'NONE', #199, #270, #285, .T. ) ;
#193 = ORIENTED_EDGE ( 'NONE', *, *, #307, .F. ) ;
#194 = PRODUCT_RELATED_PRODUCT_CATEGORY ( 'part', '', ( #225 ) ) ;
#195 = ORIENTED_EDGE ( 'NONE', *, *, #79, .T. ) ;
#196 = DIRECTION ( 'NONE',  ( 0.7071067811865517916, -0.7071067811865431318, 8.659560562354879857E-17 ) ) ;
#197 = APPLICATION_CONTEXT ( 'automotive_design' ) ;
#198 = LINE ( 'NONE', #256, #40 ) ;
#199 = VERTEX_POINT ( 'NONE', #308 ) ;
#200 = EDGE_CURVE ( 'NONE', #314, #68, #210, .T. ) ;
#201 = DIRECTION ( 'NONE',  ( 1.000000000000000000, 3.498990854706733222E-17, -0.0000000000000000000 ) ) ;
#202 = AXIS2_PLACEMENT_3D ( 'NONE', #236, #165, #24 ) ;
#203 = AXIS2_PLACEMENT_3D ( 'NONE', #8, #2, #204 ) ;
#204 = DIRECTION ( 'NONE',  ( 0.0000000000000000000, 1.000000000000000000, 0.0000000000000000000 ) ) ;
#205 = FILL_AREA_STYLE_COLOUR ( '', #65 ) ;
#206 = VECTOR ( 'NONE', #185, 1000.000000000000000 ) ;
#207 = SURFACE_STYLE_FILL_AREA ( #9 ) ;
#208 = DIRECTION ( 'NONE',  ( -1.000000000000000000, -3.498990854706733222E-17, 0.0000000000000000000 ) ) ;
#209 = LINE ( 'NONE', #260, #7 ) ;
#210 = CIRCLE ( 'NONE', #114, 4.999999999999993783 ) ;
#211 = VECTOR ( 'NONE', #17, 1000.000000000000000 ) ;
#212 = EDGE_LOOP ( 'NONE', ( #43, #215, #269, #18 ) ) ;
#213 = AXIS2_PLACEMENT_3D ( 'NONE', #304, #257, #35 ) ;
#214 =( NAMED_UNIT ( * ) PLANE_ANGLE_UNIT ( ) SI_UNIT ( $, .RADIAN. ) );
#215 = ORIENTED_EDGE ( 'NONE', *, *, #38, .T. ) ;
#216 = PRESENTATION_LAYER_ASSIGNMENT (  '', '', ( #240 ) ) ;
#217 = ORIENTED_EDGE ( 'NONE', *, *, #300, .F. ) ;
#218 = ORIENTED_EDGE ( 'NONE', *, *, #186, .T. ) ;
#219 = DIRECTION ( 'NONE',  ( 1.000000000000000000, 3.498990854706733222E-17, -0.0000000000000000000 ) ) ;
#220 = AXIS2_PLACEMENT_3D ( 'NONE', #254, #103, #26 ) ;
#221 = ORIENTED_EDGE ( 'NONE', *, *, #313, .T. ) ;
#222 = EDGE_CURVE ( 'NONE', #31, #71, #106, .T. ) ;
#223 = FACE_OUTER_BOUND ( 'NONE', #115, .T. ) ;
#224 = VERTEX_POINT ( 'NONE', #258 ) ;
#225 = PRODUCT ( '95-1-78761-10', '95-1-78761-10', '', ( #30 ) ) ;
#226 = ORIENTED_EDGE ( 'NONE', *, *, #307, .T. ) ;
#227 = DIRECTION ( 'NONE',  ( 0.0000000000000000000, -1.000000000000000000, 0.0000000000000000000 ) ) ;
#228 = CARTESIAN_POINT ( 'NONE',  ( 70.00000000000000000, 5.999999999999993783, 0.0000000000000000000 ) ) ;
#229 = ADVANCED_FACE ( 'NONE', ( #55 ), #83, .T. ) ;
#230 = CARTESIAN_POINT ( 'NONE',  ( 1.049697256412018919E-16, 3.672881100396385615E-33, 0.0000000000000000000 ) ) ;
#231 = AXIS2_PLACEMENT_3D ( 'NONE', #82, #56, #157 ) ;
#232 =( LENGTH_UNIT ( ) NAMED_UNIT ( * ) SI_UNIT ( .MILLI., .METRE. ) );
#233 = DIRECTION ( 'NONE',  ( 3.498990854706733222E-17, -1.000000000000000000, 0.0000000000000000000 ) ) ;
#234 = SURFACE_STYLE_FILL_AREA ( #41 ) ;
#235 = ORIENTED_EDGE ( 'NONE', *, *, #53, .F. ) ;
#236 = CARTESIAN_POINT ( 'NONE',  ( 0.5000000000000281997, 1.749495427353456898E-17, 0.0000000000000000000 ) ) ;
#237 = ORIENTED_EDGE ( 'NONE', *, *, #222, .F. ) ;
#238 = CARTESIAN_POINT ( 'NONE',  ( 65.00000000000001421, 4.999999999999996447, 0.0000000000000000000 ) ) ;
#239 = ADVANCED_FACE ( 'NONE', ( #155 ), #92, .T. ) ;
#240 = STYLED_ITEM ( 'NONE', ( #111 ), #125 ) ;
#241 =( NAMED_UNIT ( * ) SI_UNIT ( $, .STERADIAN. ) SOLID_ANGLE_UNIT ( ) );
#242 = ORIENTED_EDGE ( 'NONE', *, *, #146, .F. ) ;
#243 = LINE ( 'NONE', #139, #121 ) ;
#244 = EDGE_LOOP ( 'NONE', ( #70, #218, #278 ) ) ;
#245 = AXIS2_PLACEMENT_3D ( 'NONE', #191, #294, #69 ) ;
#246 = AXIS2_PLACEMENT_3D ( 'NONE', #81, #271, #5 ) ;
#247 = CARTESIAN_POINT ( 'NONE',  ( 51.00000000000000000, -5.999999999999987566, 7.347880794884107903E-16 ) ) ;
#248 = DIRECTION ( 'NONE',  ( 1.000000000000000000, 3.498990854706733222E-17, -0.0000000000000000000 ) ) ;
#249 = CIRCLE ( 'NONE', #231, 4.999999999999993783 ) ;
#250 = CIRCLE ( 'NONE', #109, 4.999999999999995559 ) ;
#251 = CARTESIAN_POINT ( 'NONE',  ( 52.00000000000000711, -4.999999999999993783, 0.0000000000000000000 ) ) ;
#252 = STYLED_ITEM ( 'NONE', ( #145 ), #164 ) ;
#253 = AXIS2_PLACEMENT_3D ( 'NONE', #149, #248, #126 ) ;
#254 = CARTESIAN_POINT ( 'NONE',  ( 0.5000000000000281997, 1.749495427353456898E-17, 0.0000000000000000000 ) ) ;
#255 = EDGE_CURVE ( 'NONE', #68, #314, #249, .T. ) ;
#256 = CARTESIAN_POINT ( 'NONE',  ( 52.00000000000000711, -4.999999999999993783, 0.0000000000000000000 ) ) ;
#257 = DIRECTION ( 'NONE',  ( -1.000000000000000000, -3.498990854706733222E-17, 0.0000000000000000000 ) ) ;
#258 = CARTESIAN_POINT ( 'NONE',  ( 52.00000000000000711, 4.999999999999997335, 6.735557395310433148E-16 ) ) ;
#259 = DIRECTION ( 'NONE',  ( 3.498990854706733838E-17, -1.000000000000000000, 0.0000000000000000000 ) ) ;
#260 = CARTESIAN_POINT ( 'NONE',  ( 70.00000000000000000, -5.999999999999988454, 7.347880794884108889E-16 ) ) ;
#261 = EDGE_CURVE ( 'NONE', #224, #71, #36, .T. ) ;
#262 = EDGE_LOOP ( 'NONE', ( #96, #301, #101, #193 ) ) ;
#263 =( LENGTH_UNIT ( ) NAMED_UNIT ( * ) SI_UNIT ( .MILLI., .METRE. ) );
#264 = CIRCLE ( 'NONE', #202, 5.999999999999991118 ) ;
#265 = EDGE_LOOP ( 'NONE', ( #170, #120 ) ) ;
#266 = CARTESIAN_POINT ( 'NONE',  ( 70.00000000000000000, -4.999999999999992006, 6.123233995736760366E-16 ) ) ;
#267 = ORIENTED_EDGE ( 'NONE', *, *, #89, .T. ) ;
#268 = CARTESIAN_POINT ( 'NONE',  ( 70.00000000000000000, 2.449293598294713218E-15, 0.0000000000000000000 ) ) ;
#269 = ORIENTED_EDGE ( 'NONE', *, *, #222, .T. ) ;
#270 = VERTEX_POINT ( 'NONE', #189 ) ;
#271 = DIRECTION ( 'NONE',  ( -1.000000000000000000, -3.498990854706733222E-17, 0.0000000000000000000 ) ) ;
#272 = SHAPE_DEFINITION_REPRESENTATION ( #279, #164 ) ;
#273 = DIRECTION ( 'NONE',  ( 0.0000000000000000000, -1.000000000000000000, 0.0000000000000000000 ) ) ;
#274 = APPLICATION_CONTEXT ( 'automotive_design' ) ;
#275 = EDGE_LOOP ( 'NONE', ( #242, #63, #123, #131 ) ) ;
#276 = EDGE_CURVE ( 'NONE', #31, #118, #264, .T. ) ;
#277 = CARTESIAN_POINT ( 'NONE',  ( 70.00000000000000000, 2.449293598294713218E-15, 0.0000000000000000000 ) ) ;
#278 = ORIENTED_EDGE ( 'NONE', *, *, #200, .T. ) ;
#279 = PRODUCT_DEFINITION_SHAPE ( 'NONE', 'NONE',  #280 ) ;
#280 = PRODUCT_DEFINITION ( 'UNKNOWN', '', #64, #138 ) ;
#281 = CARTESIAN_POINT ( 'NONE',  ( 52.00000000000000711, 1.819475244447501349E-15, 0.0000000000000000000 ) ) ;
#282 = AXIS2_PLACEMENT_3D ( 'NONE', #183, #134, #259 ) ;
#283 = DIRECTION ( 'NONE',  ( -1.000000000000000000, -3.498990854706733222E-17, 0.0000000000000000000 ) ) ;
#284 = LINE ( 'NONE', #37, #297 ) ;
#285 = CIRCLE ( 'NONE', #174, 5.499999999999968914 ) ;
#286 = FILL_AREA_STYLE_COLOUR ( '', #168 ) ;
#287 = ORIENTED_EDGE ( 'NONE', *, *, #300, .T. ) ;
#288 = ADVANCED_FACE ( 'NONE', ( #140 ), #127, .T. ) ;
#289 = DIRECTION ( 'NONE',  ( 0.7071067811865517916, 0.7071067811865431318, 0.0000000000000000000 ) ) ;
#290 = CARTESIAN_POINT ( 'NONE',  ( 0.5000000000000281997, 1.749495427353456898E-17, 0.0000000000000000000 ) ) ;
#291 = VECTOR ( 'NONE', #289, 1000.000000000000114 ) ;
#292 = VECTOR ( 'NONE', #148, 1000.000000000000000 ) ;
#293 = ORIENTED_EDGE ( 'NONE', *, *, #200, .F. ) ;
#294 = DIRECTION ( 'NONE',  ( 0.0000000000000000000, 0.0000000000000000000, 1.000000000000000000 ) ) ;
#295 = EDGE_LOOP ( 'NONE', ( #217, #187, #42, #20 ) ) ;
#296 = ORIENTED_EDGE ( 'NONE', *, *, #29, .F. ) ;
#297 = VECTOR ( 'NONE', #133, 999.9999999999998863 ) ;
#298 = DIRECTION ( 'NONE',  ( 1.000000000000000000, 3.498990854706733222E-17, -0.0000000000000000000 ) ) ;
#299 = ORIENTED_EDGE ( 'NONE', *, *, #38, .F. ) ;
#300 = EDGE_CURVE ( 'NONE', #46, #68, #23, .T. ) ;
#301 = ORIENTED_EDGE ( 'NONE', *, *, #48, .T. ) ;
#302 = CARTESIAN_POINT ( 'NONE',  ( 70.00000000000000000, 2.449293598294713218E-15, 0.0000000000000000000 ) ) ;
#303 = FACE_OUTER_BOUND ( 'NONE', #173, .T. ) ;
#304 = CARTESIAN_POINT ( 'NONE',  ( 52.00000000000000711, 1.819475244447501349E-15, 0.0000000000000000000 ) ) ;
#305 = SURFACE_SIDE_STYLE ('',( #207 ) ) ;
#306 = DIRECTION ( 'NONE',  ( 3.498990854706733838E-17, -1.000000000000000000, 0.0000000000000000000 ) ) ;
#307 = EDGE_CURVE ( 'NONE', #270, #31, #66, .T. ) ;
#308 = CARTESIAN_POINT ( 'NONE',  ( 2.974142226500710882E-16, -5.499999999999968914, 7.041719095097256228E-16 ) ) ;
#309 = ADVANCED_FACE ( 'NONE', ( #113 ), #169, .T. ) ;
#310 = VERTEX_POINT ( 'NONE', #117 ) ;
#311 = APPLICATION_PROTOCOL_DEFINITION ( 'draft international standard', 'automotive_design', 1998, #197 ) ;
#312 = SURFACE_STYLE_USAGE ( .BOTH. , #94 ) ;
#313 = EDGE_CURVE ( 'NONE', #310, #68, #243, .T. ) ;
#314 = VERTEX_POINT ( 'NONE', #238 ) ;
ENDSEC;
END-ISO-10303-21;
