ISO-10303-21;
HEADER;
FILE_DESCRIPTION (( 'STEP AP214' ),
    '1' );
FILE_NAME ('95-1-78760-10.STEP',
    '2021-01-13T13:25:12',
    ( '' ),
    ( '' ),
    'SwSTEP 2.0',
    'SolidWorks 2020',
    '' );
FILE_SCHEMA (( 'AUTOMOTIVE_DESIGN' ));
ENDSEC;

DATA;
#1 = PRODUCT_DEFINITION_CONTEXT ( 'detailed design', #70, 'design' ) ;
#2 = CARTESIAN_POINT ( 'NONE',  ( 70.00000000000000000, 5.185029595542927048E-15, 0.0000000000000000000 ) ) ;
#3 = EDGE_LOOP ( 'NONE', ( #146, #76 ) ) ;
#4 = CYLINDRICAL_SURFACE ( 'NONE', #180, 4.999999999999993783 ) ;
#5 = CIRCLE ( 'NONE', #192, 4.999999999999993783 ) ;
#6 = ORIENTED_EDGE ( 'NONE', *, *, #190, .F. ) ;
#7 = EDGE_LOOP ( 'NONE', ( #114, #144, #204, #96 ) ) ;
#8 = DIRECTION ( 'NONE',  ( 1.000000000000000000, 7.407185136489894727E-17, -0.0000000000000000000 ) ) ;
#9 = DIRECTION ( 'NONE',  ( -1.000000000000000000, -7.407185136489894727E-17, 0.0000000000000000000 ) ) ;
#10 = LINE ( 'NONE', #98, #74 ) ;
#11 = DIRECTION ( 'NONE',  ( -0.8660254037844381525, 0.5000000000000007772, 6.123233995736777129E-17 ) ) ;
#12 = LINE ( 'NONE', #72, #200 ) ;
#13 = PRODUCT_DEFINITION ( 'UNKNOWN', '', #54, #1 ) ;
#14 = APPLICATION_PROTOCOL_DEFINITION ( 'draft international standard', 'automotive_design', 1998, #61 ) ;
#15 =( NAMED_UNIT ( * ) SI_UNIT ( $, .STERADIAN. ) SOLID_ANGLE_UNIT ( ) );
#16 = EDGE_LOOP ( 'NONE', ( #36, #143, #126, #21 ) ) ;
#17 = VERTEX_POINT ( 'NONE', #160 ) ;
#18 = SURFACE_SIDE_STYLE ('',( #93 ) ) ;
#19 = ADVANCED_FACE ( 'NONE', ( #176 ), #4, .T. ) ;
#20 = AXIS2_PLACEMENT_3D ( 'NONE', #168, #38, #82 ) ;
#21 = ORIENTED_EDGE ( 'NONE', *, *, #211, .F. ) ;
#22 = CARTESIAN_POINT ( 'NONE',  ( 61.33974596215566066, 4.543548545669454686E-15, 0.0000000000000000000 ) ) ;
#23 =( NAMED_UNIT ( * ) SI_UNIT ( $, .STERADIAN. ) SOLID_ANGLE_UNIT ( ) );
#24 = EDGE_CURVE ( 'NONE', #37, #197, #142, .T. ) ;
#25 = FACE_OUTER_BOUND ( 'NONE', #131, .T. ) ;
#26 =( GEOMETRIC_REPRESENTATION_CONTEXT ( 3 ) GLOBAL_UNCERTAINTY_ASSIGNED_CONTEXT ( ( #164 ) ) GLOBAL_UNIT_ASSIGNED_CONTEXT ( ( #158, #141, #15 ) ) REPRESENTATION_CONTEXT ( 'NONE', 'WORKASPACE' ) );
#27 = CARTESIAN_POINT ( 'NONE',  ( 1.851796284122473805E-16, 2.575366006397948546E-32, 0.0000000000000000000 ) ) ;
#28 = SURFACE_SIDE_STYLE ('',( #30 ) ) ;
#29 = SURFACE_STYLE_USAGE ( .BOTH. , #28 ) ;
#30 = SURFACE_STYLE_FILL_AREA ( #174 ) ;
#31 = CARTESIAN_POINT ( 'NONE',  ( 0.0000000000000000000, 0.0000000000000000000, 0.0000000000000000000 ) ) ;
#32 = DIRECTION ( 'NONE',  ( 0.0000000000000000000, 0.0000000000000000000, 1.000000000000000000 ) ) ;
#33 = DIRECTION ( 'NONE',  ( 0.0000000000000000000, 1.000000000000000000, 0.0000000000000000000 ) ) ;
#34 = FILL_AREA_STYLE ('',( #110 ) ) ;
#35 = PRODUCT_RELATED_PRODUCT_CATEGORY ( 'part', '', ( #66 ) ) ;
#36 = ORIENTED_EDGE ( 'NONE', *, *, #119, .T. ) ;
#37 = VERTEX_POINT ( 'NONE', #81 ) ;
#38 = DIRECTION ( 'NONE',  ( 1.000000000000000000, 7.407185136489923077E-17, -0.0000000000000000000 ) ) ;
#39 = DIRECTION ( 'NONE',  ( 7.407185136489894727E-17, -1.000000000000000000, 0.0000000000000000000 ) ) ;
#40 = LINE ( 'NONE', #101, #206 ) ;
#41 =( GEOMETRIC_REPRESENTATION_CONTEXT ( 3 ) GLOBAL_UNCERTAINTY_ASSIGNED_CONTEXT ( ( #140 ) ) GLOBAL_UNIT_ASSIGNED_CONTEXT ( ( #89, #62, #106 ) ) REPRESENTATION_CONTEXT ( 'NONE', 'WORKASPACE' ) );
#42 = DIRECTION ( 'NONE',  ( 7.407185136489894727E-17, -1.000000000000000000, 0.0000000000000000000 ) ) ;
#43 =( GEOMETRIC_REPRESENTATION_CONTEXT ( 3 ) GLOBAL_UNCERTAINTY_ASSIGNED_CONTEXT ( ( #184 ) ) GLOBAL_UNIT_ASSIGNED_CONTEXT ( ( #67, #87, #23 ) ) REPRESENTATION_CONTEXT ( 'NONE', 'WORKASPACE' ) );
#44 = DIRECTION ( 'NONE',  ( 1.000000000000000000, 0.0000000000000000000, 0.0000000000000000000 ) ) ;
#45 = MANIFOLD_SOLID_BREP ( 'Fase1', #85 ) ;
#46 = EDGE_CURVE ( 'NONE', #17, #197, #188, .T. ) ;
#47 = DIRECTION ( 'NONE',  ( 1.000000000000000000, 7.407185136489894727E-17, -0.0000000000000000000 ) ) ;
#48 = AXIS2_PLACEMENT_3D ( 'NONE', #163, #47, #51 ) ;
#49 = PRODUCT_DEFINITION_SHAPE ( 'NONE', 'NONE',  #13 ) ;
#50 = ORIENTED_EDGE ( 'NONE', *, *, #24, .T. ) ;
#51 = DIRECTION ( 'NONE',  ( 0.0000000000000000000, 1.000000000000000000, 0.0000000000000000000 ) ) ;
#52 = ORIENTED_EDGE ( 'NONE', *, *, #179, .F. ) ;
#53 = EDGE_CURVE ( 'NONE', #198, #37, #128, .T. ) ;
#54 = PRODUCT_DEFINITION_FORMATION_WITH_SPECIFIED_SOURCE ( 'ANY', '', #66, .NOT_KNOWN. ) ;
#55 = DIRECTION ( 'NONE',  ( 1.000000000000000000, 7.407185136489923077E-17, -0.0000000000000000000 ) ) ;
#56 = DIRECTION ( 'NONE',  ( 0.0000000000000000000, 1.000000000000000000, 0.0000000000000000000 ) ) ;
#57 = LINE ( 'NONE', #155, #194 ) ;
#58 = CARTESIAN_POINT ( 'NONE',  ( 0.9999999999999865663, 4.999999999999993783, 0.0000000000000000000 ) ) ;
#59 = CARTESIAN_POINT ( 'NONE',  ( 70.00000000000000000, 5.185029595542927048E-15, 0.0000000000000000000 ) ) ;
#60 = DIRECTION ( 'NONE',  ( 1.000000000000000000, 7.407185136489894727E-17, -0.0000000000000000000 ) ) ;
#61 = APPLICATION_CONTEXT ( 'automotive_design' ) ;
#62 =( NAMED_UNIT ( * ) PLANE_ANGLE_UNIT ( ) SI_UNIT ( $, .RADIAN. ) );
#63 = CARTESIAN_POINT ( 'NONE',  ( 70.00000000000000000, 5.185029595542927048E-15, 0.0000000000000000000 ) ) ;
#64 = ORIENTED_EDGE ( 'NONE', *, *, #108, .F. ) ;
#65 = EDGE_LOOP ( 'NONE', ( #112, #6, #79, #64 ) ) ;
#66 = PRODUCT ( '95-1-78760-10', '95-1-78760-10', '', ( #73 ) ) ;
#67 =( LENGTH_UNIT ( ) NAMED_UNIT ( * ) SI_UNIT ( .MILLI., .METRE. ) );
#68 = AXIS2_PLACEMENT_3D ( 'NONE', #59, #8, #167 ) ;
#69 = FACE_OUTER_BOUND ( 'NONE', #161, .T. ) ;
#70 = APPLICATION_CONTEXT ( 'automotive_design' ) ;
#71 = DIRECTION ( 'NONE',  ( 0.7071067811865463515, -0.7071067811865487940, 8.659560562354950115E-17 ) ) ;
#72 = CARTESIAN_POINT ( 'NONE',  ( 70.00000000000000000, 4.999999999999999112, 0.0000000000000000000 ) ) ;
#73 = PRODUCT_CONTEXT ( 'NONE', #61, 'mechanical' ) ;
#74 = VECTOR ( 'NONE', #134, 1000.000000000000000 ) ;
#75 = PRESENTATION_LAYER_ASSIGNMENT (  '', '', ( #210 ) ) ;
#76 = ORIENTED_EDGE ( 'NONE', *, *, #88, .T. ) ;
#77 = PRESENTATION_LAYER_ASSIGNMENT (  '', '', ( #157 ) ) ;
#78 = CONICAL_SURFACE ( 'NONE', #182, 577.3502691896271699, 0.5235987755982999259 ) ;
#79 = ORIENTED_EDGE ( 'NONE', *, *, #121, .T. ) ;
#80 = VERTEX_POINT ( 'NONE', #102 ) ;
#81 = CARTESIAN_POINT ( 'NONE',  ( 61.33974596215566066, 4.999999999999992006, 0.0000000000000000000 ) ) ;
#82 = DIRECTION ( 'NONE',  ( -8.673617379884046565E-17, 1.000000000000000000, 0.0000000000000000000 ) ) ;
#83 = CARTESIAN_POINT ( 'NONE',  ( 70.00000000000000000, 5.185029595542927048E-15, 0.0000000000000000000 ) ) ;
#84 = EDGE_CURVE ( 'NONE', #80, #17, #57, .T. ) ;
#85 = CLOSED_SHELL ( 'NONE', ( #95, #154, #19, #203, #92, #159, #150 ) ) ;
#86 = CARTESIAN_POINT ( 'NONE',  ( -929.9999999999998863, -6.888682176935601805E-14, 0.0000000000000000000 ) ) ;
#87 =( NAMED_UNIT ( * ) PLANE_ANGLE_UNIT ( ) SI_UNIT ( $, .RADIAN. ) );
#88 = EDGE_CURVE ( 'NONE', #80, #127, #107, .T. ) ;
#89 =( LENGTH_UNIT ( ) NAMED_UNIT ( * ) SI_UNIT ( .MILLI., .METRE. ) );
#90 = CONICAL_SURFACE ( 'NONE', #177, 4.999999999999993783, 0.7853981633974500554 ) ;
#91 = AXIS2_PLACEMENT_3D ( 'NONE', #31, #32, #44 ) ;
#92 = ADVANCED_FACE ( 'NONE', ( #69 ), #135, .T. ) ;
#93 = SURFACE_STYLE_FILL_AREA ( #34 ) ;
#94 = EDGE_LOOP ( 'NONE', ( #52, #109, #50 ) ) ;
#95 = ADVANCED_FACE ( 'NONE', ( #149 ), #90, .T. ) ;
#96 = ORIENTED_EDGE ( 'NONE', *, *, #121, .F. ) ;
#97 = FACE_OUTER_BOUND ( 'NONE', #94, .T. ) ;
#98 = CARTESIAN_POINT ( 'NONE',  ( 0.9999999999999865663, 4.999999999999993783, 0.0000000000000000000 ) ) ;
#99 = DIRECTION ( 'NONE',  ( 1.000000000000000000, 7.407185136489923077E-17, -0.0000000000000000000 ) ) ;
#100 = AXIS2_PLACEMENT_3D ( 'NONE', #22, #169, #56 ) ;
#101 = CARTESIAN_POINT ( 'NONE',  ( 70.00000000000000000, 5.185029595542927048E-15, 0.0000000000000000000 ) ) ;
#102 = CARTESIAN_POINT ( 'NONE',  ( 4.814670338718433668E-16, -4.000000000000003553, 5.510910596163087583E-16 ) ) ;
#103 = DIRECTION ( 'NONE',  ( 7.407185136489894727E-17, -1.000000000000000000, 0.0000000000000000000 ) ) ;
#104 = ADVANCED_BREP_SHAPE_REPRESENTATION ( '95-1-78760-10', ( #45, #91 ), #26 ) ;
#105 = APPLICATION_PROTOCOL_DEFINITION ( 'draft international standard', 'automotive_design', 1998, #70 ) ;
#106 =( NAMED_UNIT ( * ) SI_UNIT ( $, .STERADIAN. ) SOLID_ANGLE_UNIT ( ) );
#107 = CIRCLE ( 'NONE', #170, 4.000000000000003553 ) ;
#108 = EDGE_CURVE ( 'NONE', #17, #113, #5, .T. ) ;
#109 = ORIENTED_EDGE ( 'NONE', *, *, #53, .T. ) ;
#110 = FILL_AREA_STYLE_COLOUR ( '', #166 ) ;
#111 = AXIS2_PLACEMENT_3D ( 'NONE', #205, #99, #118 ) ;
#112 = ORIENTED_EDGE ( 'NONE', *, *, #84, .F. ) ;
#113 = VERTEX_POINT ( 'NONE', #58 ) ;
#114 = ORIENTED_EDGE ( 'NONE', *, *, #88, .F. ) ;
#115 = CIRCLE ( 'NONE', #196, 4.000000000000003553 ) ;
#116 = PRESENTATION_STYLE_ASSIGNMENT (( #145 ) ) ;
#117 = DIRECTION ( 'NONE',  ( -1.000000000000000000, -7.407185136489894727E-17, 0.0000000000000000000 ) ) ;
#118 = DIRECTION ( 'NONE',  ( 8.673617379884046565E-17, -1.000000000000000000, 0.0000000000000000000 ) ) ;
#119 = EDGE_CURVE ( 'NONE', #113, #17, #213, .T. ) ;
#120 = CARTESIAN_POINT ( 'NONE',  ( 70.00000000000000000, -4.999999999999988454, 6.123233995736758394E-16 ) ) ;
#121 = EDGE_CURVE ( 'NONE', #127, #113, #10, .T. ) ;
#122 = PRESENTATION_STYLE_ASSIGNMENT (( #29 ) ) ;
#123 = DIRECTION ( 'NONE',  ( -1.000000000000000000, -7.407185136489894727E-17, 0.0000000000000000000 ) ) ;
#124 = MECHANICAL_DESIGN_GEOMETRIC_PRESENTATION_REPRESENTATION (  '', ( #157 ), #43 ) ;
#125 = EDGE_CURVE ( 'NONE', #197, #37, #199, .T. ) ;
#126 = ORIENTED_EDGE ( 'NONE', *, *, #24, .F. ) ;
#127 = VERTEX_POINT ( 'NONE', #183 ) ;
#128 = LINE ( 'NONE', #83, #147 ) ;
#129 = MECHANICAL_DESIGN_GEOMETRIC_PRESENTATION_REPRESENTATION (  '', ( #210 ), #41 ) ;
#130 = ORIENTED_EDGE ( 'NONE', *, *, #125, .T. ) ;
#131 = EDGE_LOOP ( 'NONE', ( #201, #178, #130 ) ) ;
#132 = DIRECTION ( 'NONE',  ( -1.000000000000000000, -7.407185136489894727E-17, 0.0000000000000000000 ) ) ;
#133 = CARTESIAN_POINT ( 'NONE',  ( 0.9999999999999870104, 7.407185136489828167E-17, 0.0000000000000000000 ) ) ;
#134 = DIRECTION ( 'NONE',  ( 0.7071067811865463515, 0.7071067811865487940, 0.0000000000000000000 ) ) ;
#135 = CYLINDRICAL_SURFACE ( 'NONE', #68, 4.999999999999993783 ) ;
#136 = AXIS2_PLACEMENT_3D ( 'NONE', #153, #117, #185 ) ;
#137 = DIRECTION ( 'NONE',  ( -8.673617379884046565E-17, 1.000000000000000000, 0.0000000000000000000 ) ) ;
#138 = CARTESIAN_POINT ( 'NONE',  ( 61.33974596215566066, -4.999999999999984013, 6.123233995736754449E-16 ) ) ;
#139 = FILL_AREA_STYLE_COLOUR ( '', #171 ) ;
#140 = UNCERTAINTY_MEASURE_WITH_UNIT (LENGTH_MEASURE( 1.000000000000000082E-05 ), #89, 'distance_accuracy_value', 'NONE');
#141 =( NAMED_UNIT ( * ) PLANE_ANGLE_UNIT ( ) SI_UNIT ( $, .RADIAN. ) );
#142 = CIRCLE ( 'NONE', #48, 4.999999999999987566 ) ;
#143 = ORIENTED_EDGE ( 'NONE', *, *, #46, .T. ) ;
#144 = ORIENTED_EDGE ( 'NONE', *, *, #84, .T. ) ;
#145 = SURFACE_STYLE_USAGE ( .BOTH. , #18 ) ;
#146 = ORIENTED_EDGE ( 'NONE', *, *, #190, .T. ) ;
#147 = VECTOR ( 'NONE', #11, 1000.000000000000227 ) ;
#148 = ORIENTED_EDGE ( 'NONE', *, *, #46, .F. ) ;
#149 = FACE_OUTER_BOUND ( 'NONE', #7, .T. ) ;
#150 = ADVANCED_FACE ( 'NONE', ( #156 ), #209, .T. ) ;
#151 = CARTESIAN_POINT ( 'NONE',  ( 1.851796284122473805E-16, 2.575366006397948546E-32, 0.0000000000000000000 ) ) ;
#152 = AXIS2_PLACEMENT_3D ( 'NONE', #191, #123, #42 ) ;
#153 = CARTESIAN_POINT ( 'NONE',  ( -929.9999999999998863, -6.888682176935601805E-14, 0.0000000000000000000 ) ) ;
#154 = ADVANCED_FACE ( 'NONE', ( #97 ), #195, .T. ) ;
#155 = CARTESIAN_POINT ( 'NONE',  ( 0.9999999999999874545, -4.999999999999993783, 6.123233995736758394E-16 ) ) ;
#156 = FACE_OUTER_BOUND ( 'NONE', #65, .T. ) ;
#157 = STYLED_ITEM ( 'NONE', ( #116 ), #45 ) ;
#158 =( LENGTH_UNIT ( ) NAMED_UNIT ( * ) SI_UNIT ( .MILLI., .METRE. ) );
#159 = ADVANCED_FACE ( 'NONE', ( #25 ), #78, .T. ) ;
#160 = CARTESIAN_POINT ( 'NONE',  ( 0.9999999999999874545, -4.999999999999994671, 6.123233995736761352E-16 ) ) ;
#161 = EDGE_LOOP ( 'NONE', ( #148, #181, #162, #165 ) ) ;
#162 = ORIENTED_EDGE ( 'NONE', *, *, #211, .T. ) ;
#163 = CARTESIAN_POINT ( 'NONE',  ( 61.33974596215566066, 4.543548545669454686E-15, 0.0000000000000000000 ) ) ;
#164 = UNCERTAINTY_MEASURE_WITH_UNIT (LENGTH_MEASURE( 1.000000000000000082E-05 ), #158, 'distance_accuracy_value', 'NONE');
#165 = ORIENTED_EDGE ( 'NONE', *, *, #125, .F. ) ;
#166 = COLOUR_RGB ( '',0.7921568627450980005, 0.8196078431372548767, 0.9333333333333333481 ) ;
#167 = DIRECTION ( 'NONE',  ( 0.0000000000000000000, 1.000000000000000000, 0.0000000000000000000 ) ) ;
#168 = CARTESIAN_POINT ( 'NONE',  ( 0.9999999999999870104, 7.407185136489828167E-17, 0.0000000000000000000 ) ) ;
#169 = DIRECTION ( 'NONE',  ( 1.000000000000000000, 7.407185136489894727E-17, -0.0000000000000000000 ) ) ;
#170 = AXIS2_PLACEMENT_3D ( 'NONE', #151, #132, #39 ) ;
#171 = COLOUR_RGB ( '',0.7921568627450980005, 0.8196078431372548767, 0.9333333333333333481 ) ;
#172 = DIRECTION ( 'NONE',  ( -0.8660254037844380415, -0.5000000000000009992, 0.0000000000000000000 ) ) ;
#173 = CARTESIAN_POINT ( 'NONE',  ( 0.9999999999999870104, 7.407185136489828167E-17, 0.0000000000000000000 ) ) ;
#174 = FILL_AREA_STYLE ('',( #139 ) ) ;
#175 = SHAPE_DEFINITION_REPRESENTATION ( #49, #104 ) ;
#176 = FACE_OUTER_BOUND ( 'NONE', #16, .T. ) ;
#177 = AXIS2_PLACEMENT_3D ( 'NONE', #133, #189, #137 ) ;
#178 = ORIENTED_EDGE ( 'NONE', *, *, #179, .T. ) ;
#179 = EDGE_CURVE ( 'NONE', #198, #197, #40, .T. ) ;
#180 = AXIS2_PLACEMENT_3D ( 'NONE', #63, #202, #33 ) ;
#181 = ORIENTED_EDGE ( 'NONE', *, *, #108, .T. ) ;
#182 = AXIS2_PLACEMENT_3D ( 'NONE', #86, #9, #186 ) ;
#183 = CARTESIAN_POINT ( 'NONE',  ( -1.111077770473486551E-16, 4.000000000000003553, 0.0000000000000000000 ) ) ;
#184 = UNCERTAINTY_MEASURE_WITH_UNIT (LENGTH_MEASURE( 1.000000000000000082E-05 ), #67, 'distance_accuracy_value', 'NONE');
#185 = DIRECTION ( 'NONE',  ( 0.0000000000000000000, -1.000000000000000000, 0.0000000000000000000 ) ) ;
#186 = DIRECTION ( 'NONE',  ( 0.0000000000000000000, -1.000000000000000000, 0.0000000000000000000 ) ) ;
#187 = VECTOR ( 'NONE', #208, 1000.000000000000000 ) ;
#188 = LINE ( 'NONE', #120, #187 ) ;
#189 = DIRECTION ( 'NONE',  ( 1.000000000000000000, 7.407185136489923077E-17, -0.0000000000000000000 ) ) ;
#190 = EDGE_CURVE ( 'NONE', #127, #80, #115, .T. ) ;
#191 = CARTESIAN_POINT ( 'NONE',  ( 1.851796284122473805E-16, 1.371659791155920390E-32, 0.0000000000000000000 ) ) ;
#192 = AXIS2_PLACEMENT_3D ( 'NONE', #173, #55, #207 ) ;
#193 = DIRECTION ( 'NONE',  ( -1.000000000000000000, -7.407185136489894727E-17, 0.0000000000000000000 ) ) ;
#194 = VECTOR ( 'NONE', #71, 1000.000000000000000 ) ;
#195 = CONICAL_SURFACE ( 'NONE', #136, 577.3502691896271699, 0.5235987755982999259 ) ;
#196 = AXIS2_PLACEMENT_3D ( 'NONE', #27, #193, #103 ) ;
#197 = VERTEX_POINT ( 'NONE', #138 ) ;
#198 = VERTEX_POINT ( 'NONE', #2 ) ;
#199 = CIRCLE ( 'NONE', #100, 4.999999999999987566 ) ;
#200 = VECTOR ( 'NONE', #60, 1000.000000000000000 ) ;
#201 = ORIENTED_EDGE ( 'NONE', *, *, #53, .F. ) ;
#202 = DIRECTION ( 'NONE',  ( 1.000000000000000000, 7.407185136489894727E-17, -0.0000000000000000000 ) ) ;
#203 = ADVANCED_FACE ( 'NONE', ( #212 ), #214, .T. ) ;
#204 = ORIENTED_EDGE ( 'NONE', *, *, #119, .F. ) ;
#205 = CARTESIAN_POINT ( 'NONE',  ( 0.9999999999999870104, 7.407185136489828167E-17, 0.0000000000000000000 ) ) ;
#206 = VECTOR ( 'NONE', #172, 1000.000000000000114 ) ;
#207 = DIRECTION ( 'NONE',  ( 8.673617379884046565E-17, -1.000000000000000000, 0.0000000000000000000 ) ) ;
#208 = DIRECTION ( 'NONE',  ( 1.000000000000000000, 7.407185136489894727E-17, -0.0000000000000000000 ) ) ;
#209 = CONICAL_SURFACE ( 'NONE', #20, 4.999999999999993783, 0.7853981633974500554 ) ;
#210 = STYLED_ITEM ( 'NONE', ( #122 ), #104 ) ;
#211 = EDGE_CURVE ( 'NONE', #113, #37, #12, .T. ) ;
#212 = FACE_OUTER_BOUND ( 'NONE', #3, .T. ) ;
#213 = CIRCLE ( 'NONE', #111, 4.999999999999993783 ) ;
#214 = PLANE ( 'NONE',  #152 ) ;
ENDSEC;
END-ISO-10303-21;
