ISO-10303-21;
HEADER;
FILE_DESCRIPTION (( 'STEP AP214' ),
    '1' );
FILE_NAME ('MTS.6012.C.050.06.10 BF.STEP',
    '2020-09-14T08:18:43',
    ( '' ),
    ( '' ),
    'SwSTEP 2.0',
    'SolidWorks 2019',
    '' );
FILE_SCHEMA (( 'AUTOMOTIVE_DESIGN' ));
ENDSEC;

DATA;
#1 = DIRECTION ( 'NONE',  ( 0.0000000000000000000, 0.0000000000000000000, 1.000000000000000000 ) ) ;
#2 = DIRECTION ( 'NONE',  ( -1.000000000000000000, -1.734723475976807480E-18, -0.0000000000000000000 ) ) ;
#3 = EDGE_CURVE ( 'NONE', #85, #30, #76, .T. ) ;
#4 = EDGE_LOOP ( 'NONE', ( #260, #309 ) ) ;
#5 = VECTOR ( 'NONE', #209, 1000.000000000000000 ) ;
#6 = AXIS2_PLACEMENT_3D ( 'NONE', #128, #189, #73 ) ;
#7 = FACE_OUTER_BOUND ( 'NONE', #167, .T. ) ;
#8 = DIRECTION ( 'NONE',  ( -1.000000000000000000, -1.734723475976807480E-18, 0.0000000000000000000 ) ) ;
#9 = FACE_OUTER_BOUND ( 'NONE', #226, .T. ) ;
#10 = CARTESIAN_POINT ( 'NONE',  ( -49.99999999999998579, 3.113248654051846920, 3.812629999134399287E-16 ) ) ;
#11 = EDGE_CURVE ( 'NONE', #308, #129, #170, .T. ) ;
#12 = DIRECTION ( 'NONE',  ( -1.000000000000000000, -1.734723475976807480E-18, -0.0000000000000000000 ) ) ;
#13 = EDGE_CURVE ( 'NONE', #346, #144, #221, .T. ) ;
#14 = DIRECTION ( 'NONE',  ( -1.000000000000000000, -1.734723475976807480E-18, 0.0000000000000000000 ) ) ;
#15 = ORIENTED_EDGE ( 'NONE', *, *, #179, .T. ) ;
#16 = CARTESIAN_POINT ( 'NONE',  ( 6.414573733293238594E-18, -3.697749999999998760, 0.0000000000000000000 ) ) ;
#17 = ORIENTED_EDGE ( 'NONE', *, *, #214, .F. ) ;
#18 = VECTOR ( 'NONE', #358, 1000.000000000000227 ) ;
#19 = DIRECTION ( 'NONE',  ( -1.000000000000000000, -1.734723475976807480E-18, -0.0000000000000000000 ) ) ;
#20 = UNCERTAINTY_MEASURE_WITH_UNIT (LENGTH_MEASURE( 1.000000000000000082E-05 ), #284, 'distance_accuracy_value', 'NONE');
#21 = CARTESIAN_POINT ( 'NONE',  ( -40.50225000000018127, 4.997749999999994586, 0.0000000000000000000 ) ) ;
#22 = ORIENTED_EDGE ( 'NONE', *, *, #224, .T. ) ;
#23 = DIRECTION ( 'NONE',  ( -1.000000000000000000, -1.734723475976807480E-18, -0.0000000000000000000 ) ) ;
#24 = AXIS2_PLACEMENT_3D ( 'NONE', #238, #268, #324 ) ;
#25 = DIRECTION ( 'NONE',  ( 0.0000000000000000000, -1.000000000000000000, 0.0000000000000000000 ) ) ;
#26 = ORIENTED_EDGE ( 'NONE', *, *, #43, .F. ) ;
#27 = EDGE_LOOP ( 'NONE', ( #370, #315, #102, #197 ) ) ;
#28 = EDGE_CURVE ( 'NONE', #245, #323, #86, .T. ) ;
#29 = CONICAL_SURFACE ( 'NONE', #150, 3.697749999999999204, 0.7853981633974395082 ) ;
#30 = VERTEX_POINT ( 'NONE', #205 ) ;
#31 = PRODUCT ( 'MTS.6012.C.050.06.10 BF', 'MTS.6012.C.050.06.10 BF', '', ( #227 ) ) ;
#32 = EDGE_LOOP ( 'NONE', ( #111, #61 ) ) ;
#33 = DIRECTION ( 'NONE',  ( -1.000000000000000000, -1.734723475976807480E-18, -0.0000000000000000000 ) ) ;
#34 = MECHANICAL_DESIGN_GEOMETRIC_PRESENTATION_REPRESENTATION (  '', ( #251 ), #292 ) ;
#35 = AXIS2_PLACEMENT_3D ( 'NONE', #360, #363, #302 ) ;
#36 = CARTESIAN_POINT ( 'NONE',  ( -49.99999999999998579, 3.983737386261754817E-16, 0.0000000000000000000 ) ) ;
#37 = APPLICATION_CONTEXT ( 'automotive_design' ) ;
#38 = DIRECTION ( 'NONE',  ( 0.0000000000000000000, 1.000000000000000000, 0.0000000000000000000 ) ) ;
#39 = LINE ( 'NONE', #153, #120 ) ;
#40 = COLOUR_RGB ( '',0.5019607843137254832, 0.5019607843137254832, 0.5019607843137254832 ) ;
#41 = ADVANCED_FACE ( 'NONE', ( #262 ), #255, .T. ) ;
#42 = LINE ( 'NONE', #10, #356 ) ;
#43 = EDGE_CURVE ( 'NONE', #129, #346, #58, .T. ) ;
#44 = DIRECTION ( 'NONE',  ( 1.000000000000000000, 1.734723475976807480E-18, 0.0000000000000000000 ) ) ;
#45 = CARTESIAN_POINT ( 'NONE',  ( -279.6468250663724575, -4.997749999999997250, 0.0000000000000000000 ) ) ;
#46 = EDGE_LOOP ( 'NONE', ( #75, #160, #201, #87 ) ) ;
#47 = FACE_OUTER_BOUND ( 'NONE', #32, .T. ) ;
#48 = VECTOR ( 'NONE', #235, 1000.000000000000000 ) ;
#49 = FACE_OUTER_BOUND ( 'NONE', #289, .T. ) ;
#50 = ORIENTED_EDGE ( 'NONE', *, *, #179, .F. ) ;
#51 = CARTESIAN_POINT ( 'NONE',  ( -43.00000000000000711, -2.499999999999999556, 4.591047769153530291E-16 ) ) ;
#52 = ADVANCED_FACE ( 'NONE', ( #365, #350 ), #184, .F. ) ;
#53 = AXIS2_PLACEMENT_3D ( 'NONE', #182, #8, #216 ) ;
#54 = VECTOR ( 'NONE', #249, 1000.000000000000114 ) ;
#55 = CARTESIAN_POINT ( 'NONE',  ( -279.6468250663724575, 0.0000000000000000000, 0.0000000000000000000 ) ) ;
#56 =( LENGTH_UNIT ( ) NAMED_UNIT ( * ) SI_UNIT ( .MILLI., .METRE. ) );
#57 = ORIENTED_EDGE ( 'NONE', *, *, #28, .F. ) ;
#58 = LINE ( 'NONE', #344, #48 ) ;
#59 = AXIS2_PLACEMENT_3D ( 'NONE', #325, #92, #38 ) ;
#60 = DIRECTION ( 'NONE',  ( -1.000000000000000000, -1.734723475976807480E-18, -0.0000000000000000000 ) ) ;
#61 = ORIENTED_EDGE ( 'NONE', *, *, #353, .T. ) ;
#62 = DIRECTION ( 'NONE',  ( 1.734723475976807480E-18, -1.000000000000000000, 0.0000000000000000000 ) ) ;
#63 = CIRCLE ( 'NONE', #24, 2.499999999999999112 ) ;
#64 = MECHANICAL_DESIGN_GEOMETRIC_PRESENTATION_REPRESENTATION (  '', ( #311 ), #349 ) ;
#65 = CYLINDRICAL_SURFACE ( 'NONE', #139, 4.997749999999997250 ) ;
#66 = DIRECTION ( 'NONE',  ( -1.000000000000000000, -1.734723475976807480E-18, -0.0000000000000000000 ) ) ;
#67 = EDGE_CURVE ( 'NONE', #285, #89, #329, .T. ) ;
#68 = DIRECTION ( 'NONE',  ( -1.000000000000000000, -1.734723475976807480E-18, -0.0000000000000000000 ) ) ;
#69 = CIRCLE ( 'NONE', #258, 6.000000000000000000 ) ;
#70 = PLANE ( 'NONE',  #247 ) ;
#71 = DIRECTION ( 'NONE',  ( -1.000000000000000000, -1.734723475976807480E-18, -0.0000000000000000000 ) ) ;
#72 = EDGE_LOOP ( 'NONE', ( #15, #320 ) ) ;
#73 = DIRECTION ( 'NONE',  ( 1.734723475976807480E-18, -1.000000000000000000, 0.0000000000000000000 ) ) ;
#74 = DIRECTION ( 'NONE',  ( 0.0000000000000000000, -1.000000000000000000, 0.0000000000000000000 ) ) ;
#75 = ORIENTED_EDGE ( 'NONE', *, *, #146, .F. ) ;
#76 = CIRCLE ( 'NONE', #162, 3.113248654051846476 ) ;
#77 = CARTESIAN_POINT ( 'NONE',  ( -54.99999999999999289, 6.000000000000000000, 7.347880794884120722E-16 ) ) ;
#78 = ORIENTED_EDGE ( 'NONE', *, *, #345, .T. ) ;
#79 = EDGE_CURVE ( 'NONE', #364, #359, #69, .T. ) ;
#80 = ADVANCED_FACE ( 'NONE', ( #263 ), #236, .T. ) ;
#81 = ORIENTED_EDGE ( 'NONE', *, *, #11, .T. ) ;
#82 = ORIENTED_EDGE ( 'NONE', *, *, #13, .F. ) ;
#83 = CIRCLE ( 'NONE', #282, 4.997749999999999915 ) ;
#84 = PRESENTATION_STYLE_ASSIGNMENT (( #261 ) ) ;
#85 = VERTEX_POINT ( 'NONE', #297 ) ;
#86 = LINE ( 'NONE', #313, #207 ) ;
#87 = ORIENTED_EDGE ( 'NONE', *, *, #353, .F. ) ;
#88 = VECTOR ( 'NONE', #96, 1000.000000000000000 ) ;
#89 = VERTEX_POINT ( 'NONE', #154 ) ;
#90 = ADVANCED_FACE ( 'NONE', ( #212 ), #65, .T. ) ;
#91 = DIRECTION ( 'NONE',  ( 0.0000000000000000000, -1.000000000000000000, 0.0000000000000000000 ) ) ;
#92 = DIRECTION ( 'NONE',  ( 1.000000000000000000, 1.734723475976807480E-18, 0.0000000000000000000 ) ) ;
#93 = EDGE_CURVE ( 'NONE', #100, #129, #39, .T. ) ;
#94 = CARTESIAN_POINT ( 'NONE',  ( -54.99999999999999289, 3.897001212462914462E-16, 0.0000000000000000000 ) ) ;
#95 = CARTESIAN_POINT ( 'NONE',  ( -40.50225000000018127, -4.997749999999994586, 0.0000000000000000000 ) ) ;
#96 = DIRECTION ( 'NONE',  ( 0.7071067811865238140, -0.7071067811865713315, 8.659560562355226216E-17 ) ) ;
#97 = AXIS2_PLACEMENT_3D ( 'NONE', #118, #283, #337 ) ;
#98 = FILL_AREA_STYLE_COLOUR ( '', #339 ) ;
#99 = AXIS2_PLACEMENT_3D ( 'NONE', #103, #136, #157 ) ;
#100 = VERTEX_POINT ( 'NONE', #125 ) ;
#101 = CARTESIAN_POINT ( 'NONE',  ( -1.300000000000023359, -4.997749999999999027, 0.0000000000000000000 ) ) ;
#102 = ORIENTED_EDGE ( 'NONE', *, *, #343, .T. ) ;
#103 = CARTESIAN_POINT ( 'NONE',  ( -49.99999999999998579, 3.983737386261754817E-16, 0.0000000000000000000 ) ) ;
#104 = ORIENTED_EDGE ( 'NONE', *, *, #11, .F. ) ;
#105 = ADVANCED_FACE ( 'NONE', ( #9 ), #298, .T. ) ;
#106 = CARTESIAN_POINT ( 'NONE',  ( 6.414573733293238594E-18, -3.697749999999998760, 0.0000000000000000000 ) ) ;
#107 = AXIS2_PLACEMENT_3D ( 'NONE', #213, #265, #328 ) ;
#108 = ADVANCED_FACE ( 'NONE', ( #7 ), #185, .T. ) ;
#109 = CARTESIAN_POINT ( 'NONE',  ( -43.00000000000000711, 4.105168029580130820E-16, 0.0000000000000000000 ) ) ;
#110 = ORIENTED_EDGE ( 'NONE', *, *, #3, .F. ) ;
#111 = ORIENTED_EDGE ( 'NONE', *, *, #79, .T. ) ;
#112 = PRODUCT_DEFINITION_FORMATION_WITH_SPECIFIED_SOURCE ( 'ANY', '', #31, .NOT_KNOWN. ) ;
#113 =( LENGTH_UNIT ( ) NAMED_UNIT ( * ) SI_UNIT ( .MILLI., .METRE. ) );
#114 = ORIENTED_EDGE ( 'NONE', *, *, #93, .T. ) ;
#115 = AXIS2_PLACEMENT_3D ( 'NONE', #149, #333, #307 ) ;
#116 = ORIENTED_EDGE ( 'NONE', *, *, #148, .T. ) ;
#117 = DIRECTION ( 'NONE',  ( 1.000000000000000000, 0.0000000000000000000, 0.0000000000000000000 ) ) ;
#118 = CARTESIAN_POINT ( 'NONE',  ( -1.300000000000023359, 4.828547719062459675E-16, 0.0000000000000000000 ) ) ;
#119 = EDGE_LOOP ( 'NONE', ( #172, #110 ) ) ;
#120 = VECTOR ( 'NONE', #351, 1000.000000000000114 ) ;
#121 = EDGE_CURVE ( 'NONE', #89, #323, #63, .T. ) ;
#122 = CONICAL_SURFACE ( 'NONE', #35, 3.113248654051846476, 0.5235987755983022574 ) ;
#123 = DIRECTION ( 'NONE',  ( 0.0000000000000000000, -1.000000000000000000, 0.0000000000000000000 ) ) ;
#124 = CARTESIAN_POINT ( 'NONE',  ( -279.6468250663724575, 0.0000000000000000000, 0.0000000000000000000 ) ) ;
#125 = CARTESIAN_POINT ( 'NONE',  ( -6.414573733293238594E-18, 3.697749999999999648, 5.324458120992904795E-16 ) ) ;
#126 = FACE_OUTER_BOUND ( 'NONE', #274, .T. ) ;
#127 = DIRECTION ( 'NONE',  ( 0.0000000000000000000, -1.000000000000000000, 0.0000000000000000000 ) ) ;
#128 = CARTESIAN_POINT ( 'NONE',  ( 0.0000000000000000000, 4.851099124250158364E-16, 0.0000000000000000000 ) ) ;
#129 = VERTEX_POINT ( 'NONE', #295 ) ;
#130 = AXIS2_PLACEMENT_3D ( 'NONE', #237, #296, #156 ) ;
#131 = LINE ( 'NONE', #248, #18 ) ;
#132 = CONICAL_SURFACE ( 'NONE', #6, 3.697749999999999204, 0.7853981633974395082 ) ;
#133 = EDGE_LOOP ( 'NONE', ( #81, #276, #17, #141 ) ) ;
#134 = FACE_OUTER_BOUND ( 'NONE', #4, .T. ) ;
#135 = ADVANCED_FACE ( 'NONE', ( #242 ), #29, .T. ) ;
#136 = DIRECTION ( 'NONE',  ( -1.000000000000000000, -1.734723475976807480E-18, -0.0000000000000000000 ) ) ;
#137 = UNCERTAINTY_MEASURE_WITH_UNIT (LENGTH_MEASURE( 1.000000000000000082E-05 ), #56, 'distance_accuracy_value', 'NONE');
#138 = PLANE ( 'NONE',  #319 ) ;
#139 = AXIS2_PLACEMENT_3D ( 'NONE', #124, #66, #91 ) ;
#140 = EDGE_LOOP ( 'NONE', ( #206, #259, #341, #281 ) ) ;
#141 = ORIENTED_EDGE ( 'NONE', *, *, #280, .F. ) ;
#142 = ORIENTED_EDGE ( 'NONE', *, *, #214, .T. ) ;
#143 = AXIS2_PLACEMENT_3D ( 'NONE', #342, #2, #25 ) ;
#144 = VERTEX_POINT ( 'NONE', #95 ) ;
#145 = PRODUCT_DEFINITION_SHAPE ( 'NONE', 'NONE',  #231 ) ;
#146 = EDGE_CURVE ( 'NONE', #85, #359, #42, .T. ) ;
#147 = ORIENTED_EDGE ( 'NONE', *, *, #280, .T. ) ;
#148 = EDGE_CURVE ( 'NONE', #286, #100, #303, .T. ) ;
#149 = CARTESIAN_POINT ( 'NONE',  ( -40.50225000000018127, 4.148497085201338498E-16, 0.0000000000000000000 ) ) ;
#150 = AXIS2_PLACEMENT_3D ( 'NONE', #266, #12, #347 ) ;
#151 = CIRCLE ( 'NONE', #99, 3.113248654051846476 ) ;
#152 = DIRECTION ( 'NONE',  ( 1.734723475976807480E-18, -1.000000000000000000, 0.0000000000000000000 ) ) ;
#153 = CARTESIAN_POINT ( 'NONE',  ( -6.414573733293238594E-18, 3.697749999999999648, 4.528437701547124755E-16 ) ) ;
#154 = CARTESIAN_POINT ( 'NONE',  ( -49.99999999999998579, 2.499999999999999556, 3.061616997868382648E-16 ) ) ;
#155 = CIRCLE ( 'NONE', #357, 2.500000000000000000 ) ;
#156 = DIRECTION ( 'NONE',  ( 0.0000000000000000000, -1.000000000000000000, 0.0000000000000000000 ) ) ;
#157 = DIRECTION ( 'NONE',  ( 0.0000000000000000000, -1.000000000000000000, 0.0000000000000000000 ) ) ;
#158 = ADVANCED_FACE ( 'NONE', ( #126 ), #246, .T. ) ;
#159 = CARTESIAN_POINT ( 'NONE',  ( -54.99999999999999289, 6.000000000000000000, 0.0000000000000000000 ) ) ;
#160 = ORIENTED_EDGE ( 'NONE', *, *, #3, .T. ) ;
#161 = AXIS2_PLACEMENT_3D ( 'NONE', #318, #1, #117 ) ;
#162 = AXIS2_PLACEMENT_3D ( 'NONE', #176, #60, #174 ) ;
#163 = LINE ( 'NONE', #106, #54 ) ;
#164 = PRODUCT_DEFINITION_CONTEXT ( 'detailed design', #37, 'design' ) ;
#165 = PRODUCT_RELATED_PRODUCT_CATEGORY ( 'part', '', ( #31 ) ) ;
#166 = LINE ( 'NONE', #21, #195 ) ;
#167 = EDGE_LOOP ( 'NONE', ( #26, #194, #147, #82 ) ) ;
#168 = CYLINDRICAL_SURFACE ( 'NONE', #240, 2.499999999999999556 ) ;
#169 = ORIENTED_EDGE ( 'NONE', *, *, #343, .F. ) ;
#170 = CIRCLE ( 'NONE', #97, 4.997749999999999915 ) ;
#171 =( NAMED_UNIT ( * ) SI_UNIT ( $, .STERADIAN. ) SOLID_ANGLE_UNIT ( ) );
#172 = ORIENTED_EDGE ( 'NONE', *, *, #345, .F. ) ;
#173 = SURFACE_SIDE_STYLE ('',( #312 ) ) ;
#174 = DIRECTION ( 'NONE',  ( 0.0000000000000000000, -1.000000000000000000, 0.0000000000000000000 ) ) ;
#175 = APPLICATION_CONTEXT ( 'automotive_design' ) ;
#176 = CARTESIAN_POINT ( 'NONE',  ( -49.99999999999998579, 3.983737386261754817E-16, 0.0000000000000000000 ) ) ;
#177 = EDGE_CURVE ( 'NONE', #100, #286, #200, .T. ) ;
#178 = FILL_AREA_STYLE ('',( #270 ) ) ;
#179 = EDGE_CURVE ( 'NONE', #323, #89, #338, .T. ) ;
#180 = DIRECTION ( 'NONE',  ( -1.000000000000000000, -1.734723475976807480E-18, -0.0000000000000000000 ) ) ;
#181 = DIRECTION ( 'NONE',  ( -0.8660254037844369313, 0.5000000000000028866, 6.123233995736801781E-17 ) ) ;
#182 = CARTESIAN_POINT ( 'NONE',  ( -50.00000000000000000, 2.499999999999999556, 0.0000000000000000000 ) ) ;
#183 = AXIS2_PLACEMENT_3D ( 'NONE', #304, #71, #191 ) ;
#184 = PLANE ( 'NONE',  #53 ) ;
#185 = CYLINDRICAL_SURFACE ( 'NONE', #130, 4.997749999999997250 ) ;
#186 = CARTESIAN_POINT ( 'NONE',  ( -49.99999999999998579, 3.983737386261754817E-16, 0.0000000000000000000 ) ) ;
#187 = ADVANCED_BREP_SHAPE_REPRESENTATION ( 'MTS.6012.C.050.06.10 BF', ( #368, #161 ), #317 ) ;
#188 = AXIS2_PLACEMENT_3D ( 'NONE', #55, #316, #234 ) ;
#189 = DIRECTION ( 'NONE',  ( -1.000000000000000000, -1.734723475976807480E-18, -0.0000000000000000000 ) ) ;
#190 = EDGE_CURVE ( 'NONE', #245, #144, #243, .T. ) ;
#191 = DIRECTION ( 'NONE',  ( 0.0000000000000000000, -1.000000000000000000, 0.0000000000000000000 ) ) ;
#192 = ORIENTED_EDGE ( 'NONE', *, *, #146, .T. ) ;
#193 = CARTESIAN_POINT ( 'NONE',  ( -49.99999999999998579, -2.499999999999998668, 0.0000000000000000000 ) ) ;
#194 = ORIENTED_EDGE ( 'NONE', *, *, #321, .T. ) ;
#195 = VECTOR ( 'NONE', #299, 1000.000000000000000 ) ;
#196 = CARTESIAN_POINT ( 'NONE',  ( -43.00000000000000711, 2.500000000000000444, 0.0000000000000000000 ) ) ;
#197 = ORIENTED_EDGE ( 'NONE', *, *, #321, .F. ) ;
#198 = CARTESIAN_POINT ( 'NONE',  ( -54.99999999999999289, -6.000000000000000000, 0.0000000000000000000 ) ) ;
#199 = ORIENTED_EDGE ( 'NONE', *, *, #79, .F. ) ;
#200 = CIRCLE ( 'NONE', #326, 3.697749999999999204 ) ;
#201 = ORIENTED_EDGE ( 'NONE', *, *, #291, .T. ) ;
#202 = VECTOR ( 'NONE', #271, 1000.000000000000000 ) ;
#203 = EDGE_LOOP ( 'NONE', ( #116, #114, #104, #169 ) ) ;
#204 =( NAMED_UNIT ( * ) PLANE_ANGLE_UNIT ( ) SI_UNIT ( $, .RADIAN. ) );
#205 = CARTESIAN_POINT ( 'NONE',  ( -49.99999999999998579, -3.113248654051846032, 0.0000000000000000000 ) ) ;
#206 = ORIENTED_EDGE ( 'NONE', *, *, #67, .F. ) ;
#207 = VECTOR ( 'NONE', #180, 1000.000000000000000 ) ;
#208 = ORIENTED_EDGE ( 'NONE', *, *, #267, .T. ) ;
#209 = DIRECTION ( 'NONE',  ( -1.000000000000000000, -1.734723475976807480E-18, -0.0000000000000000000 ) ) ;
#210 = CARTESIAN_POINT ( 'NONE',  ( -279.6468250663724575, 2.499999999999999556, 3.061616997868382648E-16 ) ) ;
#211 = CLOSED_SHELL ( 'NONE', ( #306, #215, #105, #90, #135, #322, #108, #158, #41, #52, #80, #241, #305 ) ) ;
#212 = FACE_OUTER_BOUND ( 'NONE', #133, .T. ) ;
#213 = CARTESIAN_POINT ( 'NONE',  ( -40.50225000000018127, 4.148497085201338498E-16, 0.0000000000000000000 ) ) ;
#214 = EDGE_CURVE ( 'NONE', #144, #346, #272, .T. ) ;
#215 = ADVANCED_FACE ( 'NONE', ( #49 ), #168, .T. ) ;
#216 = DIRECTION ( 'NONE',  ( 1.734723475976807480E-18, -1.000000000000000000, 0.0000000000000000000 ) ) ;
#217 = FILL_AREA_STYLE ('',( #98 ) ) ;
#218 = EDGE_LOOP ( 'NONE', ( #78, #192, #199, #288 ) ) ;
#219 = DIRECTION ( 'NONE',  ( -1.000000000000000000, -1.734723475976807480E-18, -0.0000000000000000000 ) ) ;
#220 = FACE_OUTER_BOUND ( 'NONE', #218, .T. ) ;
#221 = CIRCLE ( 'NONE', #143, 4.997749999999994586 ) ;
#222 = DIRECTION ( 'NONE',  ( -1.000000000000000000, -1.734723475976807480E-18, -0.0000000000000000000 ) ) ;
#223 = DIRECTION ( 'NONE',  ( 0.0000000000000000000, -1.000000000000000000, 0.0000000000000000000 ) ) ;
#224 = EDGE_CURVE ( 'NONE', #285, #346, #166, .T. ) ;
#225 =( NAMED_UNIT ( * ) SI_UNIT ( $, .STERADIAN. ) SOLID_ANGLE_UNIT ( ) );
#226 = EDGE_LOOP ( 'NONE', ( #257, #355, #142, #229 ) ) ;
#227 = PRODUCT_CONTEXT ( 'NONE', #175, 'mechanical' ) ;
#228 = AXIS2_PLACEMENT_3D ( 'NONE', #186, #33, #127 ) ;
#229 = ORIENTED_EDGE ( 'NONE', *, *, #224, .F. ) ;
#230 = PRESENTATION_LAYER_ASSIGNMENT (  '', '', ( #311 ) ) ;
#231 = PRODUCT_DEFINITION ( 'UNKNOWN', '', #112, #164 ) ;
#232 = ORIENTED_EDGE ( 'NONE', *, *, #67, .T. ) ;
#233 = SHAPE_DEFINITION_REPRESENTATION ( #145, #187 ) ;
#234 = DIRECTION ( 'NONE',  ( 0.0000000000000000000, -1.000000000000000000, 0.0000000000000000000 ) ) ;
#235 = DIRECTION ( 'NONE',  ( -1.000000000000000000, -1.734723475976807480E-18, -0.0000000000000000000 ) ) ;
#236 = CONICAL_SURFACE ( 'NONE', #252, 3.113248654051846476, 0.5235987755983022574 ) ;
#237 = CARTESIAN_POINT ( 'NONE',  ( -279.6468250663724575, 0.0000000000000000000, 0.0000000000000000000 ) ) ;
#238 = CARTESIAN_POINT ( 'NONE',  ( -49.99999999999998579, 3.983737386261754817E-16, 0.0000000000000000000 ) ) ;
#239 = DIRECTION ( 'NONE',  ( -1.000000000000000000, -1.734723475976807480E-18, -0.0000000000000000000 ) ) ;
#240 = AXIS2_PLACEMENT_3D ( 'NONE', #278, #23, #273 ) ;
#241 = ADVANCED_FACE ( 'NONE', ( #47 ), #138, .F. ) ;
#242 = FACE_OUTER_BOUND ( 'NONE', #203, .T. ) ;
#243 = LINE ( 'NONE', #352, #88 ) ;
#244 = CARTESIAN_POINT ( 'NONE',  ( -1.300000000000023359, 4.828547719062459675E-16, 0.0000000000000000000 ) ) ;
#245 = VERTEX_POINT ( 'NONE', #51 ) ;
#246 = CONICAL_SURFACE ( 'NONE', #107, 4.997749999999994586, 0.7853981633974819188 ) ;
#247 = AXIS2_PLACEMENT_3D ( 'NONE', #275, #14, #253 ) ;
#248 = CARTESIAN_POINT ( 'NONE',  ( -49.99999999999998579, -3.113248654051846032, 0.0000000000000000000 ) ) ;
#249 = DIRECTION ( 'NONE',  ( -0.7071067811865536790, -0.7071067811865413555, 0.0000000000000000000 ) ) ;
#250 = CARTESIAN_POINT ( 'NONE',  ( -54.99999999999999289, 3.897001212462914462E-16, 0.0000000000000000000 ) ) ;
#251 = STYLED_ITEM ( 'NONE', ( #84 ), #187 ) ;
#252 = AXIS2_PLACEMENT_3D ( 'NONE', #36, #348, #327 ) ;
#253 = DIRECTION ( 'NONE',  ( 1.734723475976807480E-18, -1.000000000000000000, 0.0000000000000000000 ) ) ;
#254 = SURFACE_STYLE_USAGE ( .BOTH. , #340 ) ;
#255 = CYLINDRICAL_SURFACE ( 'NONE', #188, 2.499999999999999556 ) ;
#256 = APPLICATION_PROTOCOL_DEFINITION ( 'draft international standard', 'automotive_design', 1998, #175 ) ;
#257 = ORIENTED_EDGE ( 'NONE', *, *, #267, .F. ) ;
#258 = AXIS2_PLACEMENT_3D ( 'NONE', #94, #293, #123 ) ;
#259 = ORIENTED_EDGE ( 'NONE', *, *, #277, .T. ) ;
#260 = ORIENTED_EDGE ( 'NONE', *, *, #148, .F. ) ;
#261 = SURFACE_STYLE_USAGE ( .BOTH. , #173 ) ;
#262 = FACE_OUTER_BOUND ( 'NONE', #140, .T. ) ;
#263 = FACE_OUTER_BOUND ( 'NONE', #46, .T. ) ;
#264 = AXIS2_PLACEMENT_3D ( 'NONE', #250, #222, #335 ) ;
#265 = DIRECTION ( 'NONE',  ( 1.000000000000000000, 1.734723475976807480E-18, 0.0000000000000000000 ) ) ;
#266 = CARTESIAN_POINT ( 'NONE',  ( 0.0000000000000000000, 4.851099124250158364E-16, 0.0000000000000000000 ) ) ;
#267 = EDGE_CURVE ( 'NONE', #245, #285, #155, .T. ) ;
#268 = DIRECTION ( 'NONE',  ( -1.000000000000000000, -1.734723475976807480E-18, -0.0000000000000000000 ) ) ;
#269 = CARTESIAN_POINT ( 'NONE',  ( 0.0000000000000000000, 4.851099124250158364E-16, 0.0000000000000000000 ) ) ;
#270 = FILL_AREA_STYLE_COLOUR ( '', #40 ) ;
#271 = DIRECTION ( 'NONE',  ( -1.000000000000000000, -1.734723475976807480E-18, -0.0000000000000000000 ) ) ;
#272 = CIRCLE ( 'NONE', #115, 4.997749999999994586 ) ;
#273 = DIRECTION ( 'NONE',  ( 0.0000000000000000000, -1.000000000000000000, 0.0000000000000000000 ) ) ;
#274 = EDGE_LOOP ( 'NONE', ( #361, #301, #22, #367 ) ) ;
#275 = CARTESIAN_POINT ( 'NONE',  ( 3.207286866646523385E-18, 5.563755821763820545E-36, 0.0000000000000000000 ) ) ;
#276 = ORIENTED_EDGE ( 'NONE', *, *, #43, .T. ) ;
#277 = EDGE_CURVE ( 'NONE', #285, #245, #330, .T. ) ;
#278 = CARTESIAN_POINT ( 'NONE',  ( -279.6468250663724575, 0.0000000000000000000, 0.0000000000000000000 ) ) ;
#279 = PRESENTATION_LAYER_ASSIGNMENT (  '', '', ( #251 ) ) ;
#280 = EDGE_CURVE ( 'NONE', #308, #144, #300, .T. ) ;
#281 = ORIENTED_EDGE ( 'NONE', *, *, #121, .F. ) ;
#282 = AXIS2_PLACEMENT_3D ( 'NONE', #244, #219, #223 ) ;
#283 = DIRECTION ( 'NONE',  ( -1.000000000000000000, -1.734723475976807480E-18, -0.0000000000000000000 ) ) ;
#284 =( LENGTH_UNIT ( ) NAMED_UNIT ( * ) SI_UNIT ( .MILLI., .METRE. ) );
#285 = VERTEX_POINT ( 'NONE', #196 ) ;
#286 = VERTEX_POINT ( 'NONE', #16 ) ;
#287 =( NAMED_UNIT ( * ) PLANE_ANGLE_UNIT ( ) SI_UNIT ( $, .RADIAN. ) );
#288 = ORIENTED_EDGE ( 'NONE', *, *, #291, .F. ) ;
#289 = EDGE_LOOP ( 'NONE', ( #208, #232, #50, #57 ) ) ;
#290 = CARTESIAN_POINT ( 'NONE',  ( 0.0000000000000000000, 4.851099124250158364E-16, 0.0000000000000000000 ) ) ;
#291 = EDGE_CURVE ( 'NONE', #30, #364, #131, .T. ) ;
#292 =( GEOMETRIC_REPRESENTATION_CONTEXT ( 3 ) GLOBAL_UNCERTAINTY_ASSIGNED_CONTEXT ( ( #137 ) ) GLOBAL_UNIT_ASSIGNED_CONTEXT ( ( #56, #287, #225 ) ) REPRESENTATION_CONTEXT ( 'NONE', 'WORKASPACE' ) );
#293 = DIRECTION ( 'NONE',  ( -1.000000000000000000, -1.734723475976807480E-18, -0.0000000000000000000 ) ) ;
#294 = CIRCLE ( 'NONE', #264, 6.000000000000000000 ) ;
#295 = CARTESIAN_POINT ( 'NONE',  ( -1.300000000000023359, 4.997750000000000803, 6.120478540438684836E-16 ) ) ;
#296 = DIRECTION ( 'NONE',  ( -1.000000000000000000, -1.734723475976807480E-18, -0.0000000000000000000 ) ) ;
#297 = CARTESIAN_POINT ( 'NONE',  ( -49.99999999999998579, 3.113248654051846920, 5.580255397009259019E-16 ) ) ;
#298 = CONICAL_SURFACE ( 'NONE', #59, 4.997749999999994586, 0.7853981633974819188 ) ;
#299 = DIRECTION ( 'NONE',  ( 0.7071067811865238140, 0.7071067811865713315, 0.0000000000000000000 ) ) ;
#300 = LINE ( 'NONE', #45, #202 ) ;
#301 = ORIENTED_EDGE ( 'NONE', *, *, #277, .F. ) ;
#302 = DIRECTION ( 'NONE',  ( 0.0000000000000000000, -1.000000000000000000, 0.0000000000000000000 ) ) ;
#303 = CIRCLE ( 'NONE', #310, 3.697749999999999204 ) ;
#304 = CARTESIAN_POINT ( 'NONE',  ( -43.00000000000000711, 4.105168029580130820E-16, 0.0000000000000000000 ) ) ;
#305 = ADVANCED_FACE ( 'NONE', ( #134 ), #70, .F. ) ;
#306 = ADVANCED_FACE ( 'NONE', ( #220 ), #122, .T. ) ;
#307 = DIRECTION ( 'NONE',  ( 0.0000000000000000000, -1.000000000000000000, 0.0000000000000000000 ) ) ;
#308 = VERTEX_POINT ( 'NONE', #101 ) ;
#309 = ORIENTED_EDGE ( 'NONE', *, *, #177, .F. ) ;
#310 = AXIS2_PLACEMENT_3D ( 'NONE', #269, #239, #152 ) ;
#311 = STYLED_ITEM ( 'NONE', ( #336 ), #368 ) ;
#312 = SURFACE_STYLE_FILL_AREA ( #178 ) ;
#313 = CARTESIAN_POINT ( 'NONE',  ( -279.6468250663724575, -2.499999999999999556, 0.0000000000000000000 ) ) ;
#314 =( NAMED_UNIT ( * ) SI_UNIT ( $, .STERADIAN. ) SOLID_ANGLE_UNIT ( ) );
#315 = ORIENTED_EDGE ( 'NONE', *, *, #177, .T. ) ;
#316 = DIRECTION ( 'NONE',  ( -1.000000000000000000, -1.734723475976807480E-18, -0.0000000000000000000 ) ) ;
#317 =( GEOMETRIC_REPRESENTATION_CONTEXT ( 3 ) GLOBAL_UNCERTAINTY_ASSIGNED_CONTEXT ( ( #334 ) ) GLOBAL_UNIT_ASSIGNED_CONTEXT ( ( #113, #204, #314 ) ) REPRESENTATION_CONTEXT ( 'NONE', 'WORKASPACE' ) );
#318 = CARTESIAN_POINT ( 'NONE',  ( 0.0000000000000000000, 0.0000000000000000000, 0.0000000000000000000 ) ) ;
#319 = AXIS2_PLACEMENT_3D ( 'NONE', #159, #44, #362 ) ;
#320 = ORIENTED_EDGE ( 'NONE', *, *, #121, .T. ) ;
#321 = EDGE_CURVE ( 'NONE', #129, #308, #83, .T. ) ;
#322 = ADVANCED_FACE ( 'NONE', ( #332 ), #132, .T. ) ;
#323 = VERTEX_POINT ( 'NONE', #193 ) ;
#324 = DIRECTION ( 'NONE',  ( 0.0000000000000000000, -1.000000000000000000, 0.0000000000000000000 ) ) ;
#325 = CARTESIAN_POINT ( 'NONE',  ( -40.50225000000018127, 4.148497085201338498E-16, 0.0000000000000000000 ) ) ;
#326 = AXIS2_PLACEMENT_3D ( 'NONE', #290, #68, #62 ) ;
#327 = DIRECTION ( 'NONE',  ( 0.0000000000000000000, -1.000000000000000000, 0.0000000000000000000 ) ) ;
#328 = DIRECTION ( 'NONE',  ( 0.0000000000000000000, 1.000000000000000000, 0.0000000000000000000 ) ) ;
#329 = LINE ( 'NONE', #210, #5 ) ;
#330 = CIRCLE ( 'NONE', #183, 2.500000000000000000 ) ;
#331 = SURFACE_STYLE_FILL_AREA ( #217 ) ;
#332 = FACE_OUTER_BOUND ( 'NONE', #27, .T. ) ;
#333 = DIRECTION ( 'NONE',  ( -1.000000000000000000, -1.734723475976807480E-18, -0.0000000000000000000 ) ) ;
#334 = UNCERTAINTY_MEASURE_WITH_UNIT (LENGTH_MEASURE( 1.000000000000000082E-05 ), #113, 'distance_accuracy_value', 'NONE');
#335 = DIRECTION ( 'NONE',  ( 0.0000000000000000000, -1.000000000000000000, 0.0000000000000000000 ) ) ;
#336 = PRESENTATION_STYLE_ASSIGNMENT (( #254 ) ) ;
#337 = DIRECTION ( 'NONE',  ( 0.0000000000000000000, -1.000000000000000000, 0.0000000000000000000 ) ) ;
#338 = CIRCLE ( 'NONE', #228, 2.499999999999999112 ) ;
#339 = COLOUR_RGB ( '',0.5019607843137254832, 0.5019607843137254832, 0.5019607843137254832 ) ;
#340 = SURFACE_SIDE_STYLE ('',( #331 ) ) ;
#341 = ORIENTED_EDGE ( 'NONE', *, *, #28, .T. ) ;
#342 = CARTESIAN_POINT ( 'NONE',  ( -40.50225000000018127, 4.148497085201338498E-16, 0.0000000000000000000 ) ) ;
#343 = EDGE_CURVE ( 'NONE', #286, #308, #163, .T. ) ;
#344 = CARTESIAN_POINT ( 'NONE',  ( -279.6468250663724575, 4.997749999999997250, 6.120478540438680892E-16 ) ) ;
#345 = EDGE_CURVE ( 'NONE', #30, #85, #151, .T. ) ;
#346 = VERTEX_POINT ( 'NONE', #354 ) ;
#347 = DIRECTION ( 'NONE',  ( 1.734723475976807480E-18, -1.000000000000000000, 0.0000000000000000000 ) ) ;
#348 = DIRECTION ( 'NONE',  ( -1.000000000000000000, -1.734723475976807480E-18, -0.0000000000000000000 ) ) ;
#349 =( GEOMETRIC_REPRESENTATION_CONTEXT ( 3 ) GLOBAL_UNCERTAINTY_ASSIGNED_CONTEXT ( ( #20 ) ) GLOBAL_UNIT_ASSIGNED_CONTEXT ( ( #284, #366, #171 ) ) REPRESENTATION_CONTEXT ( 'NONE', 'WORKASPACE' ) );
#350 = FACE_BOUND ( 'NONE', #72, .T. ) ;
#351 = DIRECTION ( 'NONE',  ( -0.7071067811865536790, 0.7071067811865413555, 8.659560562354856437E-17 ) ) ;
#352 = CARTESIAN_POINT ( 'NONE',  ( -40.50225000000018127, -4.997749999999994586, 6.120478540438677934E-16 ) ) ;
#353 = EDGE_CURVE ( 'NONE', #359, #364, #294, .T. ) ;
#354 = CARTESIAN_POINT ( 'NONE',  ( -40.50225000000018127, 4.997749999999994586, 6.120478540438679906E-16 ) ) ;
#355 = ORIENTED_EDGE ( 'NONE', *, *, #190, .T. ) ;
#356 = VECTOR ( 'NONE', #181, 1000.000000000000227 ) ;
#357 = AXIS2_PLACEMENT_3D ( 'NONE', #109, #19, #74 ) ;
#358 = DIRECTION ( 'NONE',  ( -0.8660254037844369313, -0.5000000000000028866, 0.0000000000000000000 ) ) ;
#359 = VERTEX_POINT ( 'NONE', #77 ) ;
#360 = CARTESIAN_POINT ( 'NONE',  ( -49.99999999999998579, 3.983737386261754817E-16, 0.0000000000000000000 ) ) ;
#361 = ORIENTED_EDGE ( 'NONE', *, *, #190, .F. ) ;
#362 = DIRECTION ( 'NONE',  ( -1.734723475976807480E-18, 1.000000000000000000, 0.0000000000000000000 ) ) ;
#363 = DIRECTION ( 'NONE',  ( -1.000000000000000000, -1.734723475976807480E-18, -0.0000000000000000000 ) ) ;
#364 = VERTEX_POINT ( 'NONE', #198 ) ;
#365 = FACE_OUTER_BOUND ( 'NONE', #119, .T. ) ;
#366 =( NAMED_UNIT ( * ) PLANE_ANGLE_UNIT ( ) SI_UNIT ( $, .RADIAN. ) );
#367 = ORIENTED_EDGE ( 'NONE', *, *, #13, .T. ) ;
#368 = MANIFOLD_SOLID_BREP ( 'Grundkörper', #211 ) ;
#369 = APPLICATION_PROTOCOL_DEFINITION ( 'draft international standard', 'automotive_design', 1998, #37 ) ;
#370 = ORIENTED_EDGE ( 'NONE', *, *, #93, .F. ) ;
ENDSEC;
END-ISO-10303-21;
