ISO-10303-21;
HEADER;
FILE_DESCRIPTION (( 'STEP AP214' ),
    '1' );
FILE_NAME ('MTS.200.10.N.06 B SY.STEP',
    '2020-09-14T07:19:39',
    ( '' ),
    ( '' ),
    'SwSTEP 2.0',
    'SolidWorks 2019',
    '' );
FILE_SCHEMA (( 'AUTOMOTIVE_DESIGN' ));
ENDSEC;

DATA;
#1 = AXIS2_PLACEMENT_3D ( 'NONE', #369, #248, #363 ) ;
#2 = PRESENTATION_STYLE_ASSIGNMENT (( #247 ) ) ;
#3 = CARTESIAN_POINT ( 'NONE',  ( -20.10000000000000142, 2.102000000000001645, 2.137662274541971996 ) ) ;
#4 = VECTOR ( 'NONE', #180, 1000.000000000000000 ) ;
#5 = DIRECTION ( 'NONE',  ( 0.0000000000000000000, 0.0000000000000000000, 1.000000000000000000 ) ) ;
#6 = CIRCLE ( 'NONE', #1, 2.998000000000000220 ) ;
#7 = DIRECTION ( 'NONE',  ( 0.0000000000000000000, 0.0000000000000000000, -1.000000000000000000 ) ) ;
#8 = ORIENTED_EDGE ( 'NONE', *, *, #333, .F. ) ;
#9 = CARTESIAN_POINT ( 'NONE',  ( -1.000000000000000888, 0.0000000000000000000, 0.0000000000000000000 ) ) ;
#10 = EDGE_CURVE ( 'NONE', #346, #234, #82, .T. ) ;
#11 = ORIENTED_EDGE ( 'NONE', *, *, #222, .T. ) ;
#12 = DIRECTION ( 'NONE',  ( 0.0000000000000000000, 0.0000000000000000000, 1.000000000000000000 ) ) ;
#13 =( NAMED_UNIT ( * ) SI_UNIT ( $, .STERADIAN. ) SOLID_ANGLE_UNIT ( ) );
#14 = ORIENTED_EDGE ( 'NONE', *, *, #151, .T. ) ;
#15 = SURFACE_SIDE_STYLE ('',( #173 ) ) ;
#16 = FILL_AREA_STYLE ('',( #78 ) ) ;
#17 = ORIENTED_EDGE ( 'NONE', *, *, #10, .T. ) ;
#18 =( BOUNDED_CURVE ( )  B_SPLINE_CURVE ( 3, ( #224, #70, #361, #34 ),
 .UNSPECIFIED., .F., .T. ) 
 B_SPLINE_CURVE_WITH_KNOTS ( ( 4, 4 ),
 ( 2.347783104761918871, 3.935402202417666917 ),
 .UNSPECIFIED. ) 
 CURVE ( )  GEOMETRIC_REPRESENTATION_ITEM ( )  RATIONAL_B_SPLINE_CURVE ( ( 1.000000000000000000, 0.8007560595952855076, 0.8007560595952855076, 1.000000000000000000 ) ) 
 REPRESENTATION_ITEM ( '' )  );
#19 = VERTEX_POINT ( 'NONE', #27 ) ;
#20 = CARTESIAN_POINT ( 'NONE',  ( -192.5777022135752361, 0.0000000000000000000, 0.0000000000000000000 ) ) ;
#21 = PLANE ( 'NONE',  #50 ) ;
#22 = SHAPE_DEFINITION_REPRESENTATION ( #322, #81 ) ;
#23 = CARTESIAN_POINT ( 'NONE',  ( -36.00000000000000711, 3.671491103843759497E-16, 2.997999999999995779 ) ) ;
#24 = AXIS2_PLACEMENT_3D ( 'NONE', #213, #304, #127 ) ;
#25 = FACE_OUTER_BOUND ( 'NONE', #347, .T. ) ;
#26 = DIRECTION ( 'NONE',  ( -1.000000000000000000, -0.0000000000000000000, -0.0000000000000000000 ) ) ;
#27 = CARTESIAN_POINT ( 'NONE',  ( -47.99999999999998579, 6.429395695523604153E-16, -5.250000000000000000 ) ) ;
#28 = SURFACE_SIDE_STYLE ('',( #244 ) ) ;
#29 = CONICAL_SURFACE ( 'NONE', #252, 1.998000000000000220, 0.7853981633974479459 ) ;
#30 = ADVANCED_FACE ( 'NONE', ( #117 ), #297, .F. ) ;
#31 = DIRECTION ( 'NONE',  ( -0.7071067811865479058, 8.659560562354930393E-17, -0.7071067811865472397 ) ) ;
#32 = CARTESIAN_POINT ( 'NONE',  ( -47.99999999999998579, 0.0000000000000000000, 0.0000000000000000000 ) ) ;
#33 = FACE_OUTER_BOUND ( 'NONE', #199, .T. ) ;
#34 = CARTESIAN_POINT ( 'NONE',  ( -15.89999999999999325, 2.102000000000002089, 2.137662274541994201 ) ) ;
#35 = VECTOR ( 'NONE', #328, 1000.000000000000000 ) ;
#36 = ORIENTED_EDGE ( 'NONE', *, *, #260, .F. ) ;
#37 = ORIENTED_EDGE ( 'NONE', *, *, #113, .F. ) ;
#38 =( LENGTH_UNIT ( ) NAMED_UNIT ( * ) SI_UNIT ( .MILLI., .METRE. ) );
#39 = ORIENTED_EDGE ( 'NONE', *, *, #76, .T. ) ;
#40 = DIRECTION ( 'NONE',  ( 1.000000000000000000, 0.0000000000000000000, 0.0000000000000000000 ) ) ;
#41 = ORIENTED_EDGE ( 'NONE', *, *, #333, .T. ) ;
#42 = FACE_OUTER_BOUND ( 'NONE', #378, .T. ) ;
#43 = VERTEX_POINT ( 'NONE', #391 ) ;
#44 = ORIENTED_EDGE ( 'NONE', *, *, #184, .T. ) ;
#45 =( NAMED_UNIT ( * ) PLANE_ANGLE_UNIT ( ) SI_UNIT ( $, .RADIAN. ) );
#46 = VERTEX_POINT ( 'NONE', #88 ) ;
#47 = UNCERTAINTY_MEASURE_WITH_UNIT (LENGTH_MEASURE( 1.000000000000000082E-05 ), #38, 'distance_accuracy_value', 'NONE');
#48 = DIRECTION ( 'NONE',  ( -1.000000000000000000, -0.0000000000000000000, -0.0000000000000000000 ) ) ;
#49 = CLOSED_SHELL ( 'NONE', ( #249, #137, #177, #396, #71, #102, #126, #348, #379, #105, #362, #206, #30, #257 ) ) ;
#50 = AXIS2_PLACEMENT_3D ( 'NONE', #325, #119, #148 ) ;
#51 = AXIS2_PLACEMENT_3D ( 'NONE', #103, #343, #12 ) ;
#52 = DIRECTION ( 'NONE',  ( -0.0000000000000000000, -0.0000000000000000000, 1.000000000000000000 ) ) ;
#53 = CARTESIAN_POINT ( 'NONE',  ( 0.0000000000000000000, 0.0000000000000000000, 0.0000000000000000000 ) ) ;
#54 = ORIENTED_EDGE ( 'NONE', *, *, #10, .F. ) ;
#55 =( NAMED_UNIT ( * ) SI_UNIT ( $, .STERADIAN. ) SOLID_ANGLE_UNIT ( ) );
#56 = CIRCLE ( 'NONE', #287, 5.249999999999999112 ) ;
#57 = AXIS2_PLACEMENT_3D ( 'NONE', #375, #344, #194 ) ;
#58 = EDGE_CURVE ( 'NONE', #19, #63, #122, .T. ) ;
#59 = PLANE ( 'NONE',  #230 ) ;
#60 = LINE ( 'NONE', #364, #4 ) ;
#61 = DIRECTION ( 'NONE',  ( 0.7071067811865515695, -0.7071067811865435759, 0.0000000000000000000 ) ) ;
#62 = PRODUCT_RELATED_PRODUCT_CATEGORY ( 'part', '', ( #336 ) ) ;
#63 = VERTEX_POINT ( 'NONE', #210 ) ;
#64 = DIRECTION ( 'NONE',  ( 0.0000000000000000000, 0.0000000000000000000, -1.000000000000000000 ) ) ;
#65 = EDGE_CURVE ( 'NONE', #289, #268, #208, .T. ) ;
#66 = FACE_BOUND ( 'NONE', #178, .T. ) ;
#67 = AXIS2_PLACEMENT_3D ( 'NONE', #9, #145, #134 ) ;
#68 = LINE ( 'NONE', #275, #146 ) ;
#69 = CARTESIAN_POINT ( 'NONE',  ( -1.000000000000000888, 3.671491103843765414E-16, -2.998000000000000220 ) ) ;
#70 = CARTESIAN_POINT ( 'NONE',  ( -14.63101916134410097, 3.370980838655926792, -0.8898516383055912193 ) ) ;
#71 = ADVANCED_FACE ( 'NONE', ( #25 ), #21, .F. ) ;
#72 = LINE ( 'NONE', #176, #278 ) ;
#73 = CIRCLE ( 'NONE', #121, 2.997999999999995779 ) ;
#74 =( NAMED_UNIT ( * ) PLANE_ANGLE_UNIT ( ) SI_UNIT ( $, .RADIAN. ) );
#75 = EDGE_LOOP ( 'NONE', ( #36, #197, #41, #293 ) ) ;
#76 = EDGE_CURVE ( 'NONE', #234, #188, #152, .T. ) ;
#77 = EDGE_LOOP ( 'NONE', ( #83, #276, #365, #8 ) ) ;
#78 = FILL_AREA_STYLE_COLOUR ( '', #138 ) ;
#79 = EDGE_CURVE ( 'NONE', #271, #231, #73, .T. ) ;
#80 = AXIS2_PLACEMENT_3D ( 'NONE', #332, #283, #5 ) ;
#81 = ADVANCED_BREP_SHAPE_REPRESENTATION ( 'MTS.200.10.N.06 B SY', ( #327, #394 ), #371 ) ;
#82 = LINE ( 'NONE', #270, #212 ) ;
#83 = ORIENTED_EDGE ( 'NONE', *, *, #187, .T. ) ;
#84 = EDGE_CURVE ( 'NONE', #295, #398, #242, .T. ) ;
#85 = DIRECTION ( 'NONE',  ( 0.7071067811865435759, 0.7071067811865515695, 0.0000000000000000000 ) ) ;
#86 = AXIS2_PLACEMENT_3D ( 'NONE', #159, #310, #160 ) ;
#87 = DIRECTION ( 'NONE',  ( -1.000000000000000000, -0.0000000000000000000, -0.0000000000000000000 ) ) ;
#88 = CARTESIAN_POINT ( 'NONE',  ( 0.0000000000000000000, 0.0000000000000000000, 1.998000000000000220 ) ) ;
#89 = FACE_OUTER_BOUND ( 'NONE', #170, .T. ) ;
#90 = FACE_OUTER_BOUND ( 'NONE', #323, .T. ) ;
#91 = DIRECTION ( 'NONE',  ( -1.000000000000000000, -0.0000000000000000000, -0.0000000000000000000 ) ) ;
#92 = AXIS2_PLACEMENT_3D ( 'NONE', #205, #172, #201 ) ;
#93 = CARTESIAN_POINT ( 'NONE',  ( -50.00000000000000000, 5.249999999999999112, 0.0000000000000000000 ) ) ;
#94 = LINE ( 'NONE', #312, #233 ) ;
#95 = DIRECTION ( 'NONE',  ( 0.0000000000000000000, 0.0000000000000000000, 1.000000000000000000 ) ) ;
#96 = DIRECTION ( 'NONE',  ( 0.0000000000000000000, 0.0000000000000000000, 1.000000000000000000 ) ) ;
#97 = VERTEX_POINT ( 'NONE', #154 ) ;
#98 = VECTOR ( 'NONE', #31, 999.9999999999998863 ) ;
#99 = ORIENTED_EDGE ( 'NONE', *, *, #345, .F. ) ;
#100 = CIRCLE ( 'NONE', #321, 2.997999999999995779 ) ;
#101 = CARTESIAN_POINT ( 'NONE',  ( -36.00000000000000711, 0.0000000000000000000, -2.997999999999995779 ) ) ;
#102 = ADVANCED_FACE ( 'NONE', ( #358 ), #29, .T. ) ;
#103 = CARTESIAN_POINT ( 'NONE',  ( -49.99999999999998579, 0.0000000000000000000, 0.0000000000000000000 ) ) ;
#104 = CARTESIAN_POINT ( 'NONE',  ( -49.99999999999998579, 0.0000000000000000000, 5.249999999999999112 ) ) ;
#105 = ADVANCED_FACE ( 'NONE', ( #89 ), #273, .T. ) ;
#106 =( BOUNDED_CURVE ( )  B_SPLINE_CURVE ( 3, ( #3, #186, #124, #226 ),
 .UNSPECIFIED., .F., .T. ) 
 B_SPLINE_CURVE_WITH_KNOTS ( ( 4, 4 ),
 ( 5.489375758351715540, 7.076994856007457813 ),
 .UNSPECIFIED. ) 
 CURVE ( )  GEOMETRIC_REPRESENTATION_ITEM ( )  RATIONAL_B_SPLINE_CURVE ( ( 1.000000000000000000, 0.8007560595952869509, 0.8007560595952869509, 1.000000000000000000 ) ) 
 REPRESENTATION_ITEM ( '' )  );
#107 = MECHANICAL_DESIGN_GEOMETRIC_PRESENTATION_REPRESENTATION (  '', ( #281 ), #158 ) ;
#108 = ORIENTED_EDGE ( 'NONE', *, *, #151, .F. ) ;
#109 =( LENGTH_UNIT ( ) NAMED_UNIT ( * ) SI_UNIT ( .MILLI., .METRE. ) );
#110 = EDGE_CURVE ( 'NONE', #346, #234, #18, .T. ) ;
#111 = ORIENTED_EDGE ( 'NONE', *, *, #245, .F. ) ;
#112 = ORIENTED_EDGE ( 'NONE', *, *, #58, .F. ) ;
#113 = EDGE_CURVE ( 'NONE', #43, #231, #250, .T. ) ;
#114 = EDGE_LOOP ( 'NONE', ( #11, #190 ) ) ;
#115 = CONICAL_SURFACE ( 'NONE', #24, 2.997999999999995779, 0.08396876083546418734 ) ;
#116 = DIRECTION ( 'NONE',  ( 0.0000000000000000000, 0.0000000000000000000, 1.000000000000000000 ) ) ;
#117 = FACE_OUTER_BOUND ( 'NONE', #251, .T. ) ;
#118 = UNCERTAINTY_MEASURE_WITH_UNIT (LENGTH_MEASURE( 1.000000000000000082E-05 ), #209, 'distance_accuracy_value', 'NONE');
#119 = DIRECTION ( 'NONE',  ( -1.000000000000000000, 0.0000000000000000000, -0.0000000000000000000 ) ) ;
#120 = CARTESIAN_POINT ( 'NONE',  ( -47.99999999999999289, 1.988000000000000211, 0.0000000000000000000 ) ) ;
#121 = AXIS2_PLACEMENT_3D ( 'NONE', #267, #353, #330 ) ;
#122 = LINE ( 'NONE', #349, #360 ) ;
#123 = DIRECTION ( 'NONE',  ( 1.032573497605240992E-16, -1.000000000000000000, 0.0000000000000000000 ) ) ;
#124 = CARTESIAN_POINT ( 'NONE',  ( -21.36898083865590081, 3.370980838655923240, -0.8898516383055882217 ) ) ;
#125 = MECHANICAL_DESIGN_GEOMETRIC_PRESENTATION_REPRESENTATION (  '', ( #384 ), #370 ) ;
#126 = ADVANCED_FACE ( 'NONE', ( #130 ), #367, .T. ) ;
#127 = DIRECTION ( 'NONE',  ( 0.0000000000000000000, 0.0000000000000000000, -1.000000000000000000 ) ) ;
#128 = DIRECTION ( 'NONE',  ( 0.0000000000000000000, 0.0000000000000000000, 1.000000000000000000 ) ) ;
#129 = ORIENTED_EDGE ( 'NONE', *, *, #301, .T. ) ;
#130 = FACE_OUTER_BOUND ( 'NONE', #75, .T. ) ;
#131 = APPLICATION_CONTEXT ( 'automotive_design' ) ;
#132 = CARTESIAN_POINT ( 'NONE',  ( -192.5777022135752361, 0.0000000000000000000, 0.0000000000000000000 ) ) ;
#133 = ORIENTED_EDGE ( 'NONE', *, *, #113, .T. ) ;
#134 = DIRECTION ( 'NONE',  ( 0.0000000000000000000, 0.0000000000000000000, 1.000000000000000000 ) ) ;
#135 = DIRECTION ( 'NONE',  ( -1.000000000000000000, -0.0000000000000000000, -0.0000000000000000000 ) ) ;
#136 = PRODUCT_DEFINITION ( 'UNKNOWN', '', #179, #387 ) ;
#137 = ADVANCED_FACE ( 'NONE', ( #181 ), #315, .T. ) ;
#138 = COLOUR_RGB ( '',0.5019607843137254832, 0.5019607843137254832, 0.5019607843137254832 ) ;
#139 = ORIENTED_EDGE ( 'NONE', *, *, #58, .T. ) ;
#140 = PRODUCT_CONTEXT ( 'NONE', #131, 'mechanical' ) ;
#141 = EDGE_CURVE ( 'NONE', #97, #188, #338, .T. ) ;
#142 = EDGE_LOOP ( 'NONE', ( #195, #324, #144, #37 ) ) ;
#143 = AXIS2_PLACEMENT_3D ( 'NONE', #246, #123, #207 ) ;
#144 = ORIENTED_EDGE ( 'NONE', *, *, #79, .T. ) ;
#145 = DIRECTION ( 'NONE',  ( -1.000000000000000000, -0.0000000000000000000, -0.0000000000000000000 ) ) ;
#146 = VECTOR ( 'NONE', #279, 999.9999999999998863 ) ;
#147 = UNCERTAINTY_MEASURE_WITH_UNIT (LENGTH_MEASURE( 1.000000000000000082E-05 ), #109, 'distance_accuracy_value', 'NONE');
#148 = DIRECTION ( 'NONE',  ( -0.0000000000000000000, 0.0000000000000000000, 1.000000000000000000 ) ) ;
#149 = PRESENTATION_STYLE_ASSIGNMENT (( #290 ) ) ;
#150 = DIRECTION ( 'NONE',  ( 0.9964766944949047245, 1.027112761901248235E-17, 0.08387012178665424755 ) ) ;
#151 = EDGE_CURVE ( 'NONE', #289, #19, #259, .T. ) ;
#152 = LINE ( 'NONE', #239, #35 ) ;
#153 = VERTEX_POINT ( 'NONE', #155 ) ;
#154 = CARTESIAN_POINT ( 'NONE',  ( -20.10000000000000142, 2.102000000000001645, -2.137662274541976437 ) ) ;
#155 = CARTESIAN_POINT ( 'NONE',  ( -1.000000000000000888, 0.0000000000000000000, 2.998000000000000220 ) ) ;
#156 = FILL_AREA_STYLE ('',( #357 ) ) ;
#157 = CARTESIAN_POINT ( 'NONE',  ( -20.10000000000000142, 2.102000000000001645, -5.250000000000000000 ) ) ;
#158 =( GEOMETRIC_REPRESENTATION_CONTEXT ( 3 ) GLOBAL_UNCERTAINTY_ASSIGNED_CONTEXT ( ( #147 ) ) GLOBAL_UNIT_ASSIGNED_CONTEXT ( ( #109, #45, #13 ) ) REPRESENTATION_CONTEXT ( 'NONE', 'WORKASPACE' ) );
#159 = CARTESIAN_POINT ( 'NONE',  ( -192.5777022135752361, 0.0000000000000000000, 0.0000000000000000000 ) ) ;
#160 = DIRECTION ( 'NONE',  ( 0.0000000000000000000, 0.0000000000000000000, 1.000000000000000000 ) ) ;
#161 = FACE_OUTER_BOUND ( 'NONE', #211, .T. ) ;
#162 = ORIENTED_EDGE ( 'NONE', *, *, #65, .F. ) ;
#163 = COLOUR_RGB ( '',0.5019607843137254832, 0.5019607843137254832, 0.5019607843137254832 ) ;
#164 = CYLINDRICAL_SURFACE ( 'NONE', #185, 5.249999999999999112 ) ;
#165 = ORIENTED_EDGE ( 'NONE', *, *, #84, .F. ) ;
#166 = FACE_OUTER_BOUND ( 'NONE', #229, .T. ) ;
#167 = APPLICATION_CONTEXT ( 'automotive_design' ) ;
#168 = DIRECTION ( 'NONE',  ( 1.000000000000000000, 0.0000000000000000000, 0.0000000000000000000 ) ) ;
#169 = EDGE_CURVE ( 'NONE', #46, #153, #68, .T. ) ;
#170 = EDGE_LOOP ( 'NONE', ( #112, #44, #196, #376 ) ) ;
#171 = EDGE_CURVE ( 'NONE', #188, #97, #106, .T. ) ;
#172 = DIRECTION ( 'NONE',  ( -0.7071067811865513475, -0.7071067811865437980, 0.0000000000000000000 ) ) ;
#173 = SURFACE_STYLE_FILL_AREA ( #16 ) ;
#174 = CIRCLE ( 'NONE', #80, 5.250000000000000000 ) ;
#175 = CARTESIAN_POINT ( 'NONE',  ( -15.89999999999999325, 2.102000000000002089, 2.137662274541994201 ) ) ;
#176 = CARTESIAN_POINT ( 'NONE',  ( -192.5777022135752361, 3.671491103843762455E-16, -2.997999999999998000 ) ) ;
#177 = ADVANCED_FACE ( 'NONE', ( #66, #340 ), #337, .T. ) ;
#178 = EDGE_LOOP ( 'NONE', ( #317, #220, #39, #232 ) ) ;
#179 = PRODUCT_DEFINITION_FORMATION_WITH_SPECIFIED_SOURCE ( 'ANY', '', #336, .NOT_KNOWN. ) ;
#180 = DIRECTION ( 'NONE',  ( -1.000000000000000000, -0.0000000000000000000, -0.0000000000000000000 ) ) ;
#181 = FACE_OUTER_BOUND ( 'NONE', #142, .T. ) ;
#182 = DIRECTION ( 'NONE',  ( 0.9964766944949047245, 0.0000000000000000000, -0.08387012178665424755 ) ) ;
#183 = FACE_BOUND ( 'NONE', #373, .T. ) ;
#184 = EDGE_CURVE ( 'NONE', #19, #289, #174, .T. ) ;
#185 = AXIS2_PLACEMENT_3D ( 'NONE', #20, #288, #390 ) ;
#186 = CARTESIAN_POINT ( 'NONE',  ( -21.36898083865590081, 3.370980838655924128, 0.8898516383055857792 ) ) ;
#187 = EDGE_CURVE ( 'NONE', #153, #398, #6, .T. ) ;
#188 = VERTEX_POINT ( 'NONE', #189 ) ;
#189 = CARTESIAN_POINT ( 'NONE',  ( -20.10000000000000142, 2.102000000000001645, 2.137662274541971996 ) ) ;
#190 = ORIENTED_EDGE ( 'NONE', *, *, #383, .T. ) ;
#191 = VECTOR ( 'NONE', #48, 1000.000000000000000 ) ;
#192 = CIRCLE ( 'NONE', #235, 1.988000000000000211 ) ;
#193 = EDGE_CURVE ( 'NONE', #97, #346, #94, .T. ) ;
#194 = DIRECTION ( 'NONE',  ( 0.0000000000000000000, 0.0000000000000000000, 1.000000000000000000 ) ) ;
#195 = ORIENTED_EDGE ( 'NONE', *, *, #314, .F. ) ;
#196 = ORIENTED_EDGE ( 'NONE', *, *, #65, .T. ) ;
#197 = ORIENTED_EDGE ( 'NONE', *, *, #280, .T. ) ;
#198 = CIRCLE ( 'NONE', #309, 1.998000000000000220 ) ;
#199 = EDGE_LOOP ( 'NONE', ( #108, #393 ) ) ;
#200 = DIRECTION ( 'NONE',  ( 0.0000000000000000000, 0.0000000000000000000, 1.000000000000000000 ) ) ;
#201 = DIRECTION ( 'NONE',  ( 0.7071067811865437980, -0.7071067811865513475, 0.0000000000000000000 ) ) ;
#202 = ORIENTED_EDGE ( 'NONE', *, *, #193, .F. ) ;
#203 = CARTESIAN_POINT ( 'NONE',  ( -47.99999999999998579, 0.0000000000000000000, 5.250000000000000000 ) ) ;
#204 = ORIENTED_EDGE ( 'NONE', *, *, #285, .T. ) ;
#205 = CARTESIAN_POINT ( 'NONE',  ( -23.09999999999996945, 5.102000000000001201, -5.250000000000000000 ) ) ;
#206 = ADVANCED_FACE ( 'NONE', ( #161 ), #219, .F. ) ;
#207 = DIRECTION ( 'NONE',  ( 1.000000000000000000, 1.032573497605240992E-16, 0.0000000000000000000 ) ) ;
#208 = LINE ( 'NONE', #298, #191 ) ;
#209 =( LENGTH_UNIT ( ) NAMED_UNIT ( * ) SI_UNIT ( .MILLI., .METRE. ) );
#210 = CARTESIAN_POINT ( 'NONE',  ( -49.99999999999998579, 6.429395695523603167E-16, -5.249999999999999112 ) ) ;
#211 = EDGE_LOOP ( 'NONE', ( #17, #339 ) ) ;
#212 = VECTOR ( 'NONE', #52, 1000.000000000000000 ) ;
#213 = CARTESIAN_POINT ( 'NONE',  ( -36.00000000000000711, 0.0000000000000000000, 0.0000000000000000000 ) ) ;
#214 = VECTOR ( 'NONE', #150, 1000.000000000000227 ) ;
#215 = AXIS2_PLACEMENT_3D ( 'NONE', #302, #277, #269 ) ;
#216 = DIRECTION ( 'NONE',  ( -1.000000000000000000, -0.0000000000000000000, -0.0000000000000000000 ) ) ;
#217 = CIRCLE ( 'NONE', #51, 5.249999999999999112 ) ;
#218 = DIRECTION ( 'NONE',  ( 1.000000000000000000, 0.0000000000000000000, 0.0000000000000000000 ) ) ;
#219 = PLANE ( 'NONE',  #308 ) ;
#220 = ORIENTED_EDGE ( 'NONE', *, *, #110, .T. ) ;
#221 = FACE_OUTER_BOUND ( 'NONE', #114, .T. ) ;
#222 = EDGE_CURVE ( 'NONE', #268, #63, #56, .T. ) ;
#223 = DIRECTION ( 'NONE',  ( -0.0000000000000000000, -0.0000000000000000000, 1.000000000000000000 ) ) ;
#224 = CARTESIAN_POINT ( 'NONE',  ( -15.89999999999999325, 2.102000000000002089, -2.137662274541996421 ) ) ;
#225 = ORIENTED_EDGE ( 'NONE', *, *, #171, .F. ) ;
#226 = CARTESIAN_POINT ( 'NONE',  ( -20.10000000000000142, 2.102000000000001645, -2.137662274541976437 ) ) ;
#227 = ORIENTED_EDGE ( 'NONE', *, *, #169, .T. ) ;
#228 = CARTESIAN_POINT ( 'NONE',  ( -36.00000000000000711, 0.0000000000000000000, 2.997999999999995779 ) ) ;
#229 = EDGE_LOOP ( 'NONE', ( #380, #395, #326, #313 ) ) ;
#230 = AXIS2_PLACEMENT_3D ( 'NONE', #93, #218, #64 ) ;
#231 = VERTEX_POINT ( 'NONE', #381 ) ;
#232 = ORIENTED_EDGE ( 'NONE', *, *, #171, .T. ) ;
#233 = VECTOR ( 'NONE', #40, 1000.000000000000000 ) ;
#234 = VERTEX_POINT ( 'NONE', #175 ) ;
#235 = AXIS2_PLACEMENT_3D ( 'NONE', #237, #350, #95 ) ;
#236 = ORIENTED_EDGE ( 'NONE', *, *, #141, .F. ) ;
#237 = CARTESIAN_POINT ( 'NONE',  ( -47.99999999999998579, 0.0000000000000000000, 0.0000000000000000000 ) ) ;
#238 = CARTESIAN_POINT ( 'NONE',  ( -192.5777022135752361, 0.0000000000000000000, 0.0000000000000000000 ) ) ;
#239 = CARTESIAN_POINT ( 'NONE',  ( -192.5777022135752361, 2.101999999999982993, 2.137662274541995533 ) ) ;
#240 = DIRECTION ( 'NONE',  ( -1.000000000000000000, 0.0000000000000000000, -0.0000000000000000000 ) ) ;
#241 = CIRCLE ( 'NONE', #67, 2.998000000000000220 ) ;
#242 = LINE ( 'NONE', #303, #98 ) ;
#243 = AXIS2_PLACEMENT_3D ( 'NONE', #366, #135, #374 ) ;
#244 = SURFACE_STYLE_FILL_AREA ( #156 ) ;
#245 = EDGE_CURVE ( 'NONE', #284, #271, #299, .T. ) ;
#246 = CARTESIAN_POINT ( 'NONE',  ( -20.10000000000000142, 2.102000000000001645, -5.250000000000000000 ) ) ;
#247 = SURFACE_STYLE_USAGE ( .BOTH. , #28 ) ;
#248 = DIRECTION ( 'NONE',  ( -1.000000000000000000, -0.0000000000000000000, -0.0000000000000000000 ) ) ;
#249 = ADVANCED_FACE ( 'NONE', ( #42 ), #164, .T. ) ;
#250 = LINE ( 'NONE', #101, #286 ) ;
#251 = EDGE_LOOP ( 'NONE', ( #54, #202, #262, #311 ) ) ;
#252 = AXIS2_PLACEMENT_3D ( 'NONE', #53, #356, #389 ) ;
#253 = AXIS2_PLACEMENT_3D ( 'NONE', #305, #254, #7 ) ;
#254 = DIRECTION ( 'NONE',  ( 1.000000000000000000, 0.0000000000000000000, 0.0000000000000000000 ) ) ;
#255 =( NAMED_UNIT ( * ) SI_UNIT ( $, .STERADIAN. ) SOLID_ANGLE_UNIT ( ) );
#256 = DIRECTION ( 'NONE',  ( -1.000000000000000000, -0.0000000000000000000, -0.0000000000000000000 ) ) ;
#257 = ADVANCED_FACE ( 'NONE', ( #372 ), #352, .F. ) ;
#258 = CARTESIAN_POINT ( 'NONE',  ( -47.99999999999998579, 3.053044470274349346E-16, 1.988000000000000211 ) ) ;
#259 = CIRCLE ( 'NONE', #291, 5.250000000000000000 ) ;
#260 = EDGE_CURVE ( 'NONE', #398, #231, #72, .T. ) ;
#261 = CARTESIAN_POINT ( 'NONE',  ( -49.99999999999998579, 0.0000000000000000000, 0.0000000000000000000 ) ) ;
#262 = ORIENTED_EDGE ( 'NONE', *, *, #141, .T. ) ;
#263 = VECTOR ( 'NONE', #223, 1000.000000000000000 ) ;
#264 = ORIENTED_EDGE ( 'NONE', *, *, #314, .T. ) ;
#265 = PRESENTATION_LAYER_ASSIGNMENT (  '', '', ( #384 ) ) ;
#266 = CARTESIAN_POINT ( 'NONE',  ( -36.00000000000000711, 0.0000000000000000000, 0.0000000000000000000 ) ) ;
#267 = CARTESIAN_POINT ( 'NONE',  ( -36.00000000000000711, 0.0000000000000000000, 0.0000000000000000000 ) ) ;
#268 = VERTEX_POINT ( 'NONE', #104 ) ;
#269 = DIRECTION ( 'NONE',  ( 0.0000000000000000000, 0.0000000000000000000, 1.000000000000000000 ) ) ;
#270 = CARTESIAN_POINT ( 'NONE',  ( -15.89999999999999325, 2.102000000000002089, -5.250000000000000000 ) ) ;
#271 = VERTEX_POINT ( 'NONE', #228 ) ;
#272 = CARTESIAN_POINT ( 'NONE',  ( 0.0000000000000000000, 0.0000000000000000000, 0.0000000000000000000 ) ) ;
#273 = CYLINDRICAL_SURFACE ( 'NONE', #382, 5.249999999999999112 ) ;
#274 = DIRECTION ( 'NONE',  ( 0.0000000000000000000, 0.0000000000000000000, 1.000000000000000000 ) ) ;
#275 = CARTESIAN_POINT ( 'NONE',  ( 0.0000000000000000000, 0.0000000000000000000, 1.998000000000000220 ) ) ;
#276 = ORIENTED_EDGE ( 'NONE', *, *, #260, .T. ) ;
#277 = DIRECTION ( 'NONE',  ( -1.000000000000000000, -0.0000000000000000000, -0.0000000000000000000 ) ) ;
#278 = VECTOR ( 'NONE', #296, 1000.000000000000000 ) ;
#279 = DIRECTION ( 'NONE',  ( -0.7071067811865479058, 0.0000000000000000000, 0.7071067811865472397 ) ) ;
#280 = EDGE_CURVE ( 'NONE', #398, #153, #241, .T. ) ;
#281 = STYLED_ITEM ( 'NONE', ( #149 ), #81 ) ;
#282 = EDGE_LOOP ( 'NONE', ( #165, #329, #227, #319 ) ) ;
#283 = DIRECTION ( 'NONE',  ( -1.000000000000000000, -0.0000000000000000000, -0.0000000000000000000 ) ) ;
#284 = VERTEX_POINT ( 'NONE', #258 ) ;
#285 = EDGE_CURVE ( 'NONE', #43, #284, #292, .T. ) ;
#286 = VECTOR ( 'NONE', #182, 1000.000000000000227 ) ;
#287 = AXIS2_PLACEMENT_3D ( 'NONE', #261, #256, #342 ) ;
#288 = DIRECTION ( 'NONE',  ( -1.000000000000000000, -0.0000000000000000000, -0.0000000000000000000 ) ) ;
#289 = VERTEX_POINT ( 'NONE', #203 ) ;
#290 = SURFACE_STYLE_USAGE ( .BOTH. , #15 ) ;
#291 = AXIS2_PLACEMENT_3D ( 'NONE', #32, #216, #128 ) ;
#292 = CIRCLE ( 'NONE', #57, 1.988000000000000211 ) ;
#293 = ORIENTED_EDGE ( 'NONE', *, *, #301, .F. ) ;
#294 = APPLICATION_PROTOCOL_DEFINITION ( 'draft international standard', 'automotive_design', 1998, #167 ) ;
#295 = VERTEX_POINT ( 'NONE', #316 ) ;
#296 = DIRECTION ( 'NONE',  ( -1.000000000000000000, -0.0000000000000000000, -0.0000000000000000000 ) ) ;
#297 = PLANE ( 'NONE',  #143 ) ;
#298 = CARTESIAN_POINT ( 'NONE',  ( -192.5777022135752361, 0.0000000000000000000, 5.249999999999999112 ) ) ;
#299 = LINE ( 'NONE', #23, #214 ) ;
#300 = ORIENTED_EDGE ( 'NONE', *, *, #318, .F. ) ;
#301 = EDGE_CURVE ( 'NONE', #231, #271, #100, .T. ) ;
#302 = CARTESIAN_POINT ( 'NONE',  ( 0.0000000000000000000, 0.0000000000000000000, 0.0000000000000000000 ) ) ;
#303 = CARTESIAN_POINT ( 'NONE',  ( 0.0000000000000000000, 2.446844304696411960E-16, -1.998000000000000220 ) ) ;
#304 = DIRECTION ( 'NONE',  ( 1.000000000000000000, 0.0000000000000000000, 0.0000000000000000000 ) ) ;
#305 = CARTESIAN_POINT ( 'NONE',  ( -36.00000000000000711, 0.0000000000000000000, 0.0000000000000000000 ) ) ;
#306 = DIRECTION ( 'NONE',  ( 0.0000000000000000000, 0.0000000000000000000, 1.000000000000000000 ) ) ;
#307 = ORIENTED_EDGE ( 'NONE', *, *, #222, .F. ) ;
#308 = AXIS2_PLACEMENT_3D ( 'NONE', #334, #61, #85 ) ;
#309 = AXIS2_PLACEMENT_3D ( 'NONE', #272, #26, #274 ) ;
#310 = DIRECTION ( 'NONE',  ( -1.000000000000000000, -0.0000000000000000000, -0.0000000000000000000 ) ) ;
#311 = ORIENTED_EDGE ( 'NONE', *, *, #76, .F. ) ;
#312 = CARTESIAN_POINT ( 'NONE',  ( -192.5777022135752361, 2.101999999999982993, -2.137662274541995533 ) ) ;
#313 = ORIENTED_EDGE ( 'NONE', *, *, #169, .F. ) ;
#314 = EDGE_CURVE ( 'NONE', #284, #43, #192, .T. ) ;
#315 = CONICAL_SURFACE ( 'NONE', #253, 2.997999999999995779, 0.08396876083546418734 ) ;
#316 = CARTESIAN_POINT ( 'NONE',  ( 0.0000000000000000000, 3.059167704270088194E-16, -1.998000000000000220 ) ) ;
#317 = ORIENTED_EDGE ( 'NONE', *, *, #193, .T. ) ;
#318 = EDGE_CURVE ( 'NONE', #295, #46, #368, .T. ) ;
#319 = ORIENTED_EDGE ( 'NONE', *, *, #280, .F. ) ;
#320 = AXIS2_PLACEMENT_3D ( 'NONE', #132, #91, #306 ) ;
#321 = AXIS2_PLACEMENT_3D ( 'NONE', #266, #386, #116 ) ;
#322 = PRODUCT_DEFINITION_SHAPE ( 'NONE', 'NONE',  #136 ) ;
#323 = EDGE_LOOP ( 'NONE', ( #111, #335, #133, #129 ) ) ;
#324 = ORIENTED_EDGE ( 'NONE', *, *, #245, .T. ) ;
#325 = CARTESIAN_POINT ( 'NONE',  ( 0.0000000000000000000, 0.0000000000000000000, 0.0000000000000000000 ) ) ;
#326 = ORIENTED_EDGE ( 'NONE', *, *, #187, .F. ) ;
#327 = MANIFOLD_SOLID_BREP ( 'DIN 6535 - HB', #49 ) ;
#328 = DIRECTION ( 'NONE',  ( -1.000000000000000000, -0.0000000000000000000, -0.0000000000000000000 ) ) ;
#329 = ORIENTED_EDGE ( 'NONE', *, *, #318, .T. ) ;
#330 = DIRECTION ( 'NONE',  ( 0.0000000000000000000, 0.0000000000000000000, 1.000000000000000000 ) ) ;
#331 =( NAMED_UNIT ( * ) PLANE_ANGLE_UNIT ( ) SI_UNIT ( $, .RADIAN. ) );
#332 = CARTESIAN_POINT ( 'NONE',  ( -47.99999999999998579, 0.0000000000000000000, 0.0000000000000000000 ) ) ;
#333 = EDGE_CURVE ( 'NONE', #153, #271, #60, .T. ) ;
#334 = CARTESIAN_POINT ( 'NONE',  ( -15.89999999999999325, 2.102000000000002089, -5.250000000000000000 ) ) ;
#335 = ORIENTED_EDGE ( 'NONE', *, *, #285, .F. ) ;
#336 = PRODUCT ( 'MTS.200.10.N.06 B SY', 'MTS.200.10.N.06 B SY', '', ( #140 ) ) ;
#337 = CYLINDRICAL_SURFACE ( 'NONE', #86, 2.997999999999998000 ) ;
#338 = LINE ( 'NONE', #157, #263 ) ;
#339 = ORIENTED_EDGE ( 'NONE', *, *, #110, .F. ) ;
#340 = FACE_OUTER_BOUND ( 'NONE', #77, .T. ) ;
#341 = APPLICATION_PROTOCOL_DEFINITION ( 'draft international standard', 'automotive_design', 1998, #131 ) ;
#342 = DIRECTION ( 'NONE',  ( 0.0000000000000000000, 0.0000000000000000000, 1.000000000000000000 ) ) ;
#343 = DIRECTION ( 'NONE',  ( -1.000000000000000000, -0.0000000000000000000, -0.0000000000000000000 ) ) ;
#344 = DIRECTION ( 'NONE',  ( -1.000000000000000000, -0.0000000000000000000, -0.0000000000000000000 ) ) ;
#345 = EDGE_CURVE ( 'NONE', #46, #295, #198, .T. ) ;
#346 = VERTEX_POINT ( 'NONE', #359 ) ;
#347 = EDGE_LOOP ( 'NONE', ( #99, #300 ) ) ;
#348 = ADVANCED_FACE ( 'NONE', ( #90 ), #115, .T. ) ;
#349 = CARTESIAN_POINT ( 'NONE',  ( -192.5777022135752361, 6.429395695523603167E-16, -5.249999999999999112 ) ) ;
#350 = DIRECTION ( 'NONE',  ( -1.000000000000000000, -0.0000000000000000000, -0.0000000000000000000 ) ) ;
#351 = CARTESIAN_POINT ( 'NONE',  ( 0.0000000000000000000, 0.0000000000000000000, 0.0000000000000000000 ) ) ;
#352 = PLANE ( 'NONE',  #92 ) ;
#353 = DIRECTION ( 'NONE',  ( -1.000000000000000000, -0.0000000000000000000, -0.0000000000000000000 ) ) ;
#354 = DIRECTION ( 'NONE',  ( -0.0000000000000000000, 0.0000000000000000000, 1.000000000000000000 ) ) ;
#355 = CONICAL_SURFACE ( 'NONE', #243, 1.998000000000000220, 0.7853981633974479459 ) ;
#356 = DIRECTION ( 'NONE',  ( -1.000000000000000000, -0.0000000000000000000, -0.0000000000000000000 ) ) ;
#357 = FILL_AREA_STYLE_COLOUR ( '', #163 ) ;
#358 = FACE_OUTER_BOUND ( 'NONE', #282, .T. ) ;
#359 = CARTESIAN_POINT ( 'NONE',  ( -15.89999999999999325, 2.102000000000002089, -2.137662274541996421 ) ) ;
#360 = VECTOR ( 'NONE', #87, 1000.000000000000000 ) ;
#361 = CARTESIAN_POINT ( 'NONE',  ( -14.63101916134410097, 3.370980838655927236, 0.8898516383055889989 ) ) ;
#362 = ADVANCED_FACE ( 'NONE', ( #221 ), #59, .F. ) ;
#363 = DIRECTION ( 'NONE',  ( 0.0000000000000000000, 0.0000000000000000000, 1.000000000000000000 ) ) ;
#364 = CARTESIAN_POINT ( 'NONE',  ( -192.5777022135752361, 0.0000000000000000000, 2.997999999999998000 ) ) ;
#365 = ORIENTED_EDGE ( 'NONE', *, *, #79, .F. ) ;
#366 = CARTESIAN_POINT ( 'NONE',  ( 0.0000000000000000000, 0.0000000000000000000, 0.0000000000000000000 ) ) ;
#367 = CYLINDRICAL_SURFACE ( 'NONE', #320, 2.997999999999998000 ) ;
#368 = CIRCLE ( 'NONE', #215, 1.998000000000000220 ) ;
#369 = CARTESIAN_POINT ( 'NONE',  ( -1.000000000000000888, 0.0000000000000000000, 0.0000000000000000000 ) ) ;
#370 =( GEOMETRIC_REPRESENTATION_CONTEXT ( 3 ) GLOBAL_UNCERTAINTY_ASSIGNED_CONTEXT ( ( #118 ) ) GLOBAL_UNIT_ASSIGNED_CONTEXT ( ( #209, #331, #55 ) ) REPRESENTATION_CONTEXT ( 'NONE', 'WORKASPACE' ) );
#371 =( GEOMETRIC_REPRESENTATION_CONTEXT ( 3 ) GLOBAL_UNCERTAINTY_ASSIGNED_CONTEXT ( ( #47 ) ) GLOBAL_UNIT_ASSIGNED_CONTEXT ( ( #38, #74, #255 ) ) REPRESENTATION_CONTEXT ( 'NONE', 'WORKASPACE' ) );
#372 = FACE_OUTER_BOUND ( 'NONE', #385, .T. ) ;
#373 = EDGE_LOOP ( 'NONE', ( #204, #264 ) ) ;
#374 = DIRECTION ( 'NONE',  ( 0.0000000000000000000, 0.0000000000000000000, 1.000000000000000000 ) ) ;
#375 = CARTESIAN_POINT ( 'NONE',  ( -47.99999999999998579, 0.0000000000000000000, 0.0000000000000000000 ) ) ;
#376 = ORIENTED_EDGE ( 'NONE', *, *, #383, .F. ) ;
#377 = PRESENTATION_LAYER_ASSIGNMENT (  '', '', ( #281 ) ) ;
#378 = EDGE_LOOP ( 'NONE', ( #14, #139, #307, #162 ) ) ;
#379 = ADVANCED_FACE ( 'NONE', ( #33, #183 ), #392, .F. ) ;
#380 = ORIENTED_EDGE ( 'NONE', *, *, #345, .T. ) ;
#381 = CARTESIAN_POINT ( 'NONE',  ( -36.00000000000000711, 3.671491103843760976E-16, -2.997999999999995779 ) ) ;
#382 = AXIS2_PLACEMENT_3D ( 'NONE', #238, #397, #96 ) ;
#383 = EDGE_CURVE ( 'NONE', #63, #268, #217, .T. ) ;
#384 = STYLED_ITEM ( 'NONE', ( #2 ), #327 ) ;
#385 = EDGE_LOOP ( 'NONE', ( #236, #225 ) ) ;
#386 = DIRECTION ( 'NONE',  ( -1.000000000000000000, -0.0000000000000000000, -0.0000000000000000000 ) ) ;
#387 = PRODUCT_DEFINITION_CONTEXT ( 'detailed design', #167, 'design' ) ;
#388 = AXIS2_PLACEMENT_3D ( 'NONE', #120, #240, #354 ) ;
#389 = DIRECTION ( 'NONE',  ( 0.0000000000000000000, 0.0000000000000000000, 1.000000000000000000 ) ) ;
#390 = DIRECTION ( 'NONE',  ( 0.0000000000000000000, 0.0000000000000000000, 1.000000000000000000 ) ) ;
#391 = CARTESIAN_POINT ( 'NONE',  ( -47.99999999999998579, 0.0000000000000000000, -1.988000000000000211 ) ) ;
#392 = PLANE ( 'NONE',  #388 ) ;
#393 = ORIENTED_EDGE ( 'NONE', *, *, #184, .F. ) ;
#394 = AXIS2_PLACEMENT_3D ( 'NONE', #351, #200, #168 ) ;
#395 = ORIENTED_EDGE ( 'NONE', *, *, #84, .T. ) ;
#396 = ADVANCED_FACE ( 'NONE', ( #166 ), #355, .T. ) ;
#397 = DIRECTION ( 'NONE',  ( -1.000000000000000000, -0.0000000000000000000, -0.0000000000000000000 ) ) ;
#398 = VERTEX_POINT ( 'NONE', #69 ) ;
ENDSEC;
END-ISO-10303-21;
