ISO-10303-21;
HEADER;
FILE_DESCRIPTION (( 'STEP AP214' ),
    '1' );
FILE_NAME ('95-1-78465-10.STEP',
    '2021-01-13T13:03:21',
    ( '' ),
    ( '' ),
    'SwSTEP 2.0',
    'SolidWorks 2020',
    '' );
FILE_SCHEMA (( 'AUTOMOTIVE_DESIGN' ));
ENDSEC;

DATA;
#1 = DIRECTION ( 'NONE',  ( 5.143516556418884407E-17, -1.000000000000000000, 0.0000000000000000000 ) ) ;
#2 = PRODUCT ( '95-1-78465-10', '95-1-78465-10', '', ( #104 ) ) ;
#3 = CARTESIAN_POINT ( 'NONE',  ( 1.000000000000000888, 5.143516556418875162E-17, 0.0000000000000000000 ) ) ;
#4 = CARTESIAN_POINT ( 'NONE',  ( 86.00000000000000000, 4.423424238520240146E-15, 0.0000000000000000000 ) ) ;
#5 = CIRCLE ( 'NONE', #28, 4.849999999999990763 ) ;
#6 = AXIS2_PLACEMENT_3D ( 'NONE', #218, #93, #249 ) ;
#7 = LINE ( 'NONE', #118, #312 ) ;
#8 = ADVANCED_FACE ( 'NONE', ( #229, #114 ), #23, .T. ) ;
#9 = CARTESIAN_POINT ( 'NONE',  ( 60.00000000000000711, -4.849999999999987210, 5.939536975864651136E-16 ) ) ;
#10 = ORIENTED_EDGE ( 'NONE', *, *, #157, .T. ) ;
#11 = CYLINDRICAL_SURFACE ( 'NONE', #6, 4.999999999999992006 ) ;
#12 = ORIENTED_EDGE ( 'NONE', *, *, #281, .F. ) ;
#13 = CARTESIAN_POINT ( 'NONE',  ( 95.00000000000000000, 5.000000000000007105, 0.0000000000000000000 ) ) ;
#14 = EDGE_LOOP ( 'NONE', ( #369, #361 ) ) ;
#15 = CARTESIAN_POINT ( 'NONE',  ( 100.0000000000000000, 5.143516556418884111E-15, 0.0000000000000000000 ) ) ;
#16 = VERTEX_POINT ( 'NONE', #316 ) ;
#17 = DIRECTION ( 'NONE',  ( 1.000000000000000000, 5.143516556418884407E-17, -0.0000000000000000000 ) ) ;
#18 = ORIENTED_EDGE ( 'NONE', *, *, #145, .T. ) ;
#19 = DIRECTION ( 'NONE',  ( 0.0000000000000000000, -0.0000000000000000000, 1.000000000000000000 ) ) ;
#20 = AXIS2_PLACEMENT_3D ( 'NONE', #116, #89, #321 ) ;
#21 = VECTOR ( 'NONE', #149, 1000.000000000000000 ) ;
#22 = ORIENTED_EDGE ( 'NONE', *, *, #133, .T. ) ;
#23 = PLANE ( 'NONE',  #317 ) ;
#24 = EDGE_CURVE ( 'NONE', #180, #39, #34, .T. ) ;
#25 = CARTESIAN_POINT ( 'NONE',  ( 0.0000000000000000000, 0.0000000000000000000, 0.0000000000000000000 ) ) ;
#26 = ORIENTED_EDGE ( 'NONE', *, *, #206, .T. ) ;
#27 = PRODUCT_RELATED_PRODUCT_CATEGORY ( 'part', '', ( #2 ) ) ;
#28 = AXIS2_PLACEMENT_3D ( 'NONE', #190, #256, #259 ) ;
#29 = VECTOR ( 'NONE', #151, 1000.000000000000000 ) ;
#30 =( LENGTH_UNIT ( ) NAMED_UNIT ( * ) SI_UNIT ( .MILLI., .METRE. ) );
#31 = EDGE_LOOP ( 'NONE', ( #160, #272 ) ) ;
#32 = SURFACE_STYLE_FILL_AREA ( #36 ) ;
#33 = CARTESIAN_POINT ( 'NONE',  ( 1.285879139104719253E-16, 6.613940641538785865E-33, 0.0000000000000000000 ) ) ;
#34 = CIRCLE ( 'NONE', #308, 4.849999999999989875 ) ;
#35 = CIRCLE ( 'NONE', #353, 4.849999999999990763 ) ;
#36 = FILL_AREA_STYLE ('',( #87 ) ) ;
#37 = VECTOR ( 'NONE', #174, 1000.000000000000000 ) ;
#38 = LINE ( 'NONE', #177, #254 ) ;
#39 = VERTEX_POINT ( 'NONE', #108 ) ;
#40 = DIRECTION ( 'NONE',  ( 0.0000000000000000000, 1.000000000000000000, 0.0000000000000000000 ) ) ;
#41 = ORIENTED_EDGE ( 'NONE', *, *, #62, .F. ) ;
#42 = EDGE_CURVE ( 'NONE', #66, #274, #144, .T. ) ;
#43 = DIRECTION ( 'NONE',  ( 1.000000000000000000, 5.143516556418884407E-17, -0.0000000000000000000 ) ) ;
#44 = ORIENTED_EDGE ( 'NONE', *, *, #281, .T. ) ;
#45 = LINE ( 'NONE', #358, #168 ) ;
#46 = CONICAL_SURFACE ( 'NONE', #155, 4.999999999999992006, 0.7853981633974560506 ) ;
#47 = EDGE_LOOP ( 'NONE', ( #97, #252, #302, #69 ) ) ;
#48 = CARTESIAN_POINT ( 'NONE',  ( 86.00000000000000000, 4.849999999999994316, 0.0000000000000000000 ) ) ;
#49 = EDGE_LOOP ( 'NONE', ( #154, #330 ) ) ;
#50 = VERTEX_POINT ( 'NONE', #78 ) ;
#51 = APPLICATION_PROTOCOL_DEFINITION ( 'draft international standard', 'automotive_design', 1998, #202 ) ;
#52 = CARTESIAN_POINT ( 'NONE',  ( 1.000000000000000888, 5.143516556418875162E-17, 0.0000000000000000000 ) ) ;
#53 = CIRCLE ( 'NONE', #80, 3.999999999999976019 ) ;
#54 = VECTOR ( 'NONE', #258, 1000.000000000000000 ) ;
#55 = DIRECTION ( 'NONE',  ( 1.000000000000000000, 5.143516556418884407E-17, -0.0000000000000000000 ) ) ;
#56 = ADVANCED_FACE ( 'NONE', ( #77 ), #140, .T. ) ;
#57 = FACE_OUTER_BOUND ( 'NONE', #47, .T. ) ;
#58 = CARTESIAN_POINT ( 'NONE',  ( 95.00000000000000000, 4.886340728597939669E-15, 0.0000000000000000000 ) ) ;
#59 = FACE_OUTER_BOUND ( 'NONE', #217, .T. ) ;
#60 = DIRECTION ( 'NONE',  ( 5.143516556418884407E-17, -1.000000000000000000, 0.0000000000000000000 ) ) ;
#61 = AXIS2_PLACEMENT_3D ( 'NONE', #264, #146, #343 ) ;
#62 = EDGE_CURVE ( 'NONE', #50, #16, #137, .T. ) ;
#63 = DIRECTION ( 'NONE',  ( 4.336808689942024515E-17, -1.000000000000000000, 0.0000000000000000000 ) ) ;
#64 = DIRECTION ( 'NONE',  ( 0.0000000000000000000, 1.000000000000000000, 0.0000000000000000000 ) ) ;
#65 = DIRECTION ( 'NONE',  ( -1.000000000000000000, -5.143516556418884407E-17, 0.0000000000000000000 ) ) ;
#66 = VERTEX_POINT ( 'NONE', #334 ) ;
#67 = EDGE_CURVE ( 'NONE', #371, #307, #5, .T. ) ;
#68 = CARTESIAN_POINT ( 'NONE',  ( 100.0000000000000000, -4.999999999999986677, 6.123233995736756422E-16 ) ) ;
#69 = ORIENTED_EDGE ( 'NONE', *, *, #133, .F. ) ;
#70 = CYLINDRICAL_SURFACE ( 'NONE', #129, 4.999999999999997335 ) ;
#71 = ORIENTED_EDGE ( 'NONE', *, *, #344, .F. ) ;
#72 = DIRECTION ( 'NONE',  ( 1.000000000000000000, 5.143516556418884407E-17, -0.0000000000000000000 ) ) ;
#73 = CIRCLE ( 'NONE', #240, 4.849999999999989875 ) ;
#74 = ORIENTED_EDGE ( 'NONE', *, *, #226, .T. ) ;
#75 = PRODUCT_DEFINITION_CONTEXT ( 'detailed design', #135, 'design' ) ;
#76 = DIRECTION ( 'NONE',  ( 0.0000000000000000000, 0.0000000000000000000, 1.000000000000000000 ) ) ;
#77 = FACE_OUTER_BOUND ( 'NONE', #214, .T. ) ;
#78 = CARTESIAN_POINT ( 'NONE',  ( 1.000000000000000666, 4.999999999999992006, 0.0000000000000000000 ) ) ;
#79 = ADVANCED_FACE ( 'NONE', ( #364 ), #366, .T. ) ;
#80 = AXIS2_PLACEMENT_3D ( 'NONE', #86, #205, #1 ) ;
#81 = AXIS2_PLACEMENT_3D ( 'NONE', #25, #76, #84 ) ;
#82 = ADVANCED_FACE ( 'NONE', ( #57 ), #253, .T. ) ;
#83 = ORIENTED_EDGE ( 'NONE', *, *, #67, .T. ) ;
#84 = DIRECTION ( 'NONE',  ( 1.000000000000000000, 0.0000000000000000000, 0.0000000000000000000 ) ) ;
#85 = ORIENTED_EDGE ( 'NONE', *, *, #206, .F. ) ;
#86 = CARTESIAN_POINT ( 'NONE',  ( 1.285879139104719253E-16, 1.263247171774887738E-32, 0.0000000000000000000 ) ) ;
#87 = FILL_AREA_STYLE_COLOUR ( '', #220 ) ;
#88 = PRESENTATION_STYLE_ASSIGNMENT (( #237 ) ) ;
#89 = DIRECTION ( 'NONE',  ( 1.000000000000000000, 5.143516556418884407E-17, -0.0000000000000000000 ) ) ;
#90 = CLOSED_SHELL ( 'NONE', ( #82, #231, #213, #357, #56, #91, #79, #286, #370, #120, #8, #339, #215 ) ) ;
#91 = ADVANCED_FACE ( 'NONE', ( #112 ), #171, .T. ) ;
#92 = DIRECTION ( 'NONE',  ( 0.0000000000000000000, 1.000000000000000000, 0.0000000000000000000 ) ) ;
#93 = DIRECTION ( 'NONE',  ( 1.000000000000000000, 5.143516556418884407E-17, -0.0000000000000000000 ) ) ;
#94 = CARTESIAN_POINT ( 'NONE',  ( 95.00000000000000000, 4.531193156845207581E-15, 0.0000000000000000000 ) ) ;
#95 = ORIENTED_EDGE ( 'NONE', *, *, #285, .T. ) ;
#96 = DIRECTION ( 'NONE',  ( 0.0000000000000000000, -1.000000000000000000, 1.224646799147353454E-16 ) ) ;
#97 = ORIENTED_EDGE ( 'NONE', *, *, #42, .F. ) ;
#98 = CYLINDRICAL_SURFACE ( 'NONE', #193, 4.999999999999997335 ) ;
#99 = ORIENTED_EDGE ( 'NONE', *, *, #374, .T. ) ;
#100 = UNCERTAINTY_MEASURE_WITH_UNIT (LENGTH_MEASURE( 1.000000000000000082E-05 ), #30, 'distance_accuracy_value', 'NONE');
#101 = DIRECTION ( 'NONE',  ( 0.7071067811865420216, -0.7071067811865531239, 8.659560562355001884E-17 ) ) ;
#102 = EDGE_LOOP ( 'NONE', ( #12, #26, #95, #332 ) ) ;
#103 = PRESENTATION_LAYER_ASSIGNMENT (  '', '', ( #270 ) ) ;
#104 = PRODUCT_CONTEXT ( 'NONE', #202, 'mechanical' ) ;
#105 = CIRCLE ( 'NONE', #333, 5.000000000000002665 ) ;
#106 = ORIENTED_EDGE ( 'NONE', *, *, #267, .F. ) ;
#107 = SURFACE_SIDE_STYLE ('',( #360 ) ) ;
#108 = CARTESIAN_POINT ( 'NONE',  ( 86.00000000000000000, 4.849999999999994316, 0.0000000000000000000 ) ) ;
#109 = EDGE_CURVE ( 'NONE', #39, #180, #73, .T. ) ;
#110 = DIRECTION ( 'NONE',  ( 1.000000000000000000, 5.143516556418870232E-17, -0.0000000000000000000 ) ) ;
#111 =( NAMED_UNIT ( * ) SI_UNIT ( $, .STERADIAN. ) SOLID_ANGLE_UNIT ( ) );
#112 = FACE_OUTER_BOUND ( 'NONE', #14, .T. ) ;
#113 = CIRCLE ( 'NONE', #341, 4.999999999999992006 ) ;
#114 = FACE_BOUND ( 'NONE', #31, .T. ) ;
#115 = DIRECTION ( 'NONE',  ( -5.143516556418884407E-17, 1.000000000000000000, 0.0000000000000000000 ) ) ;
#116 = CARTESIAN_POINT ( 'NONE',  ( 100.0000000000000000, 5.143516556418884111E-15, 0.0000000000000000000 ) ) ;
#117 = CIRCLE ( 'NONE', #326, 4.999999999999991118 ) ;
#118 = CARTESIAN_POINT ( 'NONE',  ( 1.000000000000000666, 4.999999999999992006, 0.0000000000000000000 ) ) ;
#119 = MANIFOLD_SOLID_BREP ( 'Fase1', #90 ) ;
#120 = ADVANCED_FACE ( 'NONE', ( #373 ), #169, .T. ) ;
#121 = DIRECTION ( 'NONE',  ( 1.000000000000000000, 5.143516556418870232E-17, -0.0000000000000000000 ) ) ;
#122 = DIRECTION ( 'NONE',  ( 1.000000000000000000, 5.143516556418870232E-17, -0.0000000000000000000 ) ) ;
#123 =( GEOMETRIC_REPRESENTATION_CONTEXT ( 3 ) GLOBAL_UNCERTAINTY_ASSIGNED_CONTEXT ( ( #100 ) ) GLOBAL_UNIT_ASSIGNED_CONTEXT ( ( #30, #189, #111 ) ) REPRESENTATION_CONTEXT ( 'NONE', 'WORKASPACE' ) );
#124 = DIRECTION ( 'NONE',  ( 1.000000000000000000, 5.143516556418884407E-17, -0.0000000000000000000 ) ) ;
#125 = ORIENTED_EDGE ( 'NONE', *, *, #241, .F. ) ;
#126 = DIRECTION ( 'NONE',  ( 0.0000000000000000000, 1.000000000000000000, 0.0000000000000000000 ) ) ;
#127 = ORIENTED_EDGE ( 'NONE', *, *, #145, .F. ) ;
#128 = AXIS2_PLACEMENT_3D ( 'NONE', #323, #173, #200 ) ;
#129 = AXIS2_PLACEMENT_3D ( 'NONE', #15, #72, #349 ) ;
#130 = CARTESIAN_POINT ( 'NONE',  ( 100.0000000000000000, 5.094530684452990683E-15, 0.0000000000000000000 ) ) ;
#131 = EDGE_LOOP ( 'NONE', ( #152, #44, #106, #351 ) ) ;
#132 = DIRECTION ( 'NONE',  ( 1.000000000000000000, 5.143516556418884407E-17, -0.0000000000000000000 ) ) ;
#133 = EDGE_CURVE ( 'NONE', #274, #50, #7, .T. ) ;
#134 = FACE_OUTER_BOUND ( 'NONE', #102, .T. ) ;
#135 = APPLICATION_CONTEXT ( 'automotive_design' ) ;
#136 = COLOUR_RGB ( '',0.7921568627450980005, 0.8196078431372548767, 0.9333333333333333481 ) ;
#137 = LINE ( 'NONE', #194, #362 ) ;
#138 = VERTEX_POINT ( 'NONE', #242 ) ;
#139 =( LENGTH_UNIT ( ) NAMED_UNIT ( * ) SI_UNIT ( .MILLI., .METRE. ) );
#140 = SPHERICAL_SURFACE ( 'NONE', #191, 5.000000000000002665 ) ;
#141 = ORIENTED_EDGE ( 'NONE', *, *, #24, .T. ) ;
#142 = ORIENTED_EDGE ( 'NONE', *, *, #230, .F. ) ;
#143 = CARTESIAN_POINT ( 'NONE',  ( 1.000000000000000888, 5.143516556418875162E-17, 0.0000000000000000000 ) ) ;
#144 = CIRCLE ( 'NONE', #166, 3.999999999999976019 ) ;
#145 = EDGE_CURVE ( 'NONE', #227, #50, #113, .T. ) ;
#146 = DIRECTION ( 'NONE',  ( 1.000000000000000000, 5.143516556418884407E-17, -0.0000000000000000000 ) ) ;
#147 = SURFACE_SIDE_STYLE ('',( #32 ) ) ;
#148 = PRODUCT_DEFINITION_FORMATION_WITH_SPECIFIED_SOURCE ( 'ANY', '', #2, .NOT_KNOWN. ) ;
#149 = DIRECTION ( 'NONE',  ( 1.000000000000000000, 5.143516556418884407E-17, -0.0000000000000000000 ) ) ;
#150 = ORIENTED_EDGE ( 'NONE', *, *, #267, .T. ) ;
#151 = DIRECTION ( 'NONE',  ( 1.000000000000000000, 5.143516556418884407E-17, -0.0000000000000000000 ) ) ;
#152 = ORIENTED_EDGE ( 'NONE', *, *, #182, .T. ) ;
#153 = DIRECTION ( 'NONE',  ( 0.0000000000000000000, 1.000000000000000000, 0.0000000000000000000 ) ) ;
#154 = ORIENTED_EDGE ( 'NONE', *, *, #241, .T. ) ;
#155 = AXIS2_PLACEMENT_3D ( 'NONE', #3, #121, #238 ) ;
#156 = DIRECTION ( 'NONE',  ( 1.000000000000000000, 5.143516556418884407E-17, -0.0000000000000000000 ) ) ;
#157 = EDGE_CURVE ( 'NONE', #50, #227, #235, .T. ) ;
#158 = VERTEX_POINT ( 'NONE', #239 ) ;
#159 = DIRECTION ( 'NONE',  ( 5.143516556418884407E-17, -1.000000000000000000, 0.0000000000000000000 ) ) ;
#160 = ORIENTED_EDGE ( 'NONE', *, *, #67, .F. ) ;
#161 = EDGE_LOOP ( 'NONE', ( #277, #337, #22, #127 ) ) ;
#162 = AXIS2_PLACEMENT_3D ( 'NONE', #368, #234, #163 ) ;
#163 = DIRECTION ( 'NONE',  ( 0.0000000000000000000, 1.000000000000000000, 0.0000000000000000000 ) ) ;
#164 = ORIENTED_EDGE ( 'NONE', *, *, #245, .T. ) ;
#165 = ORIENTED_EDGE ( 'NONE', *, *, #344, .T. ) ;
#166 = AXIS2_PLACEMENT_3D ( 'NONE', #284, #287, #335 ) ;
#167 = CARTESIAN_POINT ( 'NONE',  ( 95.00000000000000000, 4.531193156845207581E-15, 0.0000000000000000000 ) ) ;
#168 = VECTOR ( 'NONE', #101, 999.9999999999998863 ) ;
#169 = CYLINDRICAL_SURFACE ( 'NONE', #20, 4.849999999999989875 ) ;
#170 = CARTESIAN_POINT ( 'NONE',  ( 60.00000000000000711, 3.086109933851330546E-15, 0.0000000000000000000 ) ) ;
#171 = PLANE ( 'NONE',  #199 ) ;
#172 = CIRCLE ( 'NONE', #221, 5.000000000000001776 ) ;
#173 = DIRECTION ( 'NONE',  ( 1.000000000000000000, 5.143516556418884407E-17, -0.0000000000000000000 ) ) ;
#174 = DIRECTION ( 'NONE',  ( 1.000000000000000000, 5.143516556418884407E-17, -0.0000000000000000000 ) ) ;
#175 = AXIS2_PLACEMENT_3D ( 'NONE', #52, #110, #314 ) ;
#176 = CIRCLE ( 'NONE', #348, 5.000000000000004441 ) ;
#177 = CARTESIAN_POINT ( 'NONE',  ( 100.0000000000000000, 5.000000000000002665, 0.0000000000000000000 ) ) ;
#178 = EDGE_LOOP ( 'NONE', ( #304, #74, #99, #232 ) ) ;
#179 = CARTESIAN_POINT ( 'NONE',  ( 60.00000000000000711, 3.086109933851330546E-15, 0.0000000000000000000 ) ) ;
#180 = VERTEX_POINT ( 'NONE', #318 ) ;
#181 = EDGE_CURVE ( 'NONE', #138, #16, #117, .T. ) ;
#182 = EDGE_CURVE ( 'NONE', #280, #158, #247, .T. ) ;
#183 = CARTESIAN_POINT ( 'NONE',  ( 100.0000000000000000, -4.999999999999992006, 6.123233995736763324E-16 ) ) ;
#184 = ORIENTED_EDGE ( 'NONE', *, *, #374, .F. ) ;
#185 = AXIS2_PLACEMENT_3D ( 'NONE', #186, #132, #64 ) ;
#186 = CARTESIAN_POINT ( 'NONE',  ( 100.0000000000000000, 5.143516556418884111E-15, 0.0000000000000000000 ) ) ;
#187 = EDGE_LOOP ( 'NONE', ( #71, #328, #209 ) ) ;
#188 = ORIENTED_EDGE ( 'NONE', *, *, #245, .F. ) ;
#189 =( NAMED_UNIT ( * ) PLANE_ANGLE_UNIT ( ) SI_UNIT ( $, .RADIAN. ) );
#190 = CARTESIAN_POINT ( 'NONE',  ( 60.00000000000000711, 3.086109933851330546E-15, 0.0000000000000000000 ) ) ;
#191 = AXIS2_PLACEMENT_3D ( 'NONE', #167, #19, #224 ) ;
#192 = FILL_AREA_STYLE ('',( #288 ) ) ;
#193 = AXIS2_PLACEMENT_3D ( 'NONE', #216, #208, #126 ) ;
#194 = CARTESIAN_POINT ( 'NONE',  ( 100.0000000000000000, 4.999999999999997335, 0.0000000000000000000 ) ) ;
#195 = APPLICATION_PROTOCOL_DEFINITION ( 'draft international standard', 'automotive_design', 1998, #135 ) ;
#196 = EDGE_LOOP ( 'NONE', ( #219, #85 ) ) ;
#197 = EDGE_CURVE ( 'NONE', #274, #66, #53, .T. ) ;
#198 = DIRECTION ( 'NONE',  ( 1.000000000000000000, 5.143516556418884407E-17, -0.0000000000000000000 ) ) ;
#199 = AXIS2_PLACEMENT_3D ( 'NONE', #33, #298, #60 ) ;
#200 = DIRECTION ( 'NONE',  ( 0.0000000000000000000, 1.000000000000000000, 0.0000000000000000000 ) ) ;
#201 = DIRECTION ( 'NONE',  ( 4.336808689942024515E-17, -1.000000000000000000, 0.0000000000000000000 ) ) ;
#202 = APPLICATION_CONTEXT ( 'automotive_design' ) ;
#203 = DIRECTION ( 'NONE',  ( 1.000000000000000000, 5.143516556418884407E-17, -0.0000000000000000000 ) ) ;
#204 = DIRECTION ( 'NONE',  ( 1.000000000000000000, 5.143516556418884407E-17, -0.0000000000000000000 ) ) ;
#205 = DIRECTION ( 'NONE',  ( -1.000000000000000000, -5.143516556418884407E-17, 0.0000000000000000000 ) ) ;
#206 = EDGE_CURVE ( 'NONE', #158, #280, #294, .T. ) ;
#207 = CARTESIAN_POINT ( 'NONE',  ( 95.00000000000000000, -4.999999999999997335, 6.123233995736768255E-16 ) ) ;
#208 = DIRECTION ( 'NONE',  ( 1.000000000000000000, 5.143516556418884407E-17, -0.0000000000000000000 ) ) ;
#209 = ORIENTED_EDGE ( 'NONE', *, *, #230, .T. ) ;
#210 = AXIS2_PLACEMENT_3D ( 'NONE', #265, #203, #293 ) ;
#211 = STYLED_ITEM ( 'NONE', ( #223 ), #233 ) ;
#212 = FACE_OUTER_BOUND ( 'NONE', #196, .T. ) ;
#213 = ADVANCED_FACE ( 'NONE', ( #59 ), #292, .T. ) ;
#214 = EDGE_LOOP ( 'NONE', ( #150, #165, #142 ) ) ;
#215 = ADVANCED_FACE ( 'NONE', ( #266 ), #46, .T. ) ;
#216 = CARTESIAN_POINT ( 'NONE',  ( 100.0000000000000000, 5.143516556418884111E-15, 0.0000000000000000000 ) ) ;
#217 = EDGE_LOOP ( 'NONE', ( #83, #291, #289, #184 ) ) ;
#218 = CARTESIAN_POINT ( 'NONE',  ( 100.0000000000000000, 5.143516556418884111E-15, 0.0000000000000000000 ) ) ;
#219 = ORIENTED_EDGE ( 'NONE', *, *, #182, .F. ) ;
#220 = COLOUR_RGB ( '',0.7921568627450980005, 0.8196078431372548767, 0.9333333333333333481 ) ;
#221 = AXIS2_PLACEMENT_3D ( 'NONE', #303, #352, #153 ) ;
#222 = ORIENTED_EDGE ( 'NONE', *, *, #181, .F. ) ;
#223 = PRESENTATION_STYLE_ASSIGNMENT (( #282 ) ) ;
#224 = DIRECTION ( 'NONE',  ( 0.0000000000000000000, 1.000000000000000000, 0.0000000000000000000 ) ) ;
#225 = CARTESIAN_POINT ( 'NONE',  ( 60.00000000000000711, 4.849999999999994316, 0.0000000000000000000 ) ) ;
#226 = EDGE_CURVE ( 'NONE', #307, #371, #35, .T. ) ;
#227 = VERTEX_POINT ( 'NONE', #325 ) ;
#228 = LINE ( 'NONE', #365, #54 ) ;
#229 = FACE_OUTER_BOUND ( 'NONE', #49, .T. ) ;
#230 = EDGE_CURVE ( 'NONE', #354, #262, #176, .T. ) ;
#231 = ADVANCED_FACE ( 'NONE', ( #327 ), #279, .T. ) ;
#232 = ORIENTED_EDGE ( 'NONE', *, *, #24, .F. ) ;
#233 = ADVANCED_BREP_SHAPE_REPRESENTATION ( '95-1-78465-10', ( #119, #81 ), #301 ) ;
#234 = DIRECTION ( 'NONE',  ( 0.0000000000000000000, -0.0000000000000000000, 1.000000000000000000 ) ) ;
#235 = CIRCLE ( 'NONE', #283, 4.999999999999992006 ) ;
#236 = DIRECTION ( 'NONE',  ( 0.7071067811865420216, 0.7071067811865531239, 0.0000000000000000000 ) ) ;
#237 = SURFACE_STYLE_USAGE ( .BOTH. , #147 ) ;
#238 = DIRECTION ( 'NONE',  ( -4.336808689942024515E-17, 1.000000000000000000, 0.0000000000000000000 ) ) ;
#239 = CARTESIAN_POINT ( 'NONE',  ( 86.00000000000000000, -4.999999999999989342, 6.123233995736762338E-16 ) ) ;
#240 = AXIS2_PLACEMENT_3D ( 'NONE', #4, #295, #297 ) ;
#241 = EDGE_CURVE ( 'NONE', #16, #138, #376, .T. ) ;
#242 = CARTESIAN_POINT ( 'NONE',  ( 60.00000000000000711, -4.999999999999987566, 6.123233995736755436E-16 ) ) ;
#243 = CARTESIAN_POINT ( 'NONE',  ( 95.00000000000000000, 4.531193156845207581E-15, 0.0000000000000000000 ) ) ;
#244 = ORIENTED_EDGE ( 'NONE', *, *, #62, .T. ) ;
#245 = EDGE_CURVE ( 'NONE', #227, #138, #350, .T. ) ;
#246 = FACE_BOUND ( 'NONE', #340, .T. ) ;
#247 = CIRCLE ( 'NONE', #210, 4.999999999999993783 ) ;
#248 = AXIS2_PLACEMENT_3D ( 'NONE', #48, #65, #159 ) ;
#249 = DIRECTION ( 'NONE',  ( 0.0000000000000000000, 1.000000000000000000, 0.0000000000000000000 ) ) ;
#250 = ORIENTED_EDGE ( 'NONE', *, *, #109, .T. ) ;
#251 = CARTESIAN_POINT ( 'NONE',  ( 100.0000000000000000, -4.849999999999984546, 5.939536975864650150E-16 ) ) ;
#252 = ORIENTED_EDGE ( 'NONE', *, *, #260, .T. ) ;
#253 = CONICAL_SURFACE ( 'NONE', #175, 4.999999999999992006, 0.7853981633974560506 ) ;
#254 = VECTOR ( 'NONE', #43, 1000.000000000000000 ) ;
#255 = PRODUCT_DEFINITION ( 'UNKNOWN', '', #148, #75 ) ;
#256 = DIRECTION ( 'NONE',  ( 1.000000000000000000, 5.143516556418884407E-17, -0.0000000000000000000 ) ) ;
#257 = DIRECTION ( 'NONE',  ( 1.000000000000000000, 5.143516556418884407E-17, -0.0000000000000000000 ) ) ;
#258 = DIRECTION ( 'NONE',  ( 1.000000000000000000, 5.143516556418884407E-17, -0.0000000000000000000 ) ) ;
#259 = DIRECTION ( 'NONE',  ( 0.0000000000000000000, 1.000000000000000000, 0.0000000000000000000 ) ) ;
#260 = EDGE_CURVE ( 'NONE', #66, #227, #45, .T. ) ;
#261 = AXIS2_PLACEMENT_3D ( 'NONE', #179, #156, #306 ) ;
#262 = VERTEX_POINT ( 'NONE', #130 ) ;
#263 = VERTEX_POINT ( 'NONE', #207 ) ;
#264 = CARTESIAN_POINT ( 'NONE',  ( 100.0000000000000000, 5.143516556418884111E-15, 0.0000000000000000000 ) ) ;
#265 = CARTESIAN_POINT ( 'NONE',  ( 86.00000000000000000, 4.423424238520240146E-15, 0.0000000000000000000 ) ) ;
#266 = FACE_OUTER_BOUND ( 'NONE', #161, .T. ) ;
#267 = EDGE_CURVE ( 'NONE', #354, #263, #322, .T. ) ;
#268 = DIRECTION ( 'NONE',  ( 1.000000000000000000, 5.143516556418870232E-17, -0.0000000000000000000 ) ) ;
#269 =( NAMED_UNIT ( * ) PLANE_ANGLE_UNIT ( ) SI_UNIT ( $, .RADIAN. ) );
#270 = STYLED_ITEM ( 'NONE', ( #88 ), #119 ) ;
#271 = CARTESIAN_POINT ( 'NONE',  ( 86.00000000000000000, 4.999999999999998224, 0.0000000000000000000 ) ) ;
#272 = ORIENTED_EDGE ( 'NONE', *, *, #226, .F. ) ;
#273 = FACE_OUTER_BOUND ( 'NONE', #359, .T. ) ;
#274 = VERTEX_POINT ( 'NONE', #299 ) ;
#275 = DIRECTION ( 'NONE',  ( -0.0000000000000000000, 0.0000000000000000000, -1.000000000000000000 ) ) ;
#276 = DIRECTION ( 'NONE',  ( 0.0000000000000000000, 1.000000000000000000, 0.0000000000000000000 ) ) ;
#277 = ORIENTED_EDGE ( 'NONE', *, *, #260, .F. ) ;
#278 = UNCERTAINTY_MEASURE_WITH_UNIT (LENGTH_MEASURE( 1.000000000000000082E-05 ), #342, 'distance_accuracy_value', 'NONE');
#279 = CYLINDRICAL_SURFACE ( 'NONE', #185, 4.999999999999992006 ) ;
#280 = VERTEX_POINT ( 'NONE', #271 ) ;
#281 = EDGE_CURVE ( 'NONE', #158, #263, #324, .T. ) ;
#282 = SURFACE_STYLE_USAGE ( .BOTH. , #107 ) ;
#283 = AXIS2_PLACEMENT_3D ( 'NONE', #143, #122, #63 ) ;
#284 = CARTESIAN_POINT ( 'NONE',  ( 1.285879139104719253E-16, 1.263247171774887738E-32, 0.0000000000000000000 ) ) ;
#285 = EDGE_CURVE ( 'NONE', #280, #354, #38, .T. ) ;
#286 = ADVANCED_FACE ( 'NONE', ( #134 ), #70, .T. ) ;
#287 = DIRECTION ( 'NONE',  ( -1.000000000000000000, -5.143516556418884407E-17, 0.0000000000000000000 ) ) ;
#288 = FILL_AREA_STYLE_COLOUR ( '', #136 ) ;
#289 = ORIENTED_EDGE ( 'NONE', *, *, #109, .F. ) ;
#290 = MECHANICAL_DESIGN_GEOMETRIC_PRESENTATION_REPRESENTATION (  '', ( #211 ), #123 ) ;
#291 = ORIENTED_EDGE ( 'NONE', *, *, #320, .T. ) ;
#292 = CYLINDRICAL_SURFACE ( 'NONE', #61, 4.849999999999989875 ) ;
#293 = DIRECTION ( 'NONE',  ( 0.0000000000000000000, 1.000000000000000000, 0.0000000000000000000 ) ) ;
#294 = CIRCLE ( 'NONE', #128, 4.999999999999993783 ) ;
#295 = DIRECTION ( 'NONE',  ( 1.000000000000000000, 5.143516556418884407E-17, -0.0000000000000000000 ) ) ;
#296 = EDGE_CURVE ( 'NONE', #263, #354, #172, .T. ) ;
#297 = DIRECTION ( 'NONE',  ( 0.0000000000000000000, 1.000000000000000000, 0.0000000000000000000 ) ) ;
#298 = DIRECTION ( 'NONE',  ( -1.000000000000000000, -5.143516556418884407E-17, 0.0000000000000000000 ) ) ;
#299 = CARTESIAN_POINT ( 'NONE',  ( -7.715274834628221840E-17, 3.999999999999976019, 0.0000000000000000000 ) ) ;
#300 =( GEOMETRIC_REPRESENTATION_CONTEXT ( 3 ) GLOBAL_UNCERTAINTY_ASSIGNED_CONTEXT ( ( #278 ) ) GLOBAL_UNIT_ASSIGNED_CONTEXT ( ( #342, #269, #347 ) ) REPRESENTATION_CONTEXT ( 'NONE', 'WORKASPACE' ) );
#301 =( GEOMETRIC_REPRESENTATION_CONTEXT ( 3 ) GLOBAL_UNCERTAINTY_ASSIGNED_CONTEXT ( ( #372 ) ) GLOBAL_UNIT_ASSIGNED_CONTEXT ( ( #139, #313, #367 ) ) REPRESENTATION_CONTEXT ( 'NONE', 'WORKASPACE' ) );
#302 = ORIENTED_EDGE ( 'NONE', *, *, #157, .F. ) ;
#303 = CARTESIAN_POINT ( 'NONE',  ( 95.00000000000000000, 4.886340728597939669E-15, 0.0000000000000000000 ) ) ;
#304 = ORIENTED_EDGE ( 'NONE', *, *, #320, .F. ) ;
#305 = DIRECTION ( 'NONE',  ( -1.000000000000000000, 0.0000000000000000000, 0.0000000000000000000 ) ) ;
#306 = DIRECTION ( 'NONE',  ( 0.0000000000000000000, 1.000000000000000000, 0.0000000000000000000 ) ) ;
#307 = VERTEX_POINT ( 'NONE', #9 ) ;
#308 = AXIS2_PLACEMENT_3D ( 'NONE', #315, #55, #311 ) ;
#309 = PRESENTATION_LAYER_ASSIGNMENT (  '', '', ( #211 ) ) ;
#310 = FACE_OUTER_BOUND ( 'NONE', #131, .T. ) ;
#311 = DIRECTION ( 'NONE',  ( 0.0000000000000000000, 1.000000000000000000, 0.0000000000000000000 ) ) ;
#312 = VECTOR ( 'NONE', #236, 999.9999999999998863 ) ;
#313 =( NAMED_UNIT ( * ) PLANE_ANGLE_UNIT ( ) SI_UNIT ( $, .RADIAN. ) );
#314 = DIRECTION ( 'NONE',  ( -4.336808689942024515E-17, 1.000000000000000000, 0.0000000000000000000 ) ) ;
#315 = CARTESIAN_POINT ( 'NONE',  ( 86.00000000000000000, 4.423424238520240146E-15, 0.0000000000000000000 ) ) ;
#316 = CARTESIAN_POINT ( 'NONE',  ( 60.00000000000000711, 4.999999999999994671, 0.0000000000000000000 ) ) ;
#317 = AXIS2_PLACEMENT_3D ( 'NONE', #338, #198, #115 ) ;
#318 = CARTESIAN_POINT ( 'NONE',  ( 86.00000000000000000, -4.849999999999985434, 5.939536975864650150E-16 ) ) ;
#319 = CARTESIAN_POINT ( 'NONE',  ( 1.000000000000000888, 5.143516556418875162E-17, 0.0000000000000000000 ) ) ;
#320 = EDGE_CURVE ( 'NONE', #307, #180, #355, .T. ) ;
#321 = DIRECTION ( 'NONE',  ( 0.0000000000000000000, 1.000000000000000000, 0.0000000000000000000 ) ) ;
#322 = CIRCLE ( 'NONE', #336, 5.000000000000001776 ) ;
#323 = CARTESIAN_POINT ( 'NONE',  ( 86.00000000000000000, 4.423424238520240146E-15, 0.0000000000000000000 ) ) ;
#324 = LINE ( 'NONE', #183, #37 ) ;
#325 = CARTESIAN_POINT ( 'NONE',  ( 1.000000000000001110, -4.999999999999992895, 6.123233995736759380E-16 ) ) ;
#326 = AXIS2_PLACEMENT_3D ( 'NONE', #170, #204, #92 ) ;
#327 = FACE_OUTER_BOUND ( 'NONE', #356, .T. ) ;
#328 = ORIENTED_EDGE ( 'NONE', *, *, #296, .T. ) ;
#329 = PLANE ( 'NONE',  #248 ) ;
#330 = ORIENTED_EDGE ( 'NONE', *, *, #181, .T. ) ;
#331 = DIRECTION ( 'NONE',  ( -6.298991087179802774E-33, 1.224646799147353207E-16, 1.000000000000000000 ) ) ;
#332 = ORIENTED_EDGE ( 'NONE', *, *, #296, .F. ) ;
#333 = AXIS2_PLACEMENT_3D ( 'NONE', #94, #331, #96 ) ;
#334 = CARTESIAN_POINT ( 'NONE',  ( 3.343285761672260690E-16, -3.999999999999976019, 5.510910596163069834E-16 ) ) ;
#335 = DIRECTION ( 'NONE',  ( 5.143516556418884407E-17, -1.000000000000000000, 0.0000000000000000000 ) ) ;
#336 = AXIS2_PLACEMENT_3D ( 'NONE', #58, #17, #276 ) ;
#337 = ORIENTED_EDGE ( 'NONE', *, *, #197, .F. ) ;
#338 = CARTESIAN_POINT ( 'NONE',  ( 60.00000000000000711, 4.999999999999994671, 0.0000000000000000000 ) ) ;
#339 = ADVANCED_FACE ( 'NONE', ( #273 ), #11, .T. ) ;
#340 = EDGE_LOOP ( 'NONE', ( #250, #141 ) ) ;
#341 = AXIS2_PLACEMENT_3D ( 'NONE', #319, #268, #201 ) ;
#342 =( LENGTH_UNIT ( ) NAMED_UNIT ( * ) SI_UNIT ( .MILLI., .METRE. ) );
#343 = DIRECTION ( 'NONE',  ( 0.0000000000000000000, 1.000000000000000000, 0.0000000000000000000 ) ) ;
#344 = EDGE_CURVE ( 'NONE', #263, #262, #105, .T. ) ;
#345 = CARTESIAN_POINT ( 'NONE',  ( 60.00000000000000711, 3.086109933851330546E-15, 0.0000000000000000000 ) ) ;
#346 = PRODUCT_DEFINITION_SHAPE ( 'NONE', 'NONE',  #255 ) ;
#347 =( NAMED_UNIT ( * ) SI_UNIT ( $, .STERADIAN. ) SOLID_ANGLE_UNIT ( ) );
#348 = AXIS2_PLACEMENT_3D ( 'NONE', #243, #275, #305 ) ;
#349 = DIRECTION ( 'NONE',  ( 0.0000000000000000000, 1.000000000000000000, 0.0000000000000000000 ) ) ;
#350 = LINE ( 'NONE', #68, #21 ) ;
#351 = ORIENTED_EDGE ( 'NONE', *, *, #285, .F. ) ;
#352 = DIRECTION ( 'NONE',  ( 1.000000000000000000, 5.143516556418884407E-17, -0.0000000000000000000 ) ) ;
#353 = AXIS2_PLACEMENT_3D ( 'NONE', #345, #124, #40 ) ;
#354 = VERTEX_POINT ( 'NONE', #13 ) ;
#355 = LINE ( 'NONE', #251, #29 ) ;
#356 = EDGE_LOOP ( 'NONE', ( #10, #164, #125, #41 ) ) ;
#357 = ADVANCED_FACE ( 'NONE', ( #310 ), #98, .T. ) ;
#358 = CARTESIAN_POINT ( 'NONE',  ( 1.000000000000001110, -4.999999999999992006, 6.123233995736756422E-16 ) ) ;
#359 = EDGE_LOOP ( 'NONE', ( #188, #18, #244, #222 ) ) ;
#360 = SURFACE_STYLE_FILL_AREA ( #192 ) ;
#361 = ORIENTED_EDGE ( 'NONE', *, *, #42, .T. ) ;
#362 = VECTOR ( 'NONE', #257, 1000.000000000000000 ) ;
#363 = SHAPE_DEFINITION_REPRESENTATION ( #346, #233 ) ;
#364 = FACE_OUTER_BOUND ( 'NONE', #187, .T. ) ;
#365 = CARTESIAN_POINT ( 'NONE',  ( 100.0000000000000000, 4.849999999999995204, 0.0000000000000000000 ) ) ;
#366 = SPHERICAL_SURFACE ( 'NONE', #162, 5.000000000000002665 ) ;
#367 =( NAMED_UNIT ( * ) SI_UNIT ( $, .STERADIAN. ) SOLID_ANGLE_UNIT ( ) );
#368 = CARTESIAN_POINT ( 'NONE',  ( 95.00000000000000000, 4.531193156845207581E-15, 0.0000000000000000000 ) ) ;
#369 = ORIENTED_EDGE ( 'NONE', *, *, #197, .T. ) ;
#370 = ADVANCED_FACE ( 'NONE', ( #246, #212 ), #329, .T. ) ;
#371 = VERTEX_POINT ( 'NONE', #225 ) ;
#372 = UNCERTAINTY_MEASURE_WITH_UNIT (LENGTH_MEASURE( 1.000000000000000082E-05 ), #139, 'distance_accuracy_value', 'NONE');
#373 = FACE_OUTER_BOUND ( 'NONE', #178, .T. ) ;
#374 = EDGE_CURVE ( 'NONE', #371, #39, #228, .T. ) ;
#375 = MECHANICAL_DESIGN_GEOMETRIC_PRESENTATION_REPRESENTATION (  '', ( #270 ), #300 ) ;
#376 = CIRCLE ( 'NONE', #261, 4.999999999999991118 ) ;
ENDSEC;
END-ISO-10303-21;
