ISO-10303-21;
HEADER;
FILE_DESCRIPTION (( 'STEP AP214' ),
    '1' );
FILE_NAME ('95-1-78455-10.STEP',
    '2021-01-13T12:56:20',
    ( '' ),
    ( '' ),
    'SwSTEP 2.0',
    'SolidWorks 2020',
    '' );
FILE_SCHEMA (( 'AUTOMOTIVE_DESIGN' ));
ENDSEC;

DATA;
#1 =( NAMED_UNIT ( * ) SI_UNIT ( $, .STERADIAN. ) SOLID_ANGLE_UNIT ( ) );
#2 = SURFACE_STYLE_FILL_AREA ( #103 ) ;
#3 = AXIS2_PLACEMENT_3D ( 'NONE', #101, #200, #182 ) ;
#4 = DIRECTION ( 'NONE',  ( 1.000000000000000000, 0.0000000000000000000, 0.0000000000000000000 ) ) ;
#5 = EDGE_CURVE ( 'NONE', #158, #24, #205, .T. ) ;
#6 = EDGE_LOOP ( 'NONE', ( #109, #174, #146, #139 ) ) ;
#7 = CARTESIAN_POINT ( 'NONE',  ( 0.5000000000000003331, -4.999999999999994671, 6.123233995736760366E-16 ) ) ;
#8 = CYLINDRICAL_SURFACE ( 'NONE', #39, 4.999999999999994671 ) ;
#9 = ADVANCED_FACE ( 'NONE', ( #61 ), #127, .T. ) ;
#10 = AXIS2_PLACEMENT_3D ( 'NONE', #15, #216, #66 ) ;
#11 = ORIENTED_EDGE ( 'NONE', *, *, #17, .T. ) ;
#12 = SURFACE_STYLE_FILL_AREA ( #94 ) ;
#13 = DIRECTION ( 'NONE',  ( 0.0000000000000000000, 1.000000000000000000, 0.0000000000000000000 ) ) ;
#14 = DIRECTION ( 'NONE',  ( 1.000000000000000000, -1.113315271952136800E-17, -0.0000000000000000000 ) ) ;
#15 = CARTESIAN_POINT ( 'NONE',  ( 66.00000000000000000, -7.347880794884102973E-16, 0.0000000000000000000 ) ) ;
#16 = CARTESIAN_POINT ( 'NONE',  ( 0.5000000000000004441, -5.566576359760657808E-18, 0.0000000000000000000 ) ) ;
#17 = EDGE_CURVE ( 'NONE', #41, #24, #212, .T. ) ;
#18 = ORIENTED_EDGE ( 'NONE', *, *, #173, .F. ) ;
#19 = APPLICATION_PROTOCOL_DEFINITION ( 'draft international standard', 'automotive_design', 1998, #122 ) ;
#20 = AXIS2_PLACEMENT_3D ( 'NONE', #168, #14, #102 ) ;
#21 = VERTEX_POINT ( 'NONE', #196 ) ;
#22 = EDGE_CURVE ( 'NONE', #24, #37, #25, .T. ) ;
#23 = DIRECTION ( 'NONE',  ( 1.000000000000000000, -1.113315271952130483E-17, -0.0000000000000000000 ) ) ;
#24 = VERTEX_POINT ( 'NONE', #7 ) ;
#25 = LINE ( 'NONE', #210, #197 ) ;
#26 = CARTESIAN_POINT ( 'NONE',  ( 66.00000000000000000, -7.347880794884102973E-16, 0.0000000000000000000 ) ) ;
#27 = AXIS2_PLACEMENT_3D ( 'NONE', #43, #82, #49 ) ;
#28 = CARTESIAN_POINT ( 'NONE',  ( 0.5000000000000004441, -5.566576359760657808E-18, 0.0000000000000000000 ) ) ;
#29 = SPHERICAL_SURFACE ( 'NONE', #180, 4.999999999999999112 ) ;
#30 = DIRECTION ( 'NONE',  ( -1.113315271952136800E-17, -1.000000000000000000, 0.0000000000000000000 ) ) ;
#31 = PRESENTATION_LAYER_ASSIGNMENT (  '', '', ( #208 ) ) ;
#32 = LINE ( 'NONE', #113, #187 ) ;
#33 =( NAMED_UNIT ( * ) PLANE_ANGLE_UNIT ( ) SI_UNIT ( $, .RADIAN. ) );
#34 = AXIS2_PLACEMENT_3D ( 'NONE', #134, #198, #30 ) ;
#35 = ORIENTED_EDGE ( 'NONE', *, *, #79, .F. ) ;
#36 = AXIS2_PLACEMENT_3D ( 'NONE', #154, #69, #4 ) ;
#37 = VERTEX_POINT ( 'NONE', #143 ) ;
#38 = ORIENTED_EDGE ( 'NONE', *, *, #95, .F. ) ;
#39 = AXIS2_PLACEMENT_3D ( 'NONE', #26, #96, #76 ) ;
#40 = LINE ( 'NONE', #176, #193 ) ;
#41 = VERTEX_POINT ( 'NONE', #73 ) ;
#42 = CARTESIAN_POINT ( 'NONE',  ( 0.5000000000000004441, -5.566576359760657808E-18, 0.0000000000000000000 ) ) ;
#43 = CARTESIAN_POINT ( 'NONE',  ( 61.00000000000000711, -1.347111479062088996E-15, 0.0000000000000000000 ) ) ;
#44 = UNCERTAINTY_MEASURE_WITH_UNIT (LENGTH_MEASURE( 1.000000000000000082E-05 ), #153, 'distance_accuracy_value', 'NONE');
#45 = DIRECTION ( 'NONE',  ( -2.168404344971011333E-17, -1.000000000000000000, 0.0000000000000000000 ) ) ;
#46 = CYLINDRICAL_SURFACE ( 'NONE', #10, 4.999999999999994671 ) ;
#47 = PRODUCT_DEFINITION_CONTEXT ( 'detailed design', #122, 'design' ) ;
#48 = CIRCLE ( 'NONE', #92, 4.499999999999983125 ) ;
#49 = DIRECTION ( 'NONE',  ( -1.000000000000000000, 0.0000000000000000000, 0.0000000000000000000 ) ) ;
#50 = FACE_OUTER_BOUND ( 'NONE', #209, .T. ) ;
#51 = EDGE_CURVE ( 'NONE', #21, #158, #40, .T. ) ;
#52 = SURFACE_SIDE_STYLE ('',( #2 ) ) ;
#53 = AXIS2_PLACEMENT_3D ( 'NONE', #84, #181, #135 ) ;
#54 = ORIENTED_EDGE ( 'NONE', *, *, #79, .T. ) ;
#55 = MANIFOLD_SOLID_BREP ( 'Fase1', #80 ) ;
#56 = EDGE_LOOP ( 'NONE', ( #195, #11, #72, #206 ) ) ;
#57 = FACE_OUTER_BOUND ( 'NONE', #6, .T. ) ;
#58 = FILL_AREA_STYLE_COLOUR ( '', #132 ) ;
#59 = AXIS2_PLACEMENT_3D ( 'NONE', #42, #110, #147 ) ;
#60 = CIRCLE ( 'NONE', #53, 4.999999999999998224 ) ;
#61 = FACE_OUTER_BOUND ( 'NONE', #56, .T. ) ;
#62 = FACE_OUTER_BOUND ( 'NONE', #90, .T. ) ;
#63 = AXIS2_PLACEMENT_3D ( 'NONE', #126, #125, #215 ) ;
#64 = CARTESIAN_POINT ( 'NONE',  ( 66.00000000000000000, -1.096615542872857545E-15, 0.0000000000000000000 ) ) ;
#65 = ADVANCED_FACE ( 'NONE', ( #57 ), #8, .T. ) ;
#66 = DIRECTION ( 'NONE',  ( 0.0000000000000000000, 1.000000000000000000, 0.0000000000000000000 ) ) ;
#67 = DIRECTION ( 'NONE',  ( 0.0000000000000000000, -0.0000000000000000000, 1.000000000000000000 ) ) ;
#68 = PRODUCT_RELATED_PRODUCT_CATEGORY ( 'part', '', ( #211 ) ) ;
#69 = DIRECTION ( 'NONE',  ( 0.0000000000000000000, 0.0000000000000000000, 1.000000000000000000 ) ) ;
#70 = EDGE_LOOP ( 'NONE', ( #35, #128, #104 ) ) ;
#71 =( GEOMETRIC_REPRESENTATION_CONTEXT ( 3 ) GLOBAL_UNCERTAINTY_ASSIGNED_CONTEXT ( ( #83 ) ) GLOBAL_UNIT_ASSIGNED_CONTEXT ( ( #172, #119, #105 ) ) REPRESENTATION_CONTEXT ( 'NONE', 'WORKASPACE' ) );
#72 = ORIENTED_EDGE ( 'NONE', *, *, #5, .F. ) ;
#73 = CARTESIAN_POINT ( 'NONE',  ( -7.793206903664933719E-17, -4.499999999999983125, 5.817072295949914607E-16 ) ) ;
#74 = ORIENTED_EDGE ( 'NONE', *, *, #148, .F. ) ;
#75 = SURFACE_STYLE_USAGE ( .BOTH. , #93 ) ;
#76 = DIRECTION ( 'NONE',  ( 0.0000000000000000000, 1.000000000000000000, 0.0000000000000000000 ) ) ;
#77 =( LENGTH_UNIT ( ) NAMED_UNIT ( * ) SI_UNIT ( .MILLI., .METRE. ) );
#78 = FACE_OUTER_BOUND ( 'NONE', #138, .T. ) ;
#79 = EDGE_CURVE ( 'NONE', #37, #123, #81, .T. ) ;
#80 = CLOSED_SHELL ( 'NONE', ( #9, #185, #152, #204, #162, #65, #106 ) ) ;
#81 = CIRCLE ( 'NONE', #63, 4.999999999999999112 ) ;
#82 = DIRECTION ( 'NONE',  ( 0.0000000000000000000, 0.0000000000000000000, -1.000000000000000000 ) ) ;
#83 = UNCERTAINTY_MEASURE_WITH_UNIT (LENGTH_MEASURE( 1.000000000000000082E-05 ), #172, 'distance_accuracy_value', 'NONE');
#84 = CARTESIAN_POINT ( 'NONE',  ( 61.00000000000000711, -6.791223158908034835E-16, 0.0000000000000000000 ) ) ;
#85 = COLOUR_RGB ( '',0.7921568627450980005, 0.8196078431372548767, 0.9333333333333333481 ) ;
#86 = FACE_OUTER_BOUND ( 'NONE', #70, .T. ) ;
#87 = APPLICATION_CONTEXT ( 'automotive_design' ) ;
#88 = AXIS2_PLACEMENT_3D ( 'NONE', #16, #116, #45 ) ;
#89 = ADVANCED_BREP_SHAPE_REPRESENTATION ( '95-1-78455-10', ( #55, #36 ), #157 ) ;
#90 = EDGE_LOOP ( 'NONE', ( #97, #171, #130, #74 ) ) ;
#91 = ORIENTED_EDGE ( 'NONE', *, *, #156, .T. ) ;
#92 = AXIS2_PLACEMENT_3D ( 'NONE', #169, #131, #203 ) ;
#93 = SURFACE_SIDE_STYLE ('',( #12 ) ) ;
#94 = FILL_AREA_STYLE ('',( #58 ) ) ;
#95 = EDGE_CURVE ( 'NONE', #188, #37, #60, .T. ) ;
#96 = DIRECTION ( 'NONE',  ( 1.000000000000000000, -1.113315271952136800E-17, -0.0000000000000000000 ) ) ;
#97 = ORIENTED_EDGE ( 'NONE', *, *, #17, .F. ) ;
#98 = CARTESIAN_POINT ( 'NONE',  ( 61.00000000000000711, -1.347111479062088996E-15, 0.0000000000000000000 ) ) ;
#99 = DIRECTION ( 'NONE',  ( 2.168404344971011333E-17, 1.000000000000000000, 0.0000000000000000000 ) ) ;
#100 = PRESENTATION_LAYER_ASSIGNMENT (  '', '', ( #199 ) ) ;
#101 = CARTESIAN_POINT ( 'NONE',  ( 61.00000000000000711, -1.347111479062088996E-15, 0.0000000000000000000 ) ) ;
#102 = DIRECTION ( 'NONE',  ( 0.0000000000000000000, 1.000000000000000000, 0.0000000000000000000 ) ) ;
#103 = FILL_AREA_STYLE ('',( #190 ) ) ;
#104 = ORIENTED_EDGE ( 'NONE', *, *, #173, .T. ) ;
#105 =( NAMED_UNIT ( * ) SI_UNIT ( $, .STERADIAN. ) SOLID_ANGLE_UNIT ( ) );
#106 = ADVANCED_FACE ( 'NONE', ( #62 ), #161, .T. ) ;
#107 = ORIENTED_EDGE ( 'NONE', *, *, #95, .T. ) ;
#108 = UNCERTAINTY_MEASURE_WITH_UNIT (LENGTH_MEASURE( 1.000000000000000082E-05 ), #77, 'distance_accuracy_value', 'NONE');
#109 = ORIENTED_EDGE ( 'NONE', *, *, #22, .F. ) ;
#110 = DIRECTION ( 'NONE',  ( 1.000000000000000000, -1.113315271952130483E-17, -0.0000000000000000000 ) ) ;
#111 = DIRECTION ( 'NONE',  ( 0.7071067811865394681, -0.7071067811865555663, 8.659560562355030233E-17 ) ) ;
#112 = ORIENTED_EDGE ( 'NONE', *, *, #5, .T. ) ;
#113 = CARTESIAN_POINT ( 'NONE',  ( 66.00000000000000000, 4.999999999999993783, 0.0000000000000000000 ) ) ;
#114 = SPHERICAL_SURFACE ( 'NONE', #3, 4.999999999999999112 ) ;
#115 = PLANE ( 'NONE',  #213 ) ;
#116 = DIRECTION ( 'NONE',  ( 1.000000000000000000, -1.113315271952130483E-17, -0.0000000000000000000 ) ) ;
#117 = PRODUCT_DEFINITION ( 'UNKNOWN', '', #175, #47 ) ;
#118 = DIRECTION ( 'NONE',  ( -1.000000000000000000, 1.113315271952136800E-17, 0.0000000000000000000 ) ) ;
#119 =( NAMED_UNIT ( * ) PLANE_ANGLE_UNIT ( ) SI_UNIT ( $, .RADIAN. ) );
#120 = PRESENTATION_STYLE_ASSIGNMENT (( #207 ) ) ;
#121 = ORIENTED_EDGE ( 'NONE', *, *, #142, .T. ) ;
#122 = APPLICATION_CONTEXT ( 'automotive_design' ) ;
#123 = VERTEX_POINT ( 'NONE', #64 ) ;
#124 = CIRCLE ( 'NONE', #27, 4.999999999999997335 ) ;
#125 = DIRECTION ( 'NONE',  ( 1.363417984238049307E-33, 1.224646799147353207E-16, 1.000000000000000000 ) ) ;
#126 = CARTESIAN_POINT ( 'NONE',  ( 61.00000000000000711, -1.347111479062088996E-15, 0.0000000000000000000 ) ) ;
#127 = CONICAL_SURFACE ( 'NONE', #59, 4.999999999999994671, 0.7853981633974596033 ) ;
#128 = ORIENTED_EDGE ( 'NONE', *, *, #133, .T. ) ;
#129 = CIRCLE ( 'NONE', #88, 4.999999999999994671 ) ;
#130 = ORIENTED_EDGE ( 'NONE', *, *, #51, .T. ) ;
#131 = DIRECTION ( 'NONE',  ( -1.000000000000000000, 1.113315271952136800E-17, 0.0000000000000000000 ) ) ;
#132 = COLOUR_RGB ( '',0.7921568627450980005, 0.8196078431372548767, 0.9333333333333333481 ) ;
#133 = EDGE_CURVE ( 'NONE', #37, #188, #202, .T. ) ;
#134 = CARTESIAN_POINT ( 'NONE',  ( -2.783288179880337609E-17, -4.424486608358010837E-34, 0.0000000000000000000 ) ) ;
#135 = DIRECTION ( 'NONE',  ( 0.0000000000000000000, 1.000000000000000000, 0.0000000000000000000 ) ) ;
#136 = ORIENTED_EDGE ( 'NONE', *, *, #22, .T. ) ;
#137 = APPLICATION_PROTOCOL_DEFINITION ( 'draft international standard', 'automotive_design', 1998, #87 ) ;
#138 = EDGE_LOOP ( 'NONE', ( #91, #121 ) ) ;
#139 = ORIENTED_EDGE ( 'NONE', *, *, #133, .F. ) ;
#140 = VECTOR ( 'NONE', #111, 1000.000000000000114 ) ;
#141 = EDGE_LOOP ( 'NONE', ( #107, #54, #18 ) ) ;
#142 = EDGE_CURVE ( 'NONE', #41, #21, #48, .T. ) ;
#143 = CARTESIAN_POINT ( 'NONE',  ( 61.00000000000000711, -5.000000000000000000, 6.123233995736764310E-16 ) ) ;
#144 =( NAMED_UNIT ( * ) PLANE_ANGLE_UNIT ( ) SI_UNIT ( $, .RADIAN. ) );
#145 = CIRCLE ( 'NONE', #34, 4.499999999999983125 ) ;
#146 = ORIENTED_EDGE ( 'NONE', *, *, #179, .T. ) ;
#147 = DIRECTION ( 'NONE',  ( 2.168404344971011333E-17, 1.000000000000000000, 0.0000000000000000000 ) ) ;
#148 = EDGE_CURVE ( 'NONE', #24, #158, #129, .T. ) ;
#149 = FACE_OUTER_BOUND ( 'NONE', #141, .T. ) ;
#150 = MECHANICAL_DESIGN_GEOMETRIC_PRESENTATION_REPRESENTATION (  '', ( #199 ), #186 ) ;
#151 = DIRECTION ( 'NONE',  ( 1.000000000000000000, -1.113315271952136800E-17, -0.0000000000000000000 ) ) ;
#152 = ADVANCED_FACE ( 'NONE', ( #149 ), #114, .T. ) ;
#153 =( LENGTH_UNIT ( ) NAMED_UNIT ( * ) SI_UNIT ( .MILLI., .METRE. ) );
#154 = CARTESIAN_POINT ( 'NONE',  ( 0.0000000000000000000, 0.0000000000000000000, 0.0000000000000000000 ) ) ;
#155 = PRODUCT_CONTEXT ( 'NONE', #87, 'mechanical' ) ;
#156 = EDGE_CURVE ( 'NONE', #21, #41, #145, .T. ) ;
#157 =( GEOMETRIC_REPRESENTATION_CONTEXT ( 3 ) GLOBAL_UNCERTAINTY_ASSIGNED_CONTEXT ( ( #44 ) ) GLOBAL_UNIT_ASSIGNED_CONTEXT ( ( #153, #33, #1 ) ) REPRESENTATION_CONTEXT ( 'NONE', 'WORKASPACE' ) );
#158 = VERTEX_POINT ( 'NONE', #165 ) ;
#159 = PRODUCT_DEFINITION_SHAPE ( 'NONE', 'NONE',  #117 ) ;
#160 = DIRECTION ( 'NONE',  ( 0.7071067811865394681, 0.7071067811865555663, 0.0000000000000000000 ) ) ;
#161 = CONICAL_SURFACE ( 'NONE', #184, 4.999999999999994671, 0.7853981633974596033 ) ;
#162 = ADVANCED_FACE ( 'NONE', ( #86 ), #29, .T. ) ;
#163 = DIRECTION ( 'NONE',  ( 1.000000000000000000, -1.113315271952136800E-17, -0.0000000000000000000 ) ) ;
#164 = CARTESIAN_POINT ( 'NONE',  ( 61.00000000000000711, 4.999999999999997335, 0.0000000000000000000 ) ) ;
#165 = CARTESIAN_POINT ( 'NONE',  ( 0.5000000000000005551, 4.999999999999994671, 0.0000000000000000000 ) ) ;
#166 = MECHANICAL_DESIGN_GEOMETRIC_PRESENTATION_REPRESENTATION (  '', ( #208 ), #71 ) ;
#167 = DIRECTION ( 'NONE',  ( -1.113315271952136800E-17, -1.000000000000000000, 0.0000000000000000000 ) ) ;
#168 = CARTESIAN_POINT ( 'NONE',  ( 61.00000000000000711, -6.791223158908034835E-16, 0.0000000000000000000 ) ) ;
#169 = CARTESIAN_POINT ( 'NONE',  ( -2.783288179880337609E-17, -4.424486608358010837E-34, 0.0000000000000000000 ) ) ;
#170 = SHAPE_DEFINITION_REPRESENTATION ( #159, #89 ) ;
#171 = ORIENTED_EDGE ( 'NONE', *, *, #156, .F. ) ;
#172 =( LENGTH_UNIT ( ) NAMED_UNIT ( * ) SI_UNIT ( .MILLI., .METRE. ) );
#173 = EDGE_CURVE ( 'NONE', #188, #123, #124, .T. ) ;
#174 = ORIENTED_EDGE ( 'NONE', *, *, #148, .T. ) ;
#175 = PRODUCT_DEFINITION_FORMATION_WITH_SPECIFIED_SOURCE ( 'ANY', '', #211, .NOT_KNOWN. ) ;
#176 = CARTESIAN_POINT ( 'NONE',  ( 0.5000000000000005551, 4.999999999999994671, 0.0000000000000000000 ) ) ;
#177 = CARTESIAN_POINT ( 'NONE',  ( 0.5000000000000003331, -4.999999999999994671, 6.123233995736760366E-16 ) ) ;
#178 =( NAMED_UNIT ( * ) SI_UNIT ( $, .STERADIAN. ) SOLID_ANGLE_UNIT ( ) );
#179 = EDGE_CURVE ( 'NONE', #158, #188, #32, .T. ) ;
#180 = AXIS2_PLACEMENT_3D ( 'NONE', #98, #67, #13 ) ;
#181 = DIRECTION ( 'NONE',  ( 1.000000000000000000, -1.113315271952136800E-17, -0.0000000000000000000 ) ) ;
#182 = DIRECTION ( 'NONE',  ( 0.0000000000000000000, 1.000000000000000000, 0.0000000000000000000 ) ) ;
#183 = CARTESIAN_POINT ( 'NONE',  ( -2.783288179880337609E-17, 3.098677236904645465E-34, 0.0000000000000000000 ) ) ;
#184 = AXIS2_PLACEMENT_3D ( 'NONE', #214, #201, #99 ) ;
#185 = ADVANCED_FACE ( 'NONE', ( #50 ), #46, .T. ) ;
#186 =( GEOMETRIC_REPRESENTATION_CONTEXT ( 3 ) GLOBAL_UNCERTAINTY_ASSIGNED_CONTEXT ( ( #108 ) ) GLOBAL_UNIT_ASSIGNED_CONTEXT ( ( #77, #144, #178 ) ) REPRESENTATION_CONTEXT ( 'NONE', 'WORKASPACE' ) );
#187 = VECTOR ( 'NONE', #151, 1000.000000000000000 ) ;
#188 = VERTEX_POINT ( 'NONE', #164 ) ;
#189 = AXIS2_PLACEMENT_3D ( 'NONE', #28, #23, #194 ) ;
#190 = FILL_AREA_STYLE_COLOUR ( '', #85 ) ;
#191 = PRESENTATION_STYLE_ASSIGNMENT (( #75 ) ) ;
#192 = ORIENTED_EDGE ( 'NONE', *, *, #179, .F. ) ;
#193 = VECTOR ( 'NONE', #160, 1000.000000000000114 ) ;
#194 = DIRECTION ( 'NONE',  ( -2.168404344971011333E-17, -1.000000000000000000, 0.0000000000000000000 ) ) ;
#195 = ORIENTED_EDGE ( 'NONE', *, *, #142, .F. ) ;
#196 = CARTESIAN_POINT ( 'NONE',  ( 2.226630543904259425E-17, 4.499999999999983125, 0.0000000000000000000 ) ) ;
#197 = VECTOR ( 'NONE', #163, 1000.000000000000000 ) ;
#198 = DIRECTION ( 'NONE',  ( -1.000000000000000000, 1.113315271952136800E-17, 0.0000000000000000000 ) ) ;
#199 = STYLED_ITEM ( 'NONE', ( #191 ), #55 ) ;
#200 = DIRECTION ( 'NONE',  ( 0.0000000000000000000, -0.0000000000000000000, 1.000000000000000000 ) ) ;
#201 = DIRECTION ( 'NONE',  ( 1.000000000000000000, -1.113315271952130483E-17, -0.0000000000000000000 ) ) ;
#202 = CIRCLE ( 'NONE', #20, 4.999999999999998224 ) ;
#203 = DIRECTION ( 'NONE',  ( -1.113315271952136800E-17, -1.000000000000000000, 0.0000000000000000000 ) ) ;
#204 = ADVANCED_FACE ( 'NONE', ( #78 ), #115, .T. ) ;
#205 = CIRCLE ( 'NONE', #189, 4.999999999999994671 ) ;
#206 = ORIENTED_EDGE ( 'NONE', *, *, #51, .F. ) ;
#207 = SURFACE_STYLE_USAGE ( .BOTH. , #52 ) ;
#208 = STYLED_ITEM ( 'NONE', ( #120 ), #89 ) ;
#209 = EDGE_LOOP ( 'NONE', ( #112, #136, #38, #192 ) ) ;
#210 = CARTESIAN_POINT ( 'NONE',  ( 66.00000000000000000, -4.999999999999995559, 6.123233995736760366E-16 ) ) ;
#211 = PRODUCT ( '95-1-78455-10', '95-1-78455-10', '', ( #155 ) ) ;
#212 = LINE ( 'NONE', #177, #140 ) ;
#213 = AXIS2_PLACEMENT_3D ( 'NONE', #183, #118, #167 ) ;
#214 = CARTESIAN_POINT ( 'NONE',  ( 0.5000000000000004441, -5.566576359760657808E-18, 0.0000000000000000000 ) ) ;
#215 = DIRECTION ( 'NONE',  ( 0.0000000000000000000, -1.000000000000000000, 1.224646799147353207E-16 ) ) ;
#216 = DIRECTION ( 'NONE',  ( 1.000000000000000000, -1.113315271952136800E-17, -0.0000000000000000000 ) ) ;
ENDSEC;
END-ISO-10303-21;
