ISO-10303-21;
HEADER;
FILE_DESCRIPTION (( 'STEP AP214' ),
    '1' );
FILE_NAME ('95-1-78435-1030075.STEP',
    '2021-01-12T16:13:48',
    ( '' ),
    ( '' ),
    'SwSTEP 2.0',
    'SolidWorks 2020',
    '' );
FILE_SCHEMA (( 'AUTOMOTIVE_DESIGN' ));
ENDSEC;

DATA;
#1 = LINE ( 'NONE', #143, #80 ) ;
#2 = DIRECTION ( 'NONE',  ( 4.336808689942021434E-17, 1.000000000000000000, 0.0000000000000000000 ) ) ;
#3 = CARTESIAN_POINT ( 'NONE',  ( -1.183825239175772803E-16, 5.605768787638311588E-33, 0.0000000000000000000 ) ) ;
#4 =( NAMED_UNIT ( * ) PLANE_ANGLE_UNIT ( ) SI_UNIT ( $, .RADIAN. ) );
#5 =( GEOMETRIC_REPRESENTATION_CONTEXT ( 3 ) GLOBAL_UNCERTAINTY_ASSIGNED_CONTEXT ( ( #209 ) ) GLOBAL_UNIT_ASSIGNED_CONTEXT ( ( #82, #4, #129 ) ) REPRESENTATION_CONTEXT ( 'NONE', 'WORKASPACE' ) );
#6 = APPLICATION_PROTOCOL_DEFINITION ( 'draft international standard', 'automotive_design', 1998, #111 ) ;
#7 = VERTEX_POINT ( 'NONE', #180 ) ;
#8 = SURFACE_STYLE_USAGE ( .BOTH. , #44 ) ;
#9 = EDGE_CURVE ( 'NONE', #71, #163, #49, .T. ) ;
#10 = ADVANCED_FACE ( 'NONE', ( #88 ), #213, .T. ) ;
#11 = UNCERTAINTY_MEASURE_WITH_UNIT (LENGTH_MEASURE( 1.000000000000000082E-05 ), #19, 'distance_accuracy_value', 'NONE');
#12 = DIRECTION ( 'NONE',  ( 0.0000000000000000000, 1.000000000000000000, -1.224646799147353454E-16 ) ) ;
#13 = ORIENTED_EDGE ( 'NONE', *, *, #182, .T. ) ;
#14 = ORIENTED_EDGE ( 'NONE', *, *, #81, .T. ) ;
#15 = AXIS2_PLACEMENT_3D ( 'NONE', #169, #41, #103 ) ;
#16 = AXIS2_PLACEMENT_3D ( 'NONE', #104, #73, #92 ) ;
#17 = ORIENTED_EDGE ( 'NONE', *, *, #126, .T. ) ;
#18 = CARTESIAN_POINT ( 'NONE',  ( 1.000000000000000888, -4.735300956703086528E-17, 0.0000000000000000000 ) ) ;
#19 =( LENGTH_UNIT ( ) NAMED_UNIT ( * ) SI_UNIT ( .MILLI., .METRE. ) );
#20 = MECHANICAL_DESIGN_GEOMETRIC_PRESENTATION_REPRESENTATION (  '', ( #57 ), #148 ) ;
#21 = DIRECTION ( 'NONE',  ( 0.0000000000000000000, -1.000000000000000000, 0.0000000000000000000 ) ) ;
#22 = FACE_OUTER_BOUND ( 'NONE', #214, .T. ) ;
#23 = FACE_OUTER_BOUND ( 'NONE', #117, .T. ) ;
#24 = FILL_AREA_STYLE_COLOUR ( '', #40 ) ;
#25 = DIRECTION ( 'NONE',  ( 1.000000000000000000, -4.735300956703098854E-17, -0.0000000000000000000 ) ) ;
#26 =( GEOMETRIC_REPRESENTATION_CONTEXT ( 3 ) GLOBAL_UNCERTAINTY_ASSIGNED_CONTEXT ( ( #84 ) ) GLOBAL_UNIT_ASSIGNED_CONTEXT ( ( #28, #157, #62 ) ) REPRESENTATION_CONTEXT ( 'NONE', 'WORKASPACE' ) );
#27 = DIRECTION ( 'NONE',  ( 0.7071067811865482389, -0.7071067811865469066, 8.659560562354927928E-17 ) ) ;
#28 =( LENGTH_UNIT ( ) NAMED_UNIT ( * ) SI_UNIT ( .MILLI., .METRE. ) );
#29 = DIRECTION ( 'NONE',  ( 1.000000000000000000, -4.735300956703098854E-17, -0.0000000000000000000 ) ) ;
#30 = ORIENTED_EDGE ( 'NONE', *, *, #174, .F. ) ;
#31 = EDGE_CURVE ( 'NONE', #130, #163, #79, .T. ) ;
#32 = DIRECTION ( 'NONE',  ( 0.0000000000000000000, 1.000000000000000000, 0.0000000000000000000 ) ) ;
#33 = VERTEX_POINT ( 'NONE', #52 ) ;
#34 = ORIENTED_EDGE ( 'NONE', *, *, #190, .T. ) ;
#35 = PRODUCT_RELATED_PRODUCT_CATEGORY ( 'part', '', ( #184 ) ) ;
#36 = CARTESIAN_POINT ( 'NONE',  ( 70.00000000000000000, -1.010897858525619741E-16, 0.0000000000000000000 ) ) ;
#37 = PRODUCT_DEFINITION_SHAPE ( 'NONE', 'NONE',  #77 ) ;
#38 = CARTESIAN_POINT ( 'NONE',  ( 1.000000000000000666, -4.999999999999995559, 6.123233995736761352E-16 ) ) ;
#39 = CIRCLE ( 'NONE', #102, 3.999999999999996447 ) ;
#40 = COLOUR_RGB ( '',0.7921568627450980005, 0.8196078431372548767, 0.9333333333333333481 ) ;
#41 = DIRECTION ( 'NONE',  ( -0.0000000000000000000, -0.0000000000000000000, -1.000000000000000000 ) ) ;
#42 = DIRECTION ( 'NONE',  ( -1.000000000000000000, 4.735300956703098854E-17, 0.0000000000000000000 ) ) ;
#43 = FACE_OUTER_BOUND ( 'NONE', #45, .T. ) ;
#44 = SURFACE_SIDE_STYLE ('',( #127 ) ) ;
#45 = EDGE_LOOP ( 'NONE', ( #85, #149, #101, #87 ) ) ;
#46 = CIRCLE ( 'NONE', #172, 4.999999999999995559 ) ;
#47 = PRESENTATION_LAYER_ASSIGNMENT (  '', '', ( #57 ) ) ;
#48 = CARTESIAN_POINT ( 'NONE',  ( -1.183825239175772803E-16, 5.605768787638292429E-33, 0.0000000000000000000 ) ) ;
#49 = LINE ( 'NONE', #112, #121 ) ;
#50 = ORIENTED_EDGE ( 'NONE', *, *, #174, .T. ) ;
#51 = AXIS2_PLACEMENT_3D ( 'NONE', #155, #189, #2 ) ;
#52 = CARTESIAN_POINT ( 'NONE',  ( -3.077945621857010866E-16, -3.999999999999996447, 5.510910596163084625E-16 ) ) ;
#53 = EDGE_CURVE ( 'NONE', #7, #146, #56, .T. ) ;
#54 = PRESENTATION_STYLE_ASSIGNMENT (( #120 ) ) ;
#55 =( NAMED_UNIT ( * ) SI_UNIT ( $, .STERADIAN. ) SOLID_ANGLE_UNIT ( ) );
#56 = CIRCLE ( 'NONE', #206, 4.999999999999999112 ) ;
#57 = STYLED_ITEM ( 'NONE', ( #54 ), #178 ) ;
#58 = ADVANCED_FACE ( 'NONE', ( #210 ), #89, .T. ) ;
#59 = CARTESIAN_POINT ( 'NONE',  ( -1.183825239175772803E-16, 5.605768787638292429E-33, 0.0000000000000000000 ) ) ;
#60 = FILL_AREA_STYLE ('',( #208 ) ) ;
#61 = LINE ( 'NONE', #191, #198 ) ;
#62 =( NAMED_UNIT ( * ) SI_UNIT ( $, .STERADIAN. ) SOLID_ANGLE_UNIT ( ) );
#63 = EDGE_CURVE ( 'NONE', #146, #145, #46, .T. ) ;
#64 = ORIENTED_EDGE ( 'NONE', *, *, #63, .F. ) ;
#65 = MECHANICAL_DESIGN_GEOMETRIC_PRESENTATION_REPRESENTATION (  '', ( #68 ), #5 ) ;
#66 = DIRECTION ( 'NONE',  ( 1.000000000000000000, -4.735300956703082214E-17, -0.0000000000000000000 ) ) ;
#67 = CONICAL_SURFACE ( 'NONE', #51, 4.999999999999995559, 0.7853981633974473908 ) ;
#68 = STYLED_ITEM ( 'NONE', ( #109 ), #116 ) ;
#69 = DIRECTION ( 'NONE',  ( 0.0000000000000000000, 1.000000000000000000, 0.0000000000000000000 ) ) ;
#70 = APPLICATION_CONTEXT ( 'automotive_design' ) ;
#71 = VERTEX_POINT ( 'NONE', #83 ) ;
#72 = DIRECTION ( 'NONE',  ( 4.336808689942021434E-17, 1.000000000000000000, 0.0000000000000000000 ) ) ;
#73 = DIRECTION ( 'NONE',  ( 1.000000000000000000, -4.735300956703098854E-17, -0.0000000000000000000 ) ) ;
#74 = DIRECTION ( 'NONE',  ( 1.000000000000000000, -4.735300956703082214E-17, -0.0000000000000000000 ) ) ;
#75 = DIRECTION ( 'NONE',  ( -4.735300956703098854E-17, -1.000000000000000000, 0.0000000000000000000 ) ) ;
#76 = DIRECTION ( 'NONE',  ( -4.336808689942021434E-17, -1.000000000000000000, 0.0000000000000000000 ) ) ;
#77 = PRODUCT_DEFINITION ( 'UNKNOWN', '', #162, #195 ) ;
#78 = SHAPE_DEFINITION_REPRESENTATION ( #37, #116 ) ;
#79 = CIRCLE ( 'NONE', #185, 4.999999999999995559 ) ;
#80 = VECTOR ( 'NONE', #27, 999.9999999999998863 ) ;
#81 = EDGE_CURVE ( 'NONE', #71, #33, #94, .T. ) ;
#82 =( LENGTH_UNIT ( ) NAMED_UNIT ( * ) SI_UNIT ( .MILLI., .METRE. ) );
#83 = CARTESIAN_POINT ( 'NONE',  ( 7.102951435054651363E-17, 3.999999999999996447, 0.0000000000000000000 ) ) ;
#84 = UNCERTAINTY_MEASURE_WITH_UNIT (LENGTH_MEASURE( 1.000000000000000082E-05 ), #28, 'distance_accuracy_value', 'NONE');
#85 = ORIENTED_EDGE ( 'NONE', *, *, #176, .F. ) ;
#86 = AXIS2_PLACEMENT_3D ( 'NONE', #152, #74, #76 ) ;
#87 = ORIENTED_EDGE ( 'NONE', *, *, #53, .F. ) ;
#88 = FACE_OUTER_BOUND ( 'NONE', #161, .T. ) ;
#89 = CYLINDRICAL_SURFACE ( 'NONE', #132, 4.999999999999995559 ) ;
#90 = DIRECTION ( 'NONE',  ( -1.000000000000000000, 4.735300956703098854E-17, 0.0000000000000000000 ) ) ;
#91 = SPHERICAL_SURFACE ( 'NONE', #197, 4.999999999999995559 ) ;
#92 = DIRECTION ( 'NONE',  ( 0.0000000000000000000, 1.000000000000000000, 0.0000000000000000000 ) ) ;
#93 = ADVANCED_FACE ( 'NONE', ( #22 ), #216, .T. ) ;
#94 = CIRCLE ( 'NONE', #110, 3.999999999999996447 ) ;
#95 = FILL_AREA_STYLE ('',( #24 ) ) ;
#96 = PRODUCT_CONTEXT ( 'NONE', #111, 'mechanical' ) ;
#97 = CARTESIAN_POINT ( 'NONE',  ( 70.00000000000000000, -1.010897858525619741E-16, 0.0000000000000000000 ) ) ;
#98 = DIRECTION ( 'NONE',  ( -4.336808689942021434E-17, -1.000000000000000000, 0.0000000000000000000 ) ) ;
#99 = ORIENTED_EDGE ( 'NONE', *, *, #182, .F. ) ;
#100 = ORIENTED_EDGE ( 'NONE', *, *, #106, .F. ) ;
#101 = ORIENTED_EDGE ( 'NONE', *, *, #204, .T. ) ;
#102 = AXIS2_PLACEMENT_3D ( 'NONE', #59, #42, #138 ) ;
#103 = DIRECTION ( 'NONE',  ( 0.0000000000000000000, -1.000000000000000000, 0.0000000000000000000 ) ) ;
#104 = CARTESIAN_POINT ( 'NONE',  ( 75.00000000000000000, -3.551475717527324030E-15, 0.0000000000000000000 ) ) ;
#105 = SURFACE_SIDE_STYLE ('',( #125 ) ) ;
#106 = EDGE_CURVE ( 'NONE', #7, #145, #113, .T. ) ;
#107 = APPLICATION_PROTOCOL_DEFINITION ( 'draft international standard', 'automotive_design', 1998, #70 ) ;
#108 = ADVANCED_FACE ( 'NONE', ( #207 ), #91, .T. ) ;
#109 = PRESENTATION_STYLE_ASSIGNMENT (( #8 ) ) ;
#110 = AXIS2_PLACEMENT_3D ( 'NONE', #48, #114, #177 ) ;
#111 = APPLICATION_CONTEXT ( 'automotive_design' ) ;
#112 = CARTESIAN_POINT ( 'NONE',  ( 1.000000000000001110, 4.999999999999995559, 0.0000000000000000000 ) ) ;
#113 = CIRCLE ( 'NONE', #166, 4.999999999999990230 ) ;
#114 = DIRECTION ( 'NONE',  ( -1.000000000000000000, 4.735300956703098854E-17, 0.0000000000000000000 ) ) ;
#115 = CARTESIAN_POINT ( 'NONE',  ( 70.00000000000000000, -3.314710669692169962E-15, 0.0000000000000000000 ) ) ;
#116 = ADVANCED_BREP_SHAPE_REPRESENTATION ( '95-1-78435-1030075', ( #178, #194 ), #26 ) ;
#117 = EDGE_LOOP ( 'NONE', ( #181, #34, #30, #150 ) ) ;
#118 = DIRECTION ( 'NONE',  ( 1.000000000000000000, -4.735300956703098854E-17, -0.0000000000000000000 ) ) ;
#119 = PLANE ( 'NONE',  #158 ) ;
#120 = SURFACE_STYLE_USAGE ( .BOTH. , #105 ) ;
#121 = VECTOR ( 'NONE', #196, 999.9999999999998863 ) ;
#122 = DIRECTION ( 'NONE',  ( 1.000000000000000000, 0.0000000000000000000, 0.0000000000000000000 ) ) ;
#123 = PRESENTATION_LAYER_ASSIGNMENT (  '', '', ( #68 ) ) ;
#124 = CARTESIAN_POINT ( 'NONE',  ( 75.00000000000000000, -6.440165334745548119E-16, 0.0000000000000000000 ) ) ;
#125 = SURFACE_STYLE_FILL_AREA ( #60 ) ;
#126 = EDGE_CURVE ( 'NONE', #33, #71, #39, .T. ) ;
#127 = SURFACE_STYLE_FILL_AREA ( #95 ) ;
#128 = CARTESIAN_POINT ( 'NONE',  ( 0.0000000000000000000, 0.0000000000000000000, 0.0000000000000000000 ) ) ;
#129 =( NAMED_UNIT ( * ) SI_UNIT ( $, .STERADIAN. ) SOLID_ANGLE_UNIT ( ) );
#130 = VERTEX_POINT ( 'NONE', #38 ) ;
#131 = ORIENTED_EDGE ( 'NONE', *, *, #9, .T. ) ;
#132 = AXIS2_PLACEMENT_3D ( 'NONE', #133, #29, #32 ) ;
#133 = CARTESIAN_POINT ( 'NONE',  ( 75.00000000000000000, -3.551475717527324030E-15, 0.0000000000000000000 ) ) ;
#134 = EDGE_LOOP ( 'NONE', ( #64, #13, #165 ) ) ;
#135 = DIRECTION ( 'NONE',  ( 1.000000000000000000, -4.735300956703082214E-17, -0.0000000000000000000 ) ) ;
#136 = LINE ( 'NONE', #137, #186 ) ;
#137 = CARTESIAN_POINT ( 'NONE',  ( 75.00000000000000000, -4.999999999999999112, 6.123233995736761352E-16 ) ) ;
#138 = DIRECTION ( 'NONE',  ( -4.735300956703100087E-17, -1.000000000000000000, 0.0000000000000000000 ) ) ;
#139 = ADVANCED_FACE ( 'NONE', ( #23 ), #67, .T. ) ;
#140 = DIRECTION ( 'NONE',  ( 1.000000000000000000, -4.735300956703098854E-17, -0.0000000000000000000 ) ) ;
#141 = AXIS2_PLACEMENT_3D ( 'NONE', #215, #135, #72 ) ;
#142 = COLOUR_RGB ( '',0.7921568627450980005, 0.8196078431372548767, 0.9333333333333333481 ) ;
#143 = CARTESIAN_POINT ( 'NONE',  ( 1.000000000000000666, -4.999999999999995559, 6.123233995736761352E-16 ) ) ;
#144 = ADVANCED_FACE ( 'NONE', ( #153 ), #119, .T. ) ;
#145 = VERTEX_POINT ( 'NONE', #124 ) ;
#146 = VERTEX_POINT ( 'NONE', #188 ) ;
#147 = CLOSED_SHELL ( 'NONE', ( #139, #58, #93, #144, #108, #151, #10 ) ) ;
#148 =( GEOMETRIC_REPRESENTATION_CONTEXT ( 3 ) GLOBAL_UNCERTAINTY_ASSIGNED_CONTEXT ( ( #11 ) ) GLOBAL_UNIT_ASSIGNED_CONTEXT ( ( #19, #203, #55 ) ) REPRESENTATION_CONTEXT ( 'NONE', 'WORKASPACE' ) );
#149 = ORIENTED_EDGE ( 'NONE', *, *, #31, .T. ) ;
#150 = ORIENTED_EDGE ( 'NONE', *, *, #9, .F. ) ;
#151 = ADVANCED_FACE ( 'NONE', ( #43 ), #156, .T. ) ;
#152 = CARTESIAN_POINT ( 'NONE',  ( 1.000000000000000888, -4.735300956703086528E-17, 0.0000000000000000000 ) ) ;
#153 = FACE_OUTER_BOUND ( 'NONE', #200, .T. ) ;
#154 = DIRECTION ( 'NONE',  ( 1.000000000000000000, -4.735300956703098854E-17, -0.0000000000000000000 ) ) ;
#155 = CARTESIAN_POINT ( 'NONE',  ( 1.000000000000000888, -4.735300956703086528E-17, 0.0000000000000000000 ) ) ;
#156 = CYLINDRICAL_SURFACE ( 'NONE', #16, 4.999999999999995559 ) ;
#157 =( NAMED_UNIT ( * ) PLANE_ANGLE_UNIT ( ) SI_UNIT ( $, .RADIAN. ) );
#158 = AXIS2_PLACEMENT_3D ( 'NONE', #3, #90, #75 ) ;
#159 = AXIS2_PLACEMENT_3D ( 'NONE', #202, #154, #205 ) ;
#160 = DIRECTION ( 'NONE',  ( -5.799071159625849554E-33, -1.224646799147353207E-16, -1.000000000000000000 ) ) ;
#161 = EDGE_LOOP ( 'NONE', ( #164, #201, #131, #211 ) ) ;
#162 = PRODUCT_DEFINITION_FORMATION_WITH_SPECIFIED_SOURCE ( 'ANY', '', #184, .NOT_KNOWN. ) ;
#163 = VERTEX_POINT ( 'NONE', #183 ) ;
#164 = ORIENTED_EDGE ( 'NONE', *, *, #190, .F. ) ;
#165 = ORIENTED_EDGE ( 'NONE', *, *, #106, .T. ) ;
#166 = AXIS2_PLACEMENT_3D ( 'NONE', #170, #187, #122 ) ;
#167 = CIRCLE ( 'NONE', #159, 4.999999999999999112 ) ;
#168 = DIRECTION ( 'NONE',  ( -0.0000000000000000000, -0.0000000000000000000, -1.000000000000000000 ) ) ;
#169 = CARTESIAN_POINT ( 'NONE',  ( 70.00000000000000000, -1.010897858525619741E-16, 0.0000000000000000000 ) ) ;
#170 = CARTESIAN_POINT ( 'NONE',  ( 70.00000000000000000, -1.010897858525619741E-16, 0.0000000000000000000 ) ) ;
#171 = DIRECTION ( 'NONE',  ( 1.000000000000000000, 0.0000000000000000000, 0.0000000000000000000 ) ) ;
#172 = AXIS2_PLACEMENT_3D ( 'NONE', #97, #160, #12 ) ;
#173 = CIRCLE ( 'NONE', #86, 4.999999999999995559 ) ;
#174 = EDGE_CURVE ( 'NONE', #163, #130, #173, .T. ) ;
#175 = ORIENTED_EDGE ( 'NONE', *, *, #53, .T. ) ;
#176 = EDGE_CURVE ( 'NONE', #130, #7, #136, .T. ) ;
#177 = DIRECTION ( 'NONE',  ( -4.735300956703100087E-17, -1.000000000000000000, 0.0000000000000000000 ) ) ;
#178 = MANIFOLD_SOLID_BREP ( 'Fase1', #147 ) ;
#179 = EDGE_LOOP ( 'NONE', ( #50, #212, #99, #199 ) ) ;
#180 = CARTESIAN_POINT ( 'NONE',  ( 70.00000000000000000, -4.999999999999999112, 0.0000000000000000000 ) ) ;
#181 = ORIENTED_EDGE ( 'NONE', *, *, #126, .F. ) ;
#182 = EDGE_CURVE ( 'NONE', #146, #7, #167, .T. ) ;
#183 = CARTESIAN_POINT ( 'NONE',  ( 1.000000000000001110, 4.999999999999996447, 0.0000000000000000000 ) ) ;
#184 = PRODUCT ( '95-1-78435-1030075', '95-1-78435-1030075', '', ( #96 ) ) ;
#185 = AXIS2_PLACEMENT_3D ( 'NONE', #18, #66, #98 ) ;
#186 = VECTOR ( 'NONE', #140, 1000.000000000000000 ) ;
#187 = DIRECTION ( 'NONE',  ( 0.0000000000000000000, 0.0000000000000000000, 1.000000000000000000 ) ) ;
#188 = CARTESIAN_POINT ( 'NONE',  ( 70.00000000000000000, 4.999999999999995559, -6.123233995736761352E-16 ) ) ;
#189 = DIRECTION ( 'NONE',  ( 1.000000000000000000, -4.735300956703082214E-17, -0.0000000000000000000 ) ) ;
#190 = EDGE_CURVE ( 'NONE', #33, #130, #1, .T. ) ;
#191 = CARTESIAN_POINT ( 'NONE',  ( 75.00000000000000000, 4.999999999999992006, 0.0000000000000000000 ) ) ;
#192 = DIRECTION ( 'NONE',  ( 0.0000000000000000000, 0.0000000000000000000, 1.000000000000000000 ) ) ;
#193 = ORIENTED_EDGE ( 'NONE', *, *, #63, .T. ) ;
#194 = AXIS2_PLACEMENT_3D ( 'NONE', #128, #192, #171 ) ;
#195 = PRODUCT_DEFINITION_CONTEXT ( 'detailed design', #70, 'design' ) ;
#196 = DIRECTION ( 'NONE',  ( 0.7071067811865482389, 0.7071067811865469066, 0.0000000000000000000 ) ) ;
#197 = AXIS2_PLACEMENT_3D ( 'NONE', #36, #168, #21 ) ;
#198 = VECTOR ( 'NONE', #25, 1000.000000000000000 ) ;
#199 = ORIENTED_EDGE ( 'NONE', *, *, #204, .F. ) ;
#200 = EDGE_LOOP ( 'NONE', ( #14, #17 ) ) ;
#201 = ORIENTED_EDGE ( 'NONE', *, *, #81, .F. ) ;
#202 = CARTESIAN_POINT ( 'NONE',  ( 70.00000000000000000, -3.314710669692169962E-15, 0.0000000000000000000 ) ) ;
#203 =( NAMED_UNIT ( * ) PLANE_ANGLE_UNIT ( ) SI_UNIT ( $, .RADIAN. ) );
#204 = EDGE_CURVE ( 'NONE', #163, #146, #61, .T. ) ;
#205 = DIRECTION ( 'NONE',  ( 0.0000000000000000000, 1.000000000000000000, 0.0000000000000000000 ) ) ;
#206 = AXIS2_PLACEMENT_3D ( 'NONE', #115, #118, #69 ) ;
#207 = FACE_OUTER_BOUND ( 'NONE', #134, .T. ) ;
#208 = FILL_AREA_STYLE_COLOUR ( '', #142 ) ;
#209 = UNCERTAINTY_MEASURE_WITH_UNIT (LENGTH_MEASURE( 1.000000000000000082E-05 ), #82, 'distance_accuracy_value', 'NONE');
#210 = FACE_OUTER_BOUND ( 'NONE', #179, .T. ) ;
#211 = ORIENTED_EDGE ( 'NONE', *, *, #31, .F. ) ;
#212 = ORIENTED_EDGE ( 'NONE', *, *, #176, .T. ) ;
#213 = CONICAL_SURFACE ( 'NONE', #141, 4.999999999999995559, 0.7853981633974473908 ) ;
#214 = EDGE_LOOP ( 'NONE', ( #175, #193, #100 ) ) ;
#215 = CARTESIAN_POINT ( 'NONE',  ( 1.000000000000000888, -4.735300956703086528E-17, 0.0000000000000000000 ) ) ;
#216 = SPHERICAL_SURFACE ( 'NONE', #15, 4.999999999999995559 ) ;
ENDSEC;
END-ISO-10303-21;
