ISO-10303-21;
HEADER;
FILE_DESCRIPTION (( 'STEP AP214' ),
    '1' );
FILE_NAME ('95-1-78430-1030075.STEP',
    '2021-01-12T16:13:26',
    ( '' ),
    ( '' ),
    'SwSTEP 2.0',
    'SolidWorks 2020',
    '' );
FILE_SCHEMA (( 'AUTOMOTIVE_DESIGN' ));
ENDSEC;

DATA;
#1 = CIRCLE ( 'NONE', #91, 4.999999999999999112 ) ;
#2 = COLOUR_RGB ( '',0.7921568627450980005, 0.8196078431372548767, 0.9333333333333333481 ) ;
#3 = EDGE_CURVE ( 'NONE', #147, #207, #31, .T. ) ;
#4 = DIRECTION ( 'NONE',  ( -4.735300956703100087E-17, -1.000000000000000000, 0.0000000000000000000 ) ) ;
#5 = AXIS2_PLACEMENT_3D ( 'NONE', #178, #180, #163 ) ;
#6 = ORIENTED_EDGE ( 'NONE', *, *, #113, .F. ) ;
#7 = CARTESIAN_POINT ( 'NONE',  ( 1.000000000000000666, -4.999999999999995559, 6.123233995736761352E-16 ) ) ;
#8 = CARTESIAN_POINT ( 'NONE',  ( 70.00000000000000000, -1.010897858525619741E-16, 0.0000000000000000000 ) ) ;
#9 = EDGE_CURVE ( 'NONE', #182, #24, #112, .T. ) ;
#10 = PRESENTATION_STYLE_ASSIGNMENT (( #25 ) ) ;
#11 = APPLICATION_CONTEXT ( 'automotive_design' ) ;
#12 = FACE_OUTER_BOUND ( 'NONE', #145, .T. ) ;
#13 = DIRECTION ( 'NONE',  ( -1.000000000000000000, 4.735300956703098854E-17, 0.0000000000000000000 ) ) ;
#14 = CIRCLE ( 'NONE', #49, 4.999999999999999112 ) ;
#15 = CYLINDRICAL_SURFACE ( 'NONE', #179, 4.999999999999995559 ) ;
#16 = UNCERTAINTY_MEASURE_WITH_UNIT (LENGTH_MEASURE( 1.000000000000000082E-05 ), #162, 'distance_accuracy_value', 'NONE');
#17 = CARTESIAN_POINT ( 'NONE',  ( 1.000000000000000888, -4.735300956703086528E-17, 0.0000000000000000000 ) ) ;
#18 = PRODUCT ( '95-1-78430-1030075', '95-1-78430-1030075', '', ( #104 ) ) ;
#19 = CARTESIAN_POINT ( 'NONE',  ( 0.0000000000000000000, 0.0000000000000000000, 0.0000000000000000000 ) ) ;
#20 = ORIENTED_EDGE ( 'NONE', *, *, #3, .F. ) ;
#21 = ORIENTED_EDGE ( 'NONE', *, *, #108, .F. ) ;
#22 = VECTOR ( 'NONE', #135, 999.9999999999998863 ) ;
#23 = ORIENTED_EDGE ( 'NONE', *, *, #42, .T. ) ;
#24 = VERTEX_POINT ( 'NONE', #7 ) ;
#25 = SURFACE_STYLE_USAGE ( .BOTH. , #97 ) ;
#26 = PRESENTATION_LAYER_ASSIGNMENT (  '', '', ( #195 ) ) ;
#27 = DIRECTION ( 'NONE',  ( 0.0000000000000000000, -1.000000000000000000, 0.0000000000000000000 ) ) ;
#28 = ADVANCED_FACE ( 'NONE', ( #77 ), #37, .T. ) ;
#29 = FACE_OUTER_BOUND ( 'NONE', #78, .T. ) ;
#30 = CARTESIAN_POINT ( 'NONE',  ( 70.00000000000000000, -1.010897858525619741E-16, 0.0000000000000000000 ) ) ;
#31 = CIRCLE ( 'NONE', #107, 4.999999999999990230 ) ;
#32 = AXIS2_PLACEMENT_3D ( 'NONE', #19, #202, #125 ) ;
#33 = PRESENTATION_LAYER_ASSIGNMENT (  '', '', ( #61 ) ) ;
#34 = EDGE_LOOP ( 'NONE', ( #109, #190, #132 ) ) ;
#35 = MECHANICAL_DESIGN_GEOMETRIC_PRESENTATION_REPRESENTATION (  '', ( #61 ), #93 ) ;
#36 = ORIENTED_EDGE ( 'NONE', *, *, #113, .T. ) ;
#37 = SPHERICAL_SURFACE ( 'NONE', #155, 4.999999999999995559 ) ;
#38 = MANIFOLD_SOLID_BREP ( 'Fase1', #170 ) ;
#39 = ORIENTED_EDGE ( 'NONE', *, *, #181, .T. ) ;
#40 = CONICAL_SURFACE ( 'NONE', #203, 4.999999999999995559, 0.7853981633974473908 ) ;
#41 = EDGE_LOOP ( 'NONE', ( #118, #159, #177, #106 ) ) ;
#42 = EDGE_CURVE ( 'NONE', #140, #207, #165, .T. ) ;
#43 = CARTESIAN_POINT ( 'NONE',  ( 7.102951435054651363E-17, 3.999999999999996447, 0.0000000000000000000 ) ) ;
#44 =( GEOMETRIC_REPRESENTATION_CONTEXT ( 3 ) GLOBAL_UNCERTAINTY_ASSIGNED_CONTEXT ( ( #83 ) ) GLOBAL_UNIT_ASSIGNED_CONTEXT ( ( #103, #88, #214 ) ) REPRESENTATION_CONTEXT ( 'NONE', 'WORKASPACE' ) );
#45 = DIRECTION ( 'NONE',  ( 0.0000000000000000000, 0.0000000000000000000, 1.000000000000000000 ) ) ;
#46 = DIRECTION ( 'NONE',  ( 0.0000000000000000000, 1.000000000000000000, 0.0000000000000000000 ) ) ;
#47 = DIRECTION ( 'NONE',  ( 4.336808689942021434E-17, 1.000000000000000000, 0.0000000000000000000 ) ) ;
#48 = CARTESIAN_POINT ( 'NONE',  ( 75.00000000000000000, 4.999999999999992006, 0.0000000000000000000 ) ) ;
#49 = AXIS2_PLACEMENT_3D ( 'NONE', #185, #171, #210 ) ;
#50 = CARTESIAN_POINT ( 'NONE',  ( 75.00000000000000000, -3.551475717527324030E-15, 0.0000000000000000000 ) ) ;
#51 = CIRCLE ( 'NONE', #68, 4.999999999999995559 ) ;
#52 = DIRECTION ( 'NONE',  ( 1.000000000000000000, -4.735300956703098854E-17, -0.0000000000000000000 ) ) ;
#53 = ORIENTED_EDGE ( 'NONE', *, *, #54, .F. ) ;
#54 = EDGE_CURVE ( 'NONE', #24, #147, #63, .T. ) ;
#55 =( NAMED_UNIT ( * ) PLANE_ANGLE_UNIT ( ) SI_UNIT ( $, .RADIAN. ) );
#56 = ORIENTED_EDGE ( 'NONE', *, *, #9, .F. ) ;
#57 = DIRECTION ( 'NONE',  ( 0.0000000000000000000, -1.000000000000000000, 0.0000000000000000000 ) ) ;
#58 = DIRECTION ( 'NONE',  ( 1.000000000000000000, -4.735300956703098854E-17, -0.0000000000000000000 ) ) ;
#59 = CARTESIAN_POINT ( 'NONE',  ( 1.000000000000000888, -4.735300956703086528E-17, 0.0000000000000000000 ) ) ;
#60 = EDGE_CURVE ( 'NONE', #182, #74, #209, .T. ) ;
#61 = STYLED_ITEM ( 'NONE', ( #10 ), #38 ) ;
#62 = DIRECTION ( 'NONE',  ( 1.000000000000000000, -4.735300956703082214E-17, -0.0000000000000000000 ) ) ;
#63 = LINE ( 'NONE', #79, #134 ) ;
#64 = LINE ( 'NONE', #101, #22 ) ;
#65 = CARTESIAN_POINT ( 'NONE',  ( -1.183825239175772803E-16, 5.605768787638292429E-33, 0.0000000000000000000 ) ) ;
#66 = CYLINDRICAL_SURFACE ( 'NONE', #130, 4.999999999999995559 ) ;
#67 = EDGE_CURVE ( 'NONE', #189, #24, #51, .T. ) ;
#68 = AXIS2_PLACEMENT_3D ( 'NONE', #59, #62, #76 ) ;
#69 = SHAPE_DEFINITION_REPRESENTATION ( #201, #73 ) ;
#70 = EDGE_LOOP ( 'NONE', ( #56, #131, #39, #191 ) ) ;
#71 = ADVANCED_FACE ( 'NONE', ( #94 ), #197, .T. ) ;
#72 = CONICAL_SURFACE ( 'NONE', #144, 4.999999999999995559, 0.7853981633974473908 ) ;
#73 = ADVANCED_BREP_SHAPE_REPRESENTATION ( '95-1-78430-1030075', ( #38, #32 ), #44 ) ;
#74 = VERTEX_POINT ( 'NONE', #43 ) ;
#75 = COLOUR_RGB ( '',0.7921568627450980005, 0.8196078431372548767, 0.9333333333333333481 ) ;
#76 = DIRECTION ( 'NONE',  ( -4.336808689942021434E-17, -1.000000000000000000, 0.0000000000000000000 ) ) ;
#77 = FACE_OUTER_BOUND ( 'NONE', #126, .T. ) ;
#78 = EDGE_LOOP ( 'NONE', ( #164, #115 ) ) ;
#79 = CARTESIAN_POINT ( 'NONE',  ( 75.00000000000000000, -4.999999999999999112, 6.123233995736761352E-16 ) ) ;
#80 =( NAMED_UNIT ( * ) SI_UNIT ( $, .STERADIAN. ) SOLID_ANGLE_UNIT ( ) );
#81 = CARTESIAN_POINT ( 'NONE',  ( 1.000000000000000888, -4.735300956703086528E-17, 0.0000000000000000000 ) ) ;
#82 = DIRECTION ( 'NONE',  ( 1.000000000000000000, -4.735300956703098854E-17, -0.0000000000000000000 ) ) ;
#83 = UNCERTAINTY_MEASURE_WITH_UNIT (LENGTH_MEASURE( 1.000000000000000082E-05 ), #103, 'distance_accuracy_value', 'NONE');
#84 = DIRECTION ( 'NONE',  ( 0.0000000000000000000, 1.000000000000000000, 0.0000000000000000000 ) ) ;
#85 = DIRECTION ( 'NONE',  ( -4.336808689942021434E-17, -1.000000000000000000, 0.0000000000000000000 ) ) ;
#86 = EDGE_CURVE ( 'NONE', #140, #147, #14, .T. ) ;
#87 = MECHANICAL_DESIGN_GEOMETRIC_PRESENTATION_REPRESENTATION (  '', ( #195 ), #95 ) ;
#88 =( NAMED_UNIT ( * ) PLANE_ANGLE_UNIT ( ) SI_UNIT ( $, .RADIAN. ) );
#89 =( LENGTH_UNIT ( ) NAMED_UNIT ( * ) SI_UNIT ( .MILLI., .METRE. ) );
#90 = FILL_AREA_STYLE ('',( #172 ) ) ;
#91 = AXIS2_PLACEMENT_3D ( 'NONE', #166, #52, #198 ) ;
#92 = APPLICATION_PROTOCOL_DEFINITION ( 'draft international standard', 'automotive_design', 1998, #215 ) ;
#93 =( GEOMETRIC_REPRESENTATION_CONTEXT ( 3 ) GLOBAL_UNCERTAINTY_ASSIGNED_CONTEXT ( ( #16 ) ) GLOBAL_UNIT_ASSIGNED_CONTEXT ( ( #162, #161, #80 ) ) REPRESENTATION_CONTEXT ( 'NONE', 'WORKASPACE' ) );
#94 = FACE_OUTER_BOUND ( 'NONE', #34, .T. ) ;
#95 =( GEOMETRIC_REPRESENTATION_CONTEXT ( 3 ) GLOBAL_UNCERTAINTY_ASSIGNED_CONTEXT ( ( #186 ) ) GLOBAL_UNIT_ASSIGNED_CONTEXT ( ( #89, #55, #204 ) ) REPRESENTATION_CONTEXT ( 'NONE', 'WORKASPACE' ) );
#96 = ADVANCED_FACE ( 'NONE', ( #12 ), #66, .T. ) ;
#97 = SURFACE_SIDE_STYLE ('',( #183 ) ) ;
#98 = CARTESIAN_POINT ( 'NONE',  ( 70.00000000000000000, 4.999999999999995559, -6.123233995736761352E-16 ) ) ;
#99 = PRODUCT_RELATED_PRODUCT_CATEGORY ( 'part', '', ( #18 ) ) ;
#100 = DIRECTION ( 'NONE',  ( 1.000000000000000000, -4.735300956703082214E-17, -0.0000000000000000000 ) ) ;
#101 = CARTESIAN_POINT ( 'NONE',  ( 1.000000000000001110, 4.999999999999995559, 0.0000000000000000000 ) ) ;
#102 = CARTESIAN_POINT ( 'NONE',  ( -3.077945621857010866E-16, -3.999999999999996447, 5.510910596163084625E-16 ) ) ;
#103 =( LENGTH_UNIT ( ) NAMED_UNIT ( * ) SI_UNIT ( .MILLI., .METRE. ) );
#104 = PRODUCT_CONTEXT ( 'NONE', #215, 'mechanical' ) ;
#105 = PRESENTATION_STYLE_ASSIGNMENT (( #156 ) ) ;
#106 = ORIENTED_EDGE ( 'NONE', *, *, #181, .F. ) ;
#107 = AXIS2_PLACEMENT_3D ( 'NONE', #8, #45, #128 ) ;
#108 = EDGE_CURVE ( 'NONE', #189, #140, #138, .T. ) ;
#109 = ORIENTED_EDGE ( 'NONE', *, *, #42, .F. ) ;
#110 = DIRECTION ( 'NONE',  ( 0.7071067811865482389, -0.7071067811865469066, 8.659560562354927928E-17 ) ) ;
#111 = AXIS2_PLACEMENT_3D ( 'NONE', #30, #169, #27 ) ;
#112 = LINE ( 'NONE', #148, #114 ) ;
#113 = EDGE_CURVE ( 'NONE', #147, #140, #1, .T. ) ;
#114 = VECTOR ( 'NONE', #110, 999.9999999999998863 ) ;
#115 = ORIENTED_EDGE ( 'NONE', *, *, #60, .T. ) ;
#116 = ORIENTED_EDGE ( 'NONE', *, *, #67, .T. ) ;
#117 = PRODUCT_DEFINITION ( 'UNKNOWN', '', #160, #153 ) ;
#118 = ORIENTED_EDGE ( 'NONE', *, *, #60, .F. ) ;
#119 = CARTESIAN_POINT ( 'NONE',  ( -1.183825239175772803E-16, 5.605768787638311588E-33, 0.0000000000000000000 ) ) ;
#120 = CARTESIAN_POINT ( 'NONE',  ( 1.000000000000001110, 4.999999999999996447, 0.0000000000000000000 ) ) ;
#121 = FACE_OUTER_BOUND ( 'NONE', #41, .T. ) ;
#122 = AXIS2_PLACEMENT_3D ( 'NONE', #17, #100, #85 ) ;
#123 = AXIS2_PLACEMENT_3D ( 'NONE', #133, #129, #4 ) ;
#124 = DIRECTION ( 'NONE',  ( 1.000000000000000000, -4.735300956703098854E-17, -0.0000000000000000000 ) ) ;
#125 = DIRECTION ( 'NONE',  ( 1.000000000000000000, 0.0000000000000000000, 0.0000000000000000000 ) ) ;
#126 = EDGE_LOOP ( 'NONE', ( #36, #23, #20 ) ) ;
#127 = ORIENTED_EDGE ( 'NONE', *, *, #86, .F. ) ;
#128 = DIRECTION ( 'NONE',  ( 1.000000000000000000, 0.0000000000000000000, 0.0000000000000000000 ) ) ;
#129 = DIRECTION ( 'NONE',  ( -1.000000000000000000, 4.735300956703098854E-17, 0.0000000000000000000 ) ) ;
#130 = AXIS2_PLACEMENT_3D ( 'NONE', #50, #82, #84 ) ;
#131 = ORIENTED_EDGE ( 'NONE', *, *, #173, .F. ) ;
#132 = ORIENTED_EDGE ( 'NONE', *, *, #3, .T. ) ;
#133 = CARTESIAN_POINT ( 'NONE',  ( -1.183825239175772803E-16, 5.605768787638292429E-33, 0.0000000000000000000 ) ) ;
#134 = VECTOR ( 'NONE', #58, 1000.000000000000000 ) ;
#135 = DIRECTION ( 'NONE',  ( 0.7071067811865482389, 0.7071067811865469066, 0.0000000000000000000 ) ) ;
#136 = EDGE_CURVE ( 'NONE', #24, #189, #141, .T. ) ;
#137 = DIRECTION ( 'NONE',  ( -4.735300956703100087E-17, -1.000000000000000000, 0.0000000000000000000 ) ) ;
#138 = LINE ( 'NONE', #48, #176 ) ;
#139 = CARTESIAN_POINT ( 'NONE',  ( 75.00000000000000000, -6.440165334745548119E-16, 0.0000000000000000000 ) ) ;
#140 = VERTEX_POINT ( 'NONE', #98 ) ;
#141 = CIRCLE ( 'NONE', #122, 4.999999999999995559 ) ;
#142 = ADVANCED_FACE ( 'NONE', ( #199 ), #15, .T. ) ;
#143 = SURFACE_STYLE_FILL_AREA ( #90 ) ;
#144 = AXIS2_PLACEMENT_3D ( 'NONE', #187, #154, #213 ) ;
#145 = EDGE_LOOP ( 'NONE', ( #116, #175, #127, #21 ) ) ;
#146 = FILL_AREA_STYLE ('',( #193 ) ) ;
#147 = VERTEX_POINT ( 'NONE', #150 ) ;
#148 = CARTESIAN_POINT ( 'NONE',  ( 1.000000000000000666, -4.999999999999995559, 6.123233995736761352E-16 ) ) ;
#149 = ADVANCED_FACE ( 'NONE', ( #29 ), #167, .T. ) ;
#150 = CARTESIAN_POINT ( 'NONE',  ( 70.00000000000000000, -4.999999999999999112, 0.0000000000000000000 ) ) ;
#151 = DIRECTION ( 'NONE',  ( 1.000000000000000000, -4.735300956703082214E-17, -0.0000000000000000000 ) ) ;
#152 = DIRECTION ( 'NONE',  ( 1.000000000000000000, -4.735300956703098854E-17, -0.0000000000000000000 ) ) ;
#153 = PRODUCT_DEFINITION_CONTEXT ( 'detailed design', #11, 'design' ) ;
#154 = DIRECTION ( 'NONE',  ( 1.000000000000000000, -4.735300956703082214E-17, -0.0000000000000000000 ) ) ;
#155 = AXIS2_PLACEMENT_3D ( 'NONE', #206, #194, #57 ) ;
#156 = SURFACE_STYLE_USAGE ( .BOTH. , #216 ) ;
#157 = ADVANCED_FACE ( 'NONE', ( #121 ), #40, .T. ) ;
#158 = AXIS2_PLACEMENT_3D ( 'NONE', #119, #13, #211 ) ;
#159 = ORIENTED_EDGE ( 'NONE', *, *, #9, .T. ) ;
#160 = PRODUCT_DEFINITION_FORMATION_WITH_SPECIFIED_SOURCE ( 'ANY', '', #18, .NOT_KNOWN. ) ;
#161 =( NAMED_UNIT ( * ) PLANE_ANGLE_UNIT ( ) SI_UNIT ( $, .RADIAN. ) );
#162 =( LENGTH_UNIT ( ) NAMED_UNIT ( * ) SI_UNIT ( .MILLI., .METRE. ) );
#163 = DIRECTION ( 'NONE',  ( 0.0000000000000000000, 1.000000000000000000, -1.224646799147353454E-16 ) ) ;
#164 = ORIENTED_EDGE ( 'NONE', *, *, #173, .T. ) ;
#165 = CIRCLE ( 'NONE', #5, 4.999999999999995559 ) ;
#166 = CARTESIAN_POINT ( 'NONE',  ( 70.00000000000000000, -3.314710669692169962E-15, 0.0000000000000000000 ) ) ;
#167 = PLANE ( 'NONE',  #158 ) ;
#168 = AXIS2_PLACEMENT_3D ( 'NONE', #65, #188, #137 ) ;
#169 = DIRECTION ( 'NONE',  ( -0.0000000000000000000, -0.0000000000000000000, -1.000000000000000000 ) ) ;
#170 = CLOSED_SHELL ( 'NONE', ( #157, #96, #28, #149, #71, #142, #212 ) ) ;
#171 = DIRECTION ( 'NONE',  ( 1.000000000000000000, -4.735300956703098854E-17, -0.0000000000000000000 ) ) ;
#172 = FILL_AREA_STYLE_COLOUR ( '', #75 ) ;
#173 = EDGE_CURVE ( 'NONE', #74, #182, #208, .T. ) ;
#174 = APPLICATION_PROTOCOL_DEFINITION ( 'draft international standard', 'automotive_design', 1998, #11 ) ;
#175 = ORIENTED_EDGE ( 'NONE', *, *, #54, .T. ) ;
#176 = VECTOR ( 'NONE', #124, 1000.000000000000000 ) ;
#177 = ORIENTED_EDGE ( 'NONE', *, *, #67, .F. ) ;
#178 = CARTESIAN_POINT ( 'NONE',  ( 70.00000000000000000, -1.010897858525619741E-16, 0.0000000000000000000 ) ) ;
#179 = AXIS2_PLACEMENT_3D ( 'NONE', #184, #152, #46 ) ;
#180 = DIRECTION ( 'NONE',  ( -5.799071159625849554E-33, -1.224646799147353207E-16, -1.000000000000000000 ) ) ;
#181 = EDGE_CURVE ( 'NONE', #74, #189, #64, .T. ) ;
#182 = VERTEX_POINT ( 'NONE', #102 ) ;
#183 = SURFACE_STYLE_FILL_AREA ( #146 ) ;
#184 = CARTESIAN_POINT ( 'NONE',  ( 75.00000000000000000, -3.551475717527324030E-15, 0.0000000000000000000 ) ) ;
#185 = CARTESIAN_POINT ( 'NONE',  ( 70.00000000000000000, -3.314710669692169962E-15, 0.0000000000000000000 ) ) ;
#186 = UNCERTAINTY_MEASURE_WITH_UNIT (LENGTH_MEASURE( 1.000000000000000082E-05 ), #89, 'distance_accuracy_value', 'NONE');
#187 = CARTESIAN_POINT ( 'NONE',  ( 1.000000000000000888, -4.735300956703086528E-17, 0.0000000000000000000 ) ) ;
#188 = DIRECTION ( 'NONE',  ( -1.000000000000000000, 4.735300956703098854E-17, 0.0000000000000000000 ) ) ;
#189 = VERTEX_POINT ( 'NONE', #120 ) ;
#190 = ORIENTED_EDGE ( 'NONE', *, *, #86, .T. ) ;
#191 = ORIENTED_EDGE ( 'NONE', *, *, #136, .F. ) ;
#192 = EDGE_LOOP ( 'NONE', ( #53, #196, #205, #6 ) ) ;
#193 = FILL_AREA_STYLE_COLOUR ( '', #2 ) ;
#194 = DIRECTION ( 'NONE',  ( -0.0000000000000000000, -0.0000000000000000000, -1.000000000000000000 ) ) ;
#195 = STYLED_ITEM ( 'NONE', ( #105 ), #73 ) ;
#196 = ORIENTED_EDGE ( 'NONE', *, *, #136, .T. ) ;
#197 = SPHERICAL_SURFACE ( 'NONE', #111, 4.999999999999995559 ) ;
#198 = DIRECTION ( 'NONE',  ( 0.0000000000000000000, 1.000000000000000000, 0.0000000000000000000 ) ) ;
#199 = FACE_OUTER_BOUND ( 'NONE', #192, .T. ) ;
#200 = FACE_OUTER_BOUND ( 'NONE', #70, .T. ) ;
#201 = PRODUCT_DEFINITION_SHAPE ( 'NONE', 'NONE',  #117 ) ;
#202 = DIRECTION ( 'NONE',  ( 0.0000000000000000000, 0.0000000000000000000, 1.000000000000000000 ) ) ;
#203 = AXIS2_PLACEMENT_3D ( 'NONE', #81, #151, #47 ) ;
#204 =( NAMED_UNIT ( * ) SI_UNIT ( $, .STERADIAN. ) SOLID_ANGLE_UNIT ( ) );
#205 = ORIENTED_EDGE ( 'NONE', *, *, #108, .T. ) ;
#206 = CARTESIAN_POINT ( 'NONE',  ( 70.00000000000000000, -1.010897858525619741E-16, 0.0000000000000000000 ) ) ;
#207 = VERTEX_POINT ( 'NONE', #139 ) ;
#208 = CIRCLE ( 'NONE', #168, 3.999999999999996447 ) ;
#209 = CIRCLE ( 'NONE', #123, 3.999999999999996447 ) ;
#210 = DIRECTION ( 'NONE',  ( 0.0000000000000000000, 1.000000000000000000, 0.0000000000000000000 ) ) ;
#211 = DIRECTION ( 'NONE',  ( -4.735300956703098854E-17, -1.000000000000000000, 0.0000000000000000000 ) ) ;
#212 = ADVANCED_FACE ( 'NONE', ( #200 ), #72, .T. ) ;
#213 = DIRECTION ( 'NONE',  ( 4.336808689942021434E-17, 1.000000000000000000, 0.0000000000000000000 ) ) ;
#214 =( NAMED_UNIT ( * ) SI_UNIT ( $, .STERADIAN. ) SOLID_ANGLE_UNIT ( ) );
#215 = APPLICATION_CONTEXT ( 'automotive_design' ) ;
#216 = SURFACE_SIDE_STYLE ('',( #143 ) ) ;
ENDSEC;
END-ISO-10303-21;
