ISO-10303-21;
HEADER;
FILE_DESCRIPTION (( 'STEP AP214' ),
    '1' );
FILE_NAME ('95-1-78415-10.STEP',
    '2021-01-12T15:42:24',
    ( '' ),
    ( '' ),
    'SwSTEP 2.0',
    'SolidWorks 2020',
    '' );
FILE_SCHEMA (( 'AUTOMOTIVE_DESIGN' ));
ENDSEC;

DATA;
#1 = AXIS2_PLACEMENT_3D ( 'NONE', #2, #55, #59 ) ;
#2 = CARTESIAN_POINT ( 'NONE',  ( 0.5000000000000004441, 1.190628832504383517E-17, 0.0000000000000000000 ) ) ;
#3 = ORIENTED_EDGE ( 'NONE', *, *, #147, .F. ) ;
#4 = DIRECTION ( 'NONE',  ( 0.7071067811865439090, 0.7071067811865512365, 0.0000000000000000000 ) ) ;
#5 = EDGE_LOOP ( 'NONE', ( #183, #24 ) ) ;
#6 = DIRECTION ( 'NONE',  ( 0.0000000000000000000, -1.000000000000000000, 1.224646799147353454E-16 ) ) ;
#7 = MECHANICAL_DESIGN_GEOMETRIC_PRESENTATION_REPRESENTATION (  '', ( #167 ), #173 ) ;
#8 = DIRECTION ( 'NONE',  ( 0.0000000000000000000, 1.000000000000000000, 0.0000000000000000000 ) ) ;
#9 = ORIENTED_EDGE ( 'NONE', *, *, #21, .T. ) ;
#10 = CYLINDRICAL_SURFACE ( 'NONE', #85, 4.999999999999995559 ) ;
#11 = COLOUR_RGB ( '',0.7921568627450980005, 0.8196078431372548767, 0.9333333333333333481 ) ;
#12 = CIRCLE ( 'NONE', #212, 5.000000000000000000 ) ;
#13 = AXIS2_PLACEMENT_3D ( 'NONE', #56, #121, #90 ) ;
#14 = EDGE_CURVE ( 'NONE', #106, #75, #181, .T. ) ;
#15 =( NAMED_UNIT ( * ) SI_UNIT ( $, .STERADIAN. ) SOLID_ANGLE_UNIT ( ) );
#16 = CARTESIAN_POINT ( 'NONE',  ( 0.0000000000000000000, 0.0000000000000000000, 0.0000000000000000000 ) ) ;
#17 = FACE_OUTER_BOUND ( 'NONE', #197, .T. ) ;
#18 = MECHANICAL_DESIGN_GEOMETRIC_PRESENTATION_REPRESENTATION (  '', ( #165 ), #149 ) ;
#19 = DIRECTION ( 'NONE',  ( -2.168404344971010717E-17, 1.000000000000000000, 0.0000000000000000000 ) ) ;
#20 = DIRECTION ( 'NONE',  ( 1.000000000000000000, 2.381257665008741457E-17, -0.0000000000000000000 ) ) ;
#21 = EDGE_CURVE ( 'NONE', #106, #91, #95, .T. ) ;
#22 = AXIS2_PLACEMENT_3D ( 'NONE', #186, #44, #63 ) ;
#23 = AXIS2_PLACEMENT_3D ( 'NONE', #77, #199, #46 ) ;
#24 = ORIENTED_EDGE ( 'NONE', *, *, #48, .T. ) ;
#25 = SURFACE_STYLE_USAGE ( .BOTH. , #96 ) ;
#26 = ORIENTED_EDGE ( 'NONE', *, *, #14, .F. ) ;
#27 = EDGE_LOOP ( 'NONE', ( #142, #210, #162 ) ) ;
#28 = PRESENTATION_STYLE_ASSIGNMENT (( #25 ) ) ;
#29 = ORIENTED_EDGE ( 'NONE', *, *, #155, .T. ) ;
#30 = APPLICATION_CONTEXT ( 'automotive_design' ) ;
#31 = AXIS2_PLACEMENT_3D ( 'NONE', #214, #133, #76 ) ;
#32 = AXIS2_PLACEMENT_3D ( 'NONE', #141, #39, #70 ) ;
#33 = UNCERTAINTY_MEASURE_WITH_UNIT (LENGTH_MEASURE( 1.000000000000000082E-05 ), #50, 'distance_accuracy_value', 'NONE');
#34 = SURFACE_STYLE_USAGE ( .BOTH. , #135 ) ;
#35 = PRODUCT_RELATED_PRODUCT_CATEGORY ( 'part', '', ( #40 ) ) ;
#36 = FILL_AREA_STYLE_COLOUR ( '', #145 ) ;
#37 = CIRCLE ( 'NONE', #188, 4.499999999999990230 ) ;
#38 = DIRECTION ( 'NONE',  ( 0.0000000000000000000, 1.000000000000000000, 0.0000000000000000000 ) ) ;
#39 = DIRECTION ( 'NONE',  ( 1.000000000000000000, 2.381257665008764876E-17, -0.0000000000000000000 ) ) ;
#40 = PRODUCT ( '95-1-78415-10', '95-1-78415-10', '', ( #172 ) ) ;
#41 = ORIENTED_EDGE ( 'NONE', *, *, #48, .F. ) ;
#42 = DIRECTION ( 'NONE',  ( 2.381257665008741765E-17, -1.000000000000000000, 0.0000000000000000000 ) ) ;
#43 = CARTESIAN_POINT ( 'NONE',  ( 72.00000000000000000, 4.999999999999997335, 0.0000000000000000000 ) ) ;
#44 = DIRECTION ( 'NONE',  ( 1.000000000000000000, 2.381257665008741457E-17, -0.0000000000000000000 ) ) ;
#45 = EDGE_LOOP ( 'NONE', ( #41, #29, #128, #57 ) ) ;
#46 = DIRECTION ( 'NONE',  ( 2.168404344971010717E-17, -1.000000000000000000, 0.0000000000000000000 ) ) ;
#47 = FILL_AREA_STYLE ('',( #131 ) ) ;
#48 = EDGE_CURVE ( 'NONE', #185, #144, #37, .T. ) ;
#49 = AXIS2_PLACEMENT_3D ( 'NONE', #78, #94, #67 ) ;
#50 =( LENGTH_UNIT ( ) NAMED_UNIT ( * ) SI_UNIT ( .MILLI., .METRE. ) );
#51 = PRODUCT_DEFINITION_FORMATION_WITH_SPECIFIED_SOURCE ( 'ANY', '', #40, .NOT_KNOWN. ) ;
#52 = APPLICATION_CONTEXT ( 'automotive_design' ) ;
#53 = CONICAL_SURFACE ( 'NONE', #127, 4.999999999999995559, 0.7853981633974536081 ) ;
#54 = APPLICATION_PROTOCOL_DEFINITION ( 'draft international standard', 'automotive_design', 1998, #52 ) ;
#55 = DIRECTION ( 'NONE',  ( 1.000000000000000000, 2.381257665008764876E-17, -0.0000000000000000000 ) ) ;
#56 = CARTESIAN_POINT ( 'NONE',  ( 66.99999999999998579, -6.123233995736766282E-16, 0.0000000000000000000 ) ) ;
#57 = ORIENTED_EDGE ( 'NONE', *, *, #116, .F. ) ;
#58 = PRESENTATION_LAYER_ASSIGNMENT (  '', '', ( #165 ) ) ;
#59 = DIRECTION ( 'NONE',  ( -2.168404344971010717E-17, 1.000000000000000000, 0.0000000000000000000 ) ) ;
#60 = ORIENTED_EDGE ( 'NONE', *, *, #21, .F. ) ;
#61 = VECTOR ( 'NONE', #138, 1000.000000000000000 ) ;
#62 =( NAMED_UNIT ( * ) PLANE_ANGLE_UNIT ( ) SI_UNIT ( $, .RADIAN. ) );
#63 = DIRECTION ( 'NONE',  ( 0.0000000000000000000, 1.000000000000000000, 0.0000000000000000000 ) ) ;
#64 = ORIENTED_EDGE ( 'NONE', *, *, #99, .T. ) ;
#65 =( NAMED_UNIT ( * ) SI_UNIT ( $, .STERADIAN. ) SOLID_ANGLE_UNIT ( ) );
#66 = ADVANCED_FACE ( 'NONE', ( #207 ), #195, .T. ) ;
#67 = DIRECTION ( 'NONE',  ( -1.000000000000000000, 0.0000000000000000000, 0.0000000000000000000 ) ) ;
#68 = CIRCLE ( 'NONE', #215, 4.499999999999990230 ) ;
#69 = CARTESIAN_POINT ( 'NONE',  ( 5.953144162521842549E-17, 1.417597016790732312E-33, 0.0000000000000000000 ) ) ;
#70 = DIRECTION ( 'NONE',  ( 2.168404344971010717E-17, -1.000000000000000000, 0.0000000000000000000 ) ) ;
#71 = VECTOR ( 'NONE', #20, 1000.000000000000000 ) ;
#72 = ORIENTED_EDGE ( 'NONE', *, *, #14, .T. ) ;
#73 = EDGE_LOOP ( 'NONE', ( #64, #9, #3, #193 ) ) ;
#74 = FACE_OUTER_BOUND ( 'NONE', #5, .T. ) ;
#75 = VERTEX_POINT ( 'NONE', #174 ) ;
#76 = DIRECTION ( 'NONE',  ( 2.381257665008741457E-17, -1.000000000000000000, 0.0000000000000000000 ) ) ;
#77 = CARTESIAN_POINT ( 'NONE',  ( 0.5000000000000004441, 1.190628832504383517E-17, 0.0000000000000000000 ) ) ;
#78 = CARTESIAN_POINT ( 'NONE',  ( 66.99999999999998579, -6.123233995736766282E-16, 0.0000000000000000000 ) ) ;
#79 = VERTEX_POINT ( 'NONE', #206 ) ;
#80 = CARTESIAN_POINT ( 'NONE',  ( 66.99999999999998579, 1.595442635555856505E-15, 0.0000000000000000000 ) ) ;
#81 = CIRCLE ( 'NONE', #117, 5.000000000000000000 ) ;
#82 = APPLICATION_PROTOCOL_DEFINITION ( 'draft international standard', 'automotive_design', 1998, #30 ) ;
#83 = PRODUCT_DEFINITION ( 'UNKNOWN', '', #51, #169 ) ;
#84 = FACE_OUTER_BOUND ( 'NONE', #45, .T. ) ;
#85 = AXIS2_PLACEMENT_3D ( 'NONE', #148, #129, #211 ) ;
#86 = DIRECTION ( 'NONE',  ( 2.381257665008741765E-17, -1.000000000000000000, 0.0000000000000000000 ) ) ;
#87 = DIRECTION ( 'NONE',  ( 0.0000000000000000000, -0.0000000000000000000, 1.000000000000000000 ) ) ;
#88 = ORIENTED_EDGE ( 'NONE', *, *, #171, .T. ) ;
#89 = ADVANCED_BREP_SHAPE_REPRESENTATION ( '95-1-78415-10', ( #194, #191 ), #115 ) ;
#90 = DIRECTION ( 'NONE',  ( 0.0000000000000000000, 1.000000000000000000, 0.0000000000000000000 ) ) ;
#91 = VERTEX_POINT ( 'NONE', #178 ) ;
#92 = SURFACE_STYLE_FILL_AREA ( #47 ) ;
#93 = VERTEX_POINT ( 'NONE', #190 ) ;
#94 = DIRECTION ( 'NONE',  ( -0.0000000000000000000, 0.0000000000000000000, -1.000000000000000000 ) ) ;
#95 = LINE ( 'NONE', #164, #71 ) ;
#96 = SURFACE_SIDE_STYLE ('',( #92 ) ) ;
#97 = VECTOR ( 'NONE', #113, 999.9999999999998863 ) ;
#98 =( NAMED_UNIT ( * ) PLANE_ANGLE_UNIT ( ) SI_UNIT ( $, .RADIAN. ) );
#99 = EDGE_CURVE ( 'NONE', #75, #106, #137, .T. ) ;
#100 = UNCERTAINTY_MEASURE_WITH_UNIT (LENGTH_MEASURE( 1.000000000000000082E-05 ), #201, 'distance_accuracy_value', 'NONE');
#101 = PRESENTATION_STYLE_ASSIGNMENT (( #34 ) ) ;
#102 = ADVANCED_FACE ( 'NONE', ( #17 ), #182, .T. ) ;
#103 = PRESENTATION_LAYER_ASSIGNMENT (  '', '', ( #167 ) ) ;
#104 = CARTESIAN_POINT ( 'NONE',  ( 66.99999999999998579, 1.595442635555856505E-15, 0.0000000000000000000 ) ) ;
#105 = CARTESIAN_POINT ( 'NONE',  ( 5.953144162521842549E-17, 1.417597016790732312E-33, 0.0000000000000000000 ) ) ;
#106 = VERTEX_POINT ( 'NONE', #120 ) ;
#107 = EDGE_CURVE ( 'NONE', #91, #79, #81, .T. ) ;
#108 = DIRECTION ( 'NONE',  ( -1.000000000000000000, -2.381257665008741457E-17, 0.0000000000000000000 ) ) ;
#109 = CONICAL_SURFACE ( 'NONE', #1, 4.999999999999995559, 0.7853981633974536081 ) ;
#110 = ORIENTED_EDGE ( 'NONE', *, *, #132, .T. ) ;
#111 = DIRECTION ( 'NONE',  ( -2.916199577398055319E-33, 1.224646799147353207E-16, 1.000000000000000000 ) ) ;
#112 = ORIENTED_EDGE ( 'NONE', *, *, #155, .F. ) ;
#113 = DIRECTION ( 'NONE',  ( 0.7071067811865439090, -0.7071067811865512365, 8.659560562354979697E-17 ) ) ;
#114 = LINE ( 'NONE', #151, #97 ) ;
#115 =( GEOMETRIC_REPRESENTATION_CONTEXT ( 3 ) GLOBAL_UNCERTAINTY_ASSIGNED_CONTEXT ( ( #100 ) ) GLOBAL_UNIT_ASSIGNED_CONTEXT ( ( #201, #184, #166 ) ) REPRESENTATION_CONTEXT ( 'NONE', 'WORKASPACE' ) );
#116 = EDGE_CURVE ( 'NONE', #144, #75, #175, .T. ) ;
#117 = AXIS2_PLACEMENT_3D ( 'NONE', #104, #208, #38 ) ;
#118 = CLOSED_SHELL ( 'NONE', ( #124, #140, #102, #209, #66, #153, #139 ) ) ;
#119 = EDGE_CURVE ( 'NONE', #144, #185, #68, .T. ) ;
#120 = CARTESIAN_POINT ( 'NONE',  ( 0.5000000000000005551, -4.999999999999995559, 6.123233995736762338E-16 ) ) ;
#121 = DIRECTION ( 'NONE',  ( 0.0000000000000000000, -0.0000000000000000000, 1.000000000000000000 ) ) ;
#122 = ORIENTED_EDGE ( 'NONE', *, *, #116, .T. ) ;
#123 = FACE_OUTER_BOUND ( 'NONE', #73, .T. ) ;
#124 = ADVANCED_FACE ( 'NONE', ( #84 ), #53, .T. ) ;
#125 = ORIENTED_EDGE ( 'NONE', *, *, #147, .T. ) ;
#126 = CIRCLE ( 'NONE', #49, 5.000000000000004441 ) ;
#127 = AXIS2_PLACEMENT_3D ( 'NONE', #176, #143, #19 ) ;
#128 = ORIENTED_EDGE ( 'NONE', *, *, #99, .F. ) ;
#129 = DIRECTION ( 'NONE',  ( 1.000000000000000000, 2.381257665008741457E-17, -0.0000000000000000000 ) ) ;
#130 = EDGE_LOOP ( 'NONE', ( #112, #160, #122, #26 ) ) ;
#131 = FILL_AREA_STYLE_COLOUR ( '', #11 ) ;
#132 = EDGE_CURVE ( 'NONE', #75, #79, #154, .T. ) ;
#133 = DIRECTION ( 'NONE',  ( -1.000000000000000000, -2.381257665008741457E-17, 0.0000000000000000000 ) ) ;
#134 = SURFACE_STYLE_FILL_AREA ( #216 ) ;
#135 = SURFACE_SIDE_STYLE ('',( #134 ) ) ;
#136 = AXIS2_PLACEMENT_3D ( 'NONE', #196, #111, #6 ) ;
#137 = CIRCLE ( 'NONE', #32, 4.999999999999995559 ) ;
#138 = DIRECTION ( 'NONE',  ( 1.000000000000000000, 2.381257665008741457E-17, -0.0000000000000000000 ) ) ;
#139 = ADVANCED_FACE ( 'NONE', ( #205 ), #109, .T. ) ;
#140 = ADVANCED_FACE ( 'NONE', ( #123 ), #192, .T. ) ;
#141 = CARTESIAN_POINT ( 'NONE',  ( 0.5000000000000004441, 1.190628832504383517E-17, 0.0000000000000000000 ) ) ;
#142 = ORIENTED_EDGE ( 'NONE', *, *, #171, .F. ) ;
#143 = DIRECTION ( 'NONE',  ( 1.000000000000000000, 2.381257665008764876E-17, -0.0000000000000000000 ) ) ;
#144 = VERTEX_POINT ( 'NONE', #161 ) ;
#145 = COLOUR_RGB ( '',0.7921568627450980005, 0.8196078431372548767, 0.9333333333333333481 ) ;
#146 = FACE_OUTER_BOUND ( 'NONE', #177, .T. ) ;
#147 = EDGE_CURVE ( 'NONE', #79, #91, #12, .T. ) ;
#148 = CARTESIAN_POINT ( 'NONE',  ( 72.00000000000000000, 1.714505518806293849E-15, 0.0000000000000000000 ) ) ;
#149 =( GEOMETRIC_REPRESENTATION_CONTEXT ( 3 ) GLOBAL_UNCERTAINTY_ASSIGNED_CONTEXT ( ( #33 ) ) GLOBAL_UNIT_ASSIGNED_CONTEXT ( ( #50, #98, #15 ) ) REPRESENTATION_CONTEXT ( 'NONE', 'WORKASPACE' ) );
#150 = PLANE ( 'NONE',  #31 ) ;
#151 = CARTESIAN_POINT ( 'NONE',  ( 0.5000000000000005551, -4.999999999999995559, 6.123233995736761352E-16 ) ) ;
#152 = VECTOR ( 'NONE', #4, 999.9999999999998863 ) ;
#153 = ADVANCED_FACE ( 'NONE', ( #146 ), #10, .T. ) ;
#154 = LINE ( 'NONE', #43, #61 ) ;
#155 = EDGE_CURVE ( 'NONE', #185, #106, #114, .T. ) ;
#156 = CARTESIAN_POINT ( 'NONE',  ( 66.99999999999998579, -6.123233995736766282E-16, 0.0000000000000000000 ) ) ;
#157 = CARTESIAN_POINT ( 'NONE',  ( 0.5000000000000003331, 4.999999999999995559, 0.0000000000000000000 ) ) ;
#158 = SHAPE_DEFINITION_REPRESENTATION ( #204, #89 ) ;
#159 = DIRECTION ( 'NONE',  ( 0.0000000000000000000, 1.000000000000000000, 0.0000000000000000000 ) ) ;
#160 = ORIENTED_EDGE ( 'NONE', *, *, #119, .F. ) ;
#161 = CARTESIAN_POINT ( 'NONE',  ( -4.762515330017471204E-17, 4.499999999999990230, 0.0000000000000000000 ) ) ;
#162 = ORIENTED_EDGE ( 'NONE', *, *, #203, .T. ) ;
#163 = DIRECTION ( 'NONE',  ( 1.000000000000000000, 2.381257665008741457E-17, -0.0000000000000000000 ) ) ;
#164 = CARTESIAN_POINT ( 'NONE',  ( 72.00000000000000000, -4.999999999999993783, 6.123233995736761352E-16 ) ) ;
#165 = STYLED_ITEM ( 'NONE', ( #101 ), #89 ) ;
#166 =( NAMED_UNIT ( * ) SI_UNIT ( $, .STERADIAN. ) SOLID_ANGLE_UNIT ( ) );
#167 = STYLED_ITEM ( 'NONE', ( #28 ), #194 ) ;
#168 = AXIS2_PLACEMENT_3D ( 'NONE', #156, #87, #159 ) ;
#169 = PRODUCT_DEFINITION_CONTEXT ( 'detailed design', #52, 'design' ) ;
#170 = DIRECTION ( 'NONE',  ( 1.000000000000000000, 0.0000000000000000000, 0.0000000000000000000 ) ) ;
#171 = EDGE_CURVE ( 'NONE', #91, #93, #179, .T. ) ;
#172 = PRODUCT_CONTEXT ( 'NONE', #30, 'mechanical' ) ;
#173 =( GEOMETRIC_REPRESENTATION_CONTEXT ( 3 ) GLOBAL_UNCERTAINTY_ASSIGNED_CONTEXT ( ( #187 ) ) GLOBAL_UNIT_ASSIGNED_CONTEXT ( ( #198, #62, #65 ) ) REPRESENTATION_CONTEXT ( 'NONE', 'WORKASPACE' ) );
#174 = CARTESIAN_POINT ( 'NONE',  ( 0.5000000000000003331, 4.999999999999995559, 0.0000000000000000000 ) ) ;
#175 = LINE ( 'NONE', #157, #152 ) ;
#176 = CARTESIAN_POINT ( 'NONE',  ( 0.5000000000000004441, 1.190628832504383517E-17, 0.0000000000000000000 ) ) ;
#177 = EDGE_LOOP ( 'NONE', ( #60, #72, #110, #213 ) ) ;
#178 = CARTESIAN_POINT ( 'NONE',  ( 66.99999999999998579, -5.000000000000000888, 6.123233995736767268E-16 ) ) ;
#179 = CIRCLE ( 'NONE', #136, 5.000000000000002665 ) ;
#180 = ORIENTED_EDGE ( 'NONE', *, *, #203, .F. ) ;
#181 = CIRCLE ( 'NONE', #23, 4.999999999999995559 ) ;
#182 = SPHERICAL_SURFACE ( 'NONE', #168, 5.000000000000002665 ) ;
#183 = ORIENTED_EDGE ( 'NONE', *, *, #119, .T. ) ;
#184 =( NAMED_UNIT ( * ) PLANE_ANGLE_UNIT ( ) SI_UNIT ( $, .RADIAN. ) );
#185 = VERTEX_POINT ( 'NONE', #200 ) ;
#186 = CARTESIAN_POINT ( 'NONE',  ( 72.00000000000000000, 1.714505518806293849E-15, 0.0000000000000000000 ) ) ;
#187 = UNCERTAINTY_MEASURE_WITH_UNIT (LENGTH_MEASURE( 1.000000000000000082E-05 ), #198, 'distance_accuracy_value', 'NONE');
#188 = AXIS2_PLACEMENT_3D ( 'NONE', #69, #108, #86 ) ;
#189 = DIRECTION ( 'NONE',  ( -1.000000000000000000, -2.381257665008741457E-17, 0.0000000000000000000 ) ) ;
#190 = CARTESIAN_POINT ( 'NONE',  ( 72.00000000000000000, -1.870988165364009947E-16, 0.0000000000000000000 ) ) ;
#191 = AXIS2_PLACEMENT_3D ( 'NONE', #16, #202, #170 ) ;
#192 = CYLINDRICAL_SURFACE ( 'NONE', #22, 4.999999999999995559 ) ;
#193 = ORIENTED_EDGE ( 'NONE', *, *, #132, .F. ) ;
#194 = MANIFOLD_SOLID_BREP ( 'Fase1', #118 ) ;
#195 = SPHERICAL_SURFACE ( 'NONE', #13, 5.000000000000002665 ) ;
#196 = CARTESIAN_POINT ( 'NONE',  ( 66.99999999999998579, -6.123233995736766282E-16, 0.0000000000000000000 ) ) ;
#197 = EDGE_LOOP ( 'NONE', ( #125, #88, #180 ) ) ;
#198 =( LENGTH_UNIT ( ) NAMED_UNIT ( * ) SI_UNIT ( .MILLI., .METRE. ) );
#199 = DIRECTION ( 'NONE',  ( 1.000000000000000000, 2.381257665008764876E-17, -0.0000000000000000000 ) ) ;
#200 = CARTESIAN_POINT ( 'NONE',  ( 1.666880365506115815E-16, -4.499999999999990230, 5.817072295949918551E-16 ) ) ;
#201 =( LENGTH_UNIT ( ) NAMED_UNIT ( * ) SI_UNIT ( .MILLI., .METRE. ) );
#202 = DIRECTION ( 'NONE',  ( 0.0000000000000000000, 0.0000000000000000000, 1.000000000000000000 ) ) ;
#203 = EDGE_CURVE ( 'NONE', #79, #93, #126, .T. ) ;
#204 = PRODUCT_DEFINITION_SHAPE ( 'NONE', 'NONE',  #83 ) ;
#205 = FACE_OUTER_BOUND ( 'NONE', #130, .T. ) ;
#206 = CARTESIAN_POINT ( 'NONE',  ( 66.99999999999998579, 5.000000000000001776, 0.0000000000000000000 ) ) ;
#207 = FACE_OUTER_BOUND ( 'NONE', #27, .T. ) ;
#208 = DIRECTION ( 'NONE',  ( 1.000000000000000000, 2.381257665008741457E-17, -0.0000000000000000000 ) ) ;
#209 = ADVANCED_FACE ( 'NONE', ( #74 ), #150, .T. ) ;
#210 = ORIENTED_EDGE ( 'NONE', *, *, #107, .T. ) ;
#211 = DIRECTION ( 'NONE',  ( 0.0000000000000000000, 1.000000000000000000, 0.0000000000000000000 ) ) ;
#212 = AXIS2_PLACEMENT_3D ( 'NONE', #80, #163, #8 ) ;
#213 = ORIENTED_EDGE ( 'NONE', *, *, #107, .F. ) ;
#214 = CARTESIAN_POINT ( 'NONE',  ( 5.953144162521842549E-17, 1.417597016790718285E-33, 0.0000000000000000000 ) ) ;
#215 = AXIS2_PLACEMENT_3D ( 'NONE', #105, #189, #42 ) ;
#216 = FILL_AREA_STYLE ('',( #36 ) ) ;
ENDSEC;
END-ISO-10303-21;
