ISO-10303-21;
HEADER;
FILE_DESCRIPTION (( 'STEP AP203' ),
    '1' );
FILE_NAME ('532.050.00.STEP',
    '2019-01-09T00:31:54',
    ( '' ),
    ( '' ),
    'SwSTEP 2.0',
    'SolidWorks 2019',
    '' );
FILE_SCHEMA (( 'CONFIG_CONTROL_DESIGN' ));
ENDSEC;

DATA;
#1 = CC_DESIGN_DATE_AND_TIME_ASSIGNMENT ( #3, #152, ( #53 ) ) ;
#2 = DIRECTION ( 'NONE',  ( -1.000000000000000000, 0.0000000000000000000, 0.0000000000000000000 ) ) ;
#3 = DATE_AND_TIME ( #5, #201 ) ;
#4 = DIRECTION ( 'NONE',  ( -6.982962677686266711E-15, 0.0000000000000000000, -1.000000000000000000 ) ) ;
#5 = CALENDAR_DATE ( 2019, 9, 1 ) ;
#6 = SECURITY_CLASSIFICATION ( '', '', #118 ) ;
#7 = APPROVAL_STATUS ( 'not_yet_approved' ) ;
#8 = DIRECTION ( 'NONE',  ( 1.000000000000000000, 0.0000000000000000000, 0.0000000000000000000 ) ) ;
#9 = CARTESIAN_POINT ( 'NONE',  ( 6.056509442254067229E-14, 0.0000000000000000000, 8.673266236417621400 ) ) ;
#10 = DIRECTION ( 'NONE',  ( 7.114799057831015636E-15, -0.0000000000000000000, 1.000000000000000000 ) ) ;
#11 = AXIS2_PLACEMENT_3D ( 'NONE', #219, #77, #19 ) ;
#12 =( LENGTH_UNIT ( ) NAMED_UNIT ( * ) SI_UNIT ( .MILLI., .METRE. ) );
#13 = EDGE_LOOP ( 'NONE', ( #216 ) ) ;
#14 = EDGE_CURVE ( 'NONE', #144, #144, #234, .T. ) ;
#15 = DATE_AND_TIME ( #149, #229 ) ;
#16 = AXIS2_PLACEMENT_3D ( 'NONE', #117, #62, #191 ) ;
#17 = DIRECTION ( 'NONE',  ( -1.000000000000000000, 0.0000000000000000000, 6.982962677686266711E-15 ) ) ;
#18 = EDGE_CURVE ( 'NONE', #164, #164, #79, .T. ) ;
#19 = DIRECTION ( 'NONE',  ( 1.000000000000000000, 0.0000000000000000000, -6.938893903907137659E-15 ) ) ;
#20 = DIRECTION ( 'NONE',  ( 1.000000000000000000, 0.0000000000000000000, 0.0000000000000000000 ) ) ;
#21 = CC_DESIGN_PERSON_AND_ORGANIZATION_ASSIGNMENT ( #51, #184, ( #53 ) ) ;
#22 = FACE_OUTER_BOUND ( 'NONE', #13, .T. ) ;
#23 = APPLICATION_CONTEXT ( 'configuration controlled 3d designs of mechanical parts and assemblies' ) ;
#24 = PERSON_AND_ORGANIZATION ( #130, #141 ) ;
#25 = DIRECTION ( 'NONE',  ( 7.114799057831015636E-15, -0.0000000000000000000, 1.000000000000000000 ) ) ;
#26 = CARTESIAN_POINT ( 'NONE',  ( 0.2499999999997427891, 0.0000000000000000000, -36.50000000000000711 ) ) ;
#27 =( NAMED_UNIT ( * ) PLANE_ANGLE_UNIT ( ) SI_UNIT ( $, .RADIAN. ) );
#28 = ORIENTED_EDGE ( 'NONE', *, *, #58, .T. ) ;
#29 = CARTESIAN_POINT ( 'NONE',  ( 1.199999999999998845, 0.0000000000000000000, -8.379555213223512164E-15 ) ) ;
#30 =( GEOMETRIC_REPRESENTATION_CONTEXT ( 3 ) GLOBAL_UNCERTAINTY_ASSIGNED_CONTEXT ( ( #92 ) ) GLOBAL_UNIT_ASSIGNED_CONTEXT ( ( #12, #27, #213 ) ) REPRESENTATION_CONTEXT ( 'NONE', 'WORKASPACE' ) );
#31 = CC_DESIGN_PERSON_AND_ORGANIZATION_ASSIGNMENT ( #190, #143, ( #6 ) ) ;
#32 = EDGE_LOOP ( 'NONE', ( #166 ) ) ;
#33 = CLOSED_SHELL ( 'NONE', ( #67, #142, #84 ) ) ;
#34 = CARTESIAN_POINT ( 'NONE',  ( -2.572192218291146937E-13, 0.0000000000000000000, -36.15270364466616115 ) ) ;
#35 = APPROVAL_ROLE ( '' ) ;
#36 = AXIS2_PLACEMENT_3D ( 'NONE', #236, #233, #157 ) ;
#37 = CALENDAR_DATE ( 2019, 9, 1 ) ;
#38 = FACE_OUTER_BOUND ( 'NONE', #69, .T. ) ;
#39 = DIRECTION ( 'NONE',  ( 7.114799057831015636E-15, -0.0000000000000000000, 1.000000000000000000 ) ) ;
#40 = APPROVAL_PERSON_ORGANIZATION ( #136, #127, #35 ) ;
#41 = FACE_OUTER_BOUND ( 'NONE', #215, .T. ) ;
#42 = VERTEX_POINT ( 'NONE', #199 ) ;
#43 = AXIS2_PLACEMENT_3D ( 'NONE', #34, #172, #8 ) ;
#44 = ORIENTED_EDGE ( 'NONE', *, *, #198, .T. ) ;
#45 = EDGE_LOOP ( 'NONE', ( #28 ) ) ;
#46 = ORIENTED_EDGE ( 'NONE', *, *, #155, .T. ) ;
#47 = LOCAL_TIME ( 1, 31, 54.00000000000000000, #210 ) ;
#48 = APPLICATION_PROTOCOL_DEFINITION ( 'international standard', 'config_control_design', 1994, #50 ) ;
#49 = EDGE_LOOP ( 'NONE', ( #46 ) ) ;
#50 = APPLICATION_CONTEXT ( 'configuration controlled 3d designs of mechanical parts and assemblies' ) ;
#51 = PERSON_AND_ORGANIZATION ( #130, #141 ) ;
#52 = FACE_OUTER_BOUND ( 'NONE', #45, .T. ) ;
#53 = PRODUCT_DEFINITION ( 'UNKNOWN', '', #162, #204 ) ;
#54 = PERSON_AND_ORGANIZATION_ROLE ( 'design_owner' ) ;
#55 = CARTESIAN_POINT ( 'NONE',  ( -2.693140849219225673E-13, 0.0000000000000000000, -37.74999999999989342 ) ) ;
#56 = CARTESIAN_POINT ( 'NONE',  ( 0.0000000000000000000, 0.0000000000000000000, 0.0000000000000000000 ) ) ;
#57 = PERSON_AND_ORGANIZATION_ROLE ( 'design_supplier' ) ;
#58 = EDGE_CURVE ( 'NONE', #42, #42, #180, .T. ) ;
#59 = FACE_OUTER_BOUND ( 'NONE', #239, .T. ) ;
#60 = AXIS2_PLACEMENT_3D ( 'NONE', #98, #134, #225 ) ;
#61 = APPROVAL_STATUS ( 'not_yet_approved' ) ;
#62 = DIRECTION ( 'NONE',  ( 6.982962677686266711E-15, 0.0000000000000000000, 1.000000000000000000 ) ) ;
#63 = PERSON_AND_ORGANIZATION ( #130, #141 ) ;
#64 = DIRECTION ( 'NONE',  ( 1.000000000000000000, 0.0000000000000000000, -6.982962677686266711E-15 ) ) ;
#65 = CARTESIAN_POINT ( 'NONE',  ( 1.499999999999811706, 0.0000000000000000000, -29.23592039842566237 ) ) ;
#66 = CARTESIAN_POINT ( 'NONE',  ( 0.2499999999997427891, 0.0000000000000000000, -36.50000000000000711 ) ) ;
#67 = ADVANCED_FACE ( 'NONE', ( #76 ), #111, .F. ) ;
#68 = CLOSED_SHELL ( 'NONE', ( #176, #135, #171, #122, #200, #78 ) ) ;
#69 = EDGE_LOOP ( 'NONE', ( #126 ) ) ;
#70 = EDGE_CURVE ( 'NONE', #71, #71, #90, .T. ) ;
#71 = VERTEX_POINT ( 'NONE', #123 ) ;
#72 = EDGE_LOOP ( 'NONE', ( #91 ) ) ;
#73 = AXIS2_PLACEMENT_3D ( 'NONE', #82, #39, #209 ) ;
#74 = CARTESIAN_POINT ( 'NONE',  ( 0.0000000000000000000, 0.0000000000000000000, 0.0000000000000000000 ) ) ;
#75 = AXIS2_PLACEMENT_3D ( 'NONE', #55, #168, #2 ) ;
#76 = FACE_OUTER_BOUND ( 'NONE', #240, .T. ) ;
#77 = DIRECTION ( 'NONE',  ( -7.114799057831015636E-15, 0.0000000000000000000, -1.000000000000000000 ) ) ;
#78 = ADVANCED_FACE ( 'NONE', ( #59 ), #153, .T. ) ;
#79 = CIRCLE ( 'NONE', #11, 1.500000000000019540 ) ;
#80 = CC_DESIGN_PERSON_AND_ORGANIZATION_ASSIGNMENT ( #63, #57, ( #162 ) ) ;
#81 = CC_DESIGN_APPROVAL ( #207, ( #6 ) ) ;
#82 = CARTESIAN_POINT ( 'NONE',  ( -2.572192218291146937E-13, 0.0000000000000000000, -36.15270364466616115 ) ) ;
#83 = MANIFOLD_SOLID_BREP ( 'Körper in Z minus drehen[1]', #68 ) ;
#84 = ADVANCED_FACE ( 'NONE', ( #52 ), #154, .T. ) ;
#85 = MANIFOLD_SOLID_BREP ( 'Körper in Z minus drehen[2]', #33 ) ;
#86 = PRODUCT ( '532.050.00', '532.050.00', '', ( #96 ) ) ;
#87 = EDGE_LOOP ( 'NONE', ( #183 ) ) ;
#88 = CARTESIAN_POINT ( 'NONE',  ( 1.499999999999997780, 0.0000000000000000000, -0.3000000000000120903 ) ) ;
#89 = EDGE_LOOP ( 'NONE', ( #148 ) ) ;
#90 = CIRCLE ( 'NONE', #43, 0.2803844939755855137 ) ;
#91 = ORIENTED_EDGE ( 'NONE', *, *, #70, .F. ) ;
#92 = UNCERTAINTY_MEASURE_WITH_UNIT (LENGTH_MEASURE( 1.000000000000000082E-05 ), #12, 'distance_accuracy_value', 'NONE');
#93 = DIRECTION ( 'NONE',  ( 6.982962677686266711E-15, 0.0000000000000000000, 1.000000000000000000 ) ) ;
#94 = LOCAL_TIME ( 1, 31, 54.00000000000000000, #188 ) ;
#95 = AXIS2_PLACEMENT_3D ( 'NONE', #121, #25, #177 ) ;
#96 = MECHANICAL_CONTEXT ( 'NONE', #50, 'mechanical' ) ;
#97 = DATE_AND_TIME ( #151, #192 ) ;
#98 = CARTESIAN_POINT ( 'NONE',  ( -2.636068410826558173E-13, 0.0000000000000000000, -37.74999999999989342 ) ) ;
#99 = FACE_OUTER_BOUND ( 'NONE', #146, .T. ) ;
#100 = PLANE ( 'NONE',  #242 ) ;
#101 = CARTESIAN_POINT ( 'NONE',  ( -2.596901656108321307E-13, 0.0000000000000000000, -36.50000000000000711 ) ) ;
#102 = DIRECTION ( 'NONE',  ( 7.533118505783949356E-15, -0.0000000000000000000, 1.000000000000000000 ) ) ;
#103 = AXIS2_PLACEMENT_3D ( 'NONE', #101, #189, #20 ) ;
#104 = EDGE_LOOP ( 'NONE', ( #218 ) ) ;
#105 = ORIENTED_EDGE ( 'NONE', *, *, #14, .T. ) ;
#106 = APPROVAL ( #7, 'UNSPECIFIED' ) ;
#107 = ORIENTED_EDGE ( 'NONE', *, *, #18, .F. ) ;
#108 = COORDINATED_UNIVERSAL_TIME_OFFSET ( 1, 0, .AHEAD. ) ;
#109 = EDGE_CURVE ( 'NONE', #196, #196, #185, .T. ) ;
#110 = AXIS2_PLACEMENT_3D ( 'NONE', #56, #222, #170 ) ;
#111 = PLANE ( 'NONE',  #205 ) ;
#112 = DIRECTION ( 'NONE',  ( 1.000000000000000000, 0.0000000000000000000, -6.982962677686266711E-15 ) ) ;
#113 = PERSON_AND_ORGANIZATION ( #130, #141 ) ;
#114 = CARTESIAN_POINT ( 'NONE',  ( -2.548781377355487223E-13, 0.0000000000000000000, -36.50000000000000000 ) ) ;
#115 = CC_DESIGN_SECURITY_CLASSIFICATION ( #6, ( #162 ) ) ;
#116 = FACE_BOUND ( 'NONE', #87, .T. ) ;
#117 = CARTESIAN_POINT ( 'NONE',  ( -2.653525817520781350E-13, 0.0000000000000000000, -38.00000000000000711 ) ) ;
#118 = SECURITY_CLASSIFICATION_LEVEL ( 'unclassified' ) ;
#119 = CYLINDRICAL_SURFACE ( 'NONE', #16, 1.500000000000019540 ) ;
#120 = DATE_AND_TIME ( #37, #47 ) ;
#121 = CARTESIAN_POINT ( 'NONE',  ( -2.596901656108321307E-13, 0.0000000000000000000, -36.50000000000000711 ) ) ;
#122 = ADVANCED_FACE ( 'NONE', ( #38, #116 ), #137, .T. ) ;
#123 = CARTESIAN_POINT ( 'NONE',  ( 0.2803844939753283305, 0.0000000000000000000, -36.15270364466616115 ) ) ;
#124 = CC_DESIGN_APPROVAL ( #127, ( #162 ) ) ;
#125 = FACE_OUTER_BOUND ( 'NONE', #72, .T. ) ;
#126 = ORIENTED_EDGE ( 'NONE', *, *, #18, .T. ) ;
#127 = APPROVAL ( #206, 'UNSPECIFIED' ) ;
#128 = FACE_OUTER_BOUND ( 'NONE', #49, .T. ) ;
#129 = AXIS2_PLACEMENT_3D ( 'NONE', #9, #102, #211 ) ;
#130 = PERSON ( 'UNSPECIFIED', 'UNSPECIFIED', 'UNSPECIFIED', ('UNSPECIFIED'), ('UNSPECIFIED'), ('UNSPECIFIED') ) ;
#131 = CARTESIAN_POINT ( 'NONE',  ( -2.094888803305891846E-15, 0.0000000000000000000, -0.3000000000000016542 ) ) ;
#132 = AXIS2_PLACEMENT_3D ( 'NONE', #145, #10, #163 ) ;
#133 = PERSON_AND_ORGANIZATION ( #130, #141 ) ;
#134 = DIRECTION ( 'NONE',  ( -6.982962677686266711E-15, 0.0000000000000000000, -1.000000000000000000 ) ) ;
#135 = ADVANCED_FACE ( 'NONE', ( #161, #158 ), #237, .T. ) ;
#136 = PERSON_AND_ORGANIZATION ( #130, #141 ) ;
#137 = CONICAL_SURFACE ( 'NONE', #73, 0.2803844939755855137, 0.1745329251994259256 ) ;
#138 = APPROVAL_ROLE ( '' ) ;
#139 = PERSON_AND_ORGANIZATION_ROLE ( 'creator' ) ;
#140 = FACE_OUTER_BOUND ( 'NONE', #104, .T. ) ;
#141 = ORGANIZATION ( 'UNSPECIFIED', 'UNSPECIFIED', '' ) ;
#142 = ADVANCED_FACE ( 'NONE', ( #140, #193 ), #232, .T. ) ;
#143 = PERSON_AND_ORGANIZATION_ROLE ( 'classification_officer' ) ;
#144 = VERTEX_POINT ( 'NONE', #88 ) ;
#145 = CARTESIAN_POINT ( 'NONE',  ( -2.596486272944849923E-13, 0.0000000000000000000, -36.50000000000000711 ) ) ;
#146 = EDGE_LOOP ( 'NONE', ( #107 ) ) ;
#147 = VERTEX_POINT ( 'NONE', #66 ) ;
#148 = ORIENTED_EDGE ( 'NONE', *, *, #109, .F. ) ;
#149 = CALENDAR_DATE ( 2019, 9, 1 ) ;
#150 = ORIENTED_EDGE ( 'NONE', *, *, #14, .F. ) ;
#151 = CALENDAR_DATE ( 2019, 9, 1 ) ;
#152 = DATE_TIME_ROLE ( 'creation_date' ) ;
#153 = PLANE ( 'NONE',  #156 ) ;
#154 = SPHERICAL_SURFACE ( 'NONE', #75, 0.2500000000000557332 ) ;
#155 = EDGE_CURVE ( 'NONE', #214, #214, #165, .T. ) ;
#156 = AXIS2_PLACEMENT_3D ( 'NONE', #203, #223, #17 ) ;
#157 = DIRECTION ( 'NONE',  ( -1.000000000000000000, 0.0000000000000000000, 6.982962677686266711E-15 ) ) ;
#158 = FACE_BOUND ( 'NONE', #89, .T. ) ;
#159 = CC_DESIGN_PERSON_AND_ORGANIZATION_ASSIGNMENT ( #133, #54, ( #86 ) ) ;
#160 = APPROVAL_DATE_TIME ( #208, #207 ) ;
#161 = FACE_OUTER_BOUND ( 'NONE', #181, .T. ) ;
#162 = PRODUCT_DEFINITION_FORMATION_WITH_SPECIFIED_SOURCE ( 'ANY', '', #86, .NOT_KNOWN. ) ;
#163 = DIRECTION ( 'NONE',  ( 1.000000000000000000, 0.0000000000000000000, -7.114799057831015636E-15 ) ) ;
#164 = VERTEX_POINT ( 'NONE', #65 ) ;
#165 = CIRCLE ( 'NONE', #103, 0.2500000000000024425 ) ;
#166 = ORIENTED_EDGE ( 'NONE', *, *, #58, .F. ) ;
#167 = APPROVAL_DATE_TIME ( #15, #127 ) ;
#168 = DIRECTION ( 'NONE',  ( 0.0000000000000000000, 1.000000000000000000, 0.0000000000000000000 ) ) ;
#169 = APPROVAL_DATE_TIME ( #97, #106 ) ;
#170 = DIRECTION ( 'NONE',  ( 1.000000000000000000, 0.0000000000000000000, 0.0000000000000000000 ) ) ;
#171 = ADVANCED_FACE ( 'NONE', ( #99, #41 ), #119, .T. ) ;
#172 = DIRECTION ( 'NONE',  ( 7.114799057831015636E-15, -0.0000000000000000000, 1.000000000000000000 ) ) ;
#173 = AXIS2_PLACEMENT_3D ( 'NONE', #74, #221, #112 ) ;
#174 = PERSON_AND_ORGANIZATION ( #130, #141 ) ;
#175 = CALENDAR_DATE ( 2019, 9, 1 ) ;
#176 = ADVANCED_FACE ( 'NONE', ( #22 ), #100, .T. ) ;
#177 = DIRECTION ( 'NONE',  ( 1.000000000000000000, 0.0000000000000000000, 0.0000000000000000000 ) ) ;
#178 = TOROIDAL_SURFACE ( 'NONE', #132, 2.250000000000000000, 1.999999999999997335 ) ;
#179 = ORIENTED_EDGE ( 'NONE', *, *, #155, .F. ) ;
#180 = CIRCLE ( 'NONE', #60, 0.2499999999999945877 ) ;
#181 = EDGE_LOOP ( 'NONE', ( #105 ) ) ;
#182 = ADVANCED_BREP_SHAPE_REPRESENTATION ( '532.050.00', ( #83, #85, #110 ), #30 ) ;
#183 = ORIENTED_EDGE ( 'NONE', *, *, #70, .T. ) ;
#184 = PERSON_AND_ORGANIZATION_ROLE ( 'creator' ) ;
#185 = CIRCLE ( 'NONE', #173, 1.199999999999998845 ) ;
#186 = COORDINATED_UNIVERSAL_TIME_OFFSET ( 1, 0, .AHEAD. ) ;
#187 = APPROVAL_PERSON_ORGANIZATION ( #174, #207, #138 ) ;
#188 = COORDINATED_UNIVERSAL_TIME_OFFSET ( 1, 0, .AHEAD. ) ;
#189 = DIRECTION ( 'NONE',  ( 7.114799057831015636E-15, -0.0000000000000000000, 1.000000000000000000 ) ) ;
#190 = PERSON_AND_ORGANIZATION ( #130, #141 ) ;
#191 = DIRECTION ( 'NONE',  ( 1.000000000000000000, 0.0000000000000000000, -9.251858538542850737E-15 ) ) ;
#192 = LOCAL_TIME ( 1, 31, 54.00000000000000000, #108 ) ;
#193 = FACE_OUTER_BOUND ( 'NONE', #32, .T. ) ;
#194 = CARTESIAN_POINT ( 'NONE',  ( -2.731838439118646275E-31, 0.0000000000000000000, -3.912148131405755132E-17 ) ) ;
#195 = SHAPE_DEFINITION_REPRESENTATION ( #238, #182 ) ;
#196 = VERTEX_POINT ( 'NONE', #29 ) ;
#197 = CIRCLE ( 'NONE', #95, 0.2500000000000024425 ) ;
#198 = EDGE_CURVE ( 'NONE', #147, #147, #197, .T. ) ;
#199 = CARTESIAN_POINT ( 'NONE',  ( -0.2500000000002581824, 0.0000000000000000000, -37.74999999999989342 ) ) ;
#200 = ADVANCED_FACE ( 'NONE', ( #125, #128 ), #178, .F. ) ;
#201 = LOCAL_TIME ( 1, 31, 54.00000000000000000, #186 ) ;
#202 = APPLICATION_PROTOCOL_DEFINITION ( 'international standard', 'config_control_design', 1994, #23 ) ;
#203 = CARTESIAN_POINT ( 'NONE',  ( -2.548781377355487223E-13, 0.0000000000000000000, -36.50000000000000000 ) ) ;
#204 = DESIGN_CONTEXT ( 'detailed design', #23, 'design' ) ;
#205 = AXIS2_PLACEMENT_3D ( 'NONE', #114, #4, #228 ) ;
#206 = APPROVAL_STATUS ( 'not_yet_approved' ) ;
#207 = APPROVAL ( #61, 'UNSPECIFIED' ) ;
#208 = DATE_AND_TIME ( #175, #94 ) ;
#209 = DIRECTION ( 'NONE',  ( 1.000000000000000000, 0.0000000000000000000, 0.0000000000000000000 ) ) ;
#210 = COORDINATED_UNIVERSAL_TIME_OFFSET ( 1, 0, .AHEAD. ) ;
#211 = DIRECTION ( 'NONE',  ( 1.000000000000000000, 0.0000000000000000000, -6.938893903906672231E-15 ) ) ;
#212 = CC_DESIGN_PERSON_AND_ORGANIZATION_ASSIGNMENT ( #24, #139, ( #162 ) ) ;
#213 =( NAMED_UNIT ( * ) SI_UNIT ( $, .STERADIAN. ) SOLID_ANGLE_UNIT ( ) );
#214 = VERTEX_POINT ( 'NONE', #26 ) ;
#215 = EDGE_LOOP ( 'NONE', ( #150 ) ) ;
#216 = ORIENTED_EDGE ( 'NONE', *, *, #109, .T. ) ;
#217 = AXIS2_PLACEMENT_3D ( 'NONE', #131, #93, #243 ) ;
#218 = ORIENTED_EDGE ( 'NONE', *, *, #198, .F. ) ;
#219 = CARTESIAN_POINT ( 'NONE',  ( -2.080076989055413719E-13, 0.0000000000000000000, -29.23592039842565171 ) ) ;
#220 = CC_DESIGN_DATE_AND_TIME_ASSIGNMENT ( #120, #231, ( #6 ) ) ;
#221 = DIRECTION ( 'NONE',  ( 6.982962677686266711E-15, 0.0000000000000000000, 1.000000000000000000 ) ) ;
#222 = DIRECTION ( 'NONE',  ( 0.0000000000000000000, 0.0000000000000000000, 1.000000000000000000 ) ) ;
#223 = DIRECTION ( 'NONE',  ( -6.982962677686266711E-15, 0.0000000000000000000, -1.000000000000000000 ) ) ;
#224 = CC_DESIGN_APPROVAL ( #106, ( #53 ) ) ;
#225 = DIRECTION ( 'NONE',  ( -1.000000000000000000, 0.0000000000000000000, 0.0000000000000000000 ) ) ;
#226 = PRODUCT_RELATED_PRODUCT_CATEGORY ( 'detail', '', ( #86 ) ) ;
#227 = APPROVAL_ROLE ( '' ) ;
#228 = DIRECTION ( 'NONE',  ( -1.000000000000000000, 0.0000000000000000000, 6.982962677686266711E-15 ) ) ;
#229 = LOCAL_TIME ( 1, 31, 54.00000000000000000, #241 ) ;
#230 = APPROVAL_PERSON_ORGANIZATION ( #113, #106, #227 ) ;
#231 = DATE_TIME_ROLE ( 'classification_date' ) ;
#232 = CYLINDRICAL_SURFACE ( 'NONE', #129, 0.2500000000000200395 ) ;
#233 = DIRECTION ( 'NONE',  ( -6.982962677686266711E-15, 0.0000000000000000000, -1.000000000000000000 ) ) ;
#234 = CIRCLE ( 'NONE', #217, 1.500000000000000000 ) ;
#235 = DIRECTION ( 'NONE',  ( 6.982962677686266711E-15, 0.0000000000000000000, 1.000000000000000000 ) ) ;
#236 = CARTESIAN_POINT ( 'NONE',  ( 0.0000000000000000000, 0.0000000000000000000, 0.0000000000000000000 ) ) ;
#237 = CONICAL_SURFACE ( 'NONE', #36, 1.199999999999998845, 0.7853981633974476129 ) ;
#238 = PRODUCT_DEFINITION_SHAPE ( 'NONE', 'NONE',  #53 ) ;
#239 = EDGE_LOOP ( 'NONE', ( #179 ) ) ;
#240 = EDGE_LOOP ( 'NONE', ( #44 ) ) ;
#241 = COORDINATED_UNIVERSAL_TIME_OFFSET ( 1, 0, .AHEAD. ) ;
#242 = AXIS2_PLACEMENT_3D ( 'NONE', #194, #235, #64 ) ;
#243 = DIRECTION ( 'NONE',  ( 1.000000000000000000, 0.0000000000000000000, -6.975033976323412122E-15 ) ) ;
ENDSEC;
END-ISO-10303-21;
16929