ISO-10303-21;
HEADER;
FILE_DESCRIPTION (( 'STEP AP203' ),
    '1' );
FILE_NAME ('532.030.09.STEP',
    '2019-01-09T00:31:50',
    ( '' ),
    ( '' ),
    'SwSTEP 2.0',
    'SolidWorks 2019',
    '' );
FILE_SCHEMA (( 'CONFIG_CONTROL_DESIGN' ));
ENDSEC;

DATA;
#1 = APPLICATION_PROTOCOL_DEFINITION ( 'international standard', 'config_control_design', 1994, #8 ) ;
#2 = DIRECTION ( 'NONE',  ( 7.115295513740193365E-15, -0.0000000000000000000, 1.000000000000000000 ) ) ;
#3 = DATE_TIME_ROLE ( 'creation_date' ) ;
#4 = EDGE_CURVE ( 'NONE', #197, #197, #88, .T. ) ;
#5 = FACE_OUTER_BOUND ( 'NONE', #32, .T. ) ;
#6 = PERSON_AND_ORGANIZATION ( #48, #211 ) ;
#7 = APPROVAL_STATUS ( 'not_yet_approved' ) ;
#8 = APPLICATION_CONTEXT ( 'configuration controlled 3d designs of mechanical parts and assemblies' ) ;
#9 = CARTESIAN_POINT ( 'NONE',  ( -2.607948178093420086E-13, 0.0000000000000000000, -36.65270364466616115 ) ) ;
#10 = FACE_OUTER_BOUND ( 'NONE', #92, .T. ) ;
#11 = PERSON_AND_ORGANIZATION ( #48, #211 ) ;
#12 = EDGE_CURVE ( 'NONE', #132, #132, #142, .T. ) ;
#13 = ORIENTED_EDGE ( 'NONE', *, *, #205, .F. ) ;
#14 = DIRECTION ( 'NONE',  ( 1.000000000000000000, 0.0000000000000000000, -9.251858538542850737E-15 ) ) ;
#15 = EDGE_LOOP ( 'NONE', ( #51 ) ) ;
#16 = EDGE_LOOP ( 'NONE', ( #79 ) ) ;
#17 = CC_DESIGN_APPROVAL ( #170, ( #144 ) ) ;
#18 = CALENDAR_DATE ( 2019, 9, 1 ) ;
#19 = AXIS2_PLACEMENT_3D ( 'NONE', #214, #93, #14 ) ;
#20 = CLOSED_SHELL ( 'NONE', ( #157, #223, #111 ) ) ;
#21 = APPROVAL_ROLE ( '' ) ;
#22 = AXIS2_PLACEMENT_3D ( 'NONE', #137, #30, #194 ) ;
#23 = DIRECTION ( 'NONE',  ( 7.115295513740193365E-15, -0.0000000000000000000, 1.000000000000000000 ) ) ;
#24 = DATE_AND_TIME ( #228, #218 ) ;
#25 = DIRECTION ( 'NONE',  ( 1.000000000000000000, 0.0000000000000000000, 0.0000000000000000000 ) ) ;
#26 = CARTESIAN_POINT ( 'NONE',  ( -2.731838439118646275E-31, 0.0000000000000000000, -3.912148131405755132E-17 ) ) ;
#27 = EDGE_CURVE ( 'NONE', #179, #179, #58, .T. ) ;
#28 = COORDINATED_UNIVERSAL_TIME_OFFSET ( 1, 0, .AHEAD. ) ;
#29 = APPROVAL_ROLE ( '' ) ;
#30 = DIRECTION ( 'NONE',  ( 6.982962677686266711E-15, 0.0000000000000000000, 1.000000000000000000 ) ) ;
#31 = VERTEX_POINT ( 'NONE', #151 ) ;
#32 = EDGE_LOOP ( 'NONE', ( #77 ) ) ;
#33 = CARTESIAN_POINT ( 'NONE',  ( 1.499999999999811928, 0.0000000000000000000, -29.16879221646387066 ) ) ;
#34 = APPROVAL_PERSON_ORGANIZATION ( #122, #108, #29 ) ;
#35 = ORIENTED_EDGE ( 'NONE', *, *, #76, .T. ) ;
#36 = LOCAL_TIME ( 1, 31, 50.00000000000000000, #133 ) ;
#37 = AXIS2_PLACEMENT_3D ( 'NONE', #46, #124, #178 ) ;
#38 = CARTESIAN_POINT ( 'NONE',  ( 0.0000000000000000000, 0.0000000000000000000, 0.0000000000000000000 ) ) ;
#39 = PERSON_AND_ORGANIZATION ( #48, #211 ) ;
#40 = ADVANCED_FACE ( 'NONE', ( #5, #135 ), #227, .F. ) ;
#41 = DIRECTION ( 'NONE',  ( 0.0000000000000000000, 0.0000000000000000000, 1.000000000000000000 ) ) ;
#42 = CLOSED_SHELL ( 'NONE', ( #161, #53, #239, #213, #40, #199 ) ) ;
#43 = DIRECTION ( 'NONE',  ( -1.000000000000000000, 0.0000000000000000000, 0.0000000000000000000 ) ) ;
#44 = CARTESIAN_POINT ( 'NONE',  ( -2.699975226033692778E-13, 0.0000000000000000000, -37.84999999999971720 ) ) ;
#45 = PERSON_AND_ORGANIZATION_ROLE ( 'creator' ) ;
#46 = CARTESIAN_POINT ( 'NONE',  ( -2.583696190743918430E-13, 0.0000000000000000000, -37.00000000000000000 ) ) ;
#47 = CC_DESIGN_PERSON_AND_ORGANIZATION_ASSIGNMENT ( #6, #112, ( #69 ) ) ;
#48 = PERSON ( 'UNSPECIFIED', 'UNSPECIFIED', 'UNSPECIFIED', ('UNSPECIFIED'), ('UNSPECIFIED'), ('UNSPECIFIED') ) ;
#49 = CARTESIAN_POINT ( 'NONE',  ( 0.1499999999997389810, 0.0000000000000000000, -37.00000000000000711 ) ) ;
#50 = CARTESIAN_POINT ( 'NONE',  ( 0.1803844939753254106, 0.0000000000000000000, -36.65270364466616115 ) ) ;
#51 = ORIENTED_EDGE ( 'NONE', *, *, #183, .T. ) ;
#52 = EDGE_LOOP ( 'NONE', ( #35 ) ) ;
#53 = ADVANCED_FACE ( 'NONE', ( #113, #172 ), #234, .T. ) ;
#54 = ORIENTED_EDGE ( 'NONE', *, *, #4, .T. ) ;
#55 = EDGE_LOOP ( 'NONE', ( #74 ) ) ;
#56 = PRODUCT_RELATED_PRODUCT_CATEGORY ( 'detail', '', ( #69 ) ) ;
#57 = DIRECTION ( 'NONE',  ( -1.000000000000000000, 0.0000000000000000000, 6.982962677686266711E-15 ) ) ;
#58 = CIRCLE ( 'NONE', #97, 0.1803844939755862298 ) ;
#59 = APPROVAL_ROLE ( '' ) ;
#60 = DIRECTION ( 'NONE',  ( 1.000000000000000000, 0.0000000000000000000, -7.115295513740193365E-15 ) ) ;
#61 = CIRCLE ( 'NONE', #240, 0.1500000000000022704 ) ;
#62 = MECHANICAL_CONTEXT ( 'NONE', #173, 'mechanical' ) ;
#63 = DIRECTION ( 'NONE',  ( 7.115295513740193365E-15, -0.0000000000000000000, 1.000000000000000000 ) ) ;
#64 = PERSON_AND_ORGANIZATION_ROLE ( 'design_supplier' ) ;
#65 = CC_DESIGN_PERSON_AND_ORGANIZATION_ASSIGNMENT ( #159, #195, ( #127 ) ) ;
#66 = DIRECTION ( 'NONE',  ( -7.115295513740193365E-15, 0.0000000000000000000, -1.000000000000000000 ) ) ;
#67 = APPROVAL_STATUS ( 'not_yet_approved' ) ;
#68 = CONICAL_SURFACE ( 'NONE', #201, 0.1803844939755862298, 0.1745329251994258979 ) ;
#69 = PRODUCT ( '532.030.09', '532.030.09', '', ( #62 ) ) ;
#70 = FACE_OUTER_BOUND ( 'NONE', #52, .T. ) ;
#71 = UNCERTAINTY_MEASURE_WITH_UNIT (LENGTH_MEASURE( 1.000000000000000082E-05 ), #167, 'distance_accuracy_value', 'NONE');
#72 = CARTESIAN_POINT ( 'NONE',  ( 6.056509442254067229E-14, 0.0000000000000000000, 8.673266236417621400 ) ) ;
#73 = CARTESIAN_POINT ( 'NONE',  ( -0.1500000000002577605, 0.0000000000000000000, -37.84999999999971720 ) ) ;
#74 = ORIENTED_EDGE ( 'NONE', *, *, #140, .T. ) ;
#75 = AXIS2_PLACEMENT_3D ( 'NONE', #104, #191, #212 ) ;
#76 = EDGE_CURVE ( 'NONE', #31, #31, #61, .T. ) ;
#77 = ORIENTED_EDGE ( 'NONE', *, *, #27, .F. ) ;
#78 = VERTEX_POINT ( 'NONE', #33 ) ;
#79 = ORIENTED_EDGE ( 'NONE', *, *, #4, .F. ) ;
#80 = CC_DESIGN_DATE_AND_TIME_ASSIGNMENT ( #230, #193, ( #127 ) ) ;
#81 = DIRECTION ( 'NONE',  ( 1.000000000000000000, 0.0000000000000000000, 0.0000000000000000000 ) ) ;
#82 = PRODUCT_DEFINITION_FORMATION_WITH_SPECIFIED_SOURCE ( 'ANY', '', #69, .NOT_KNOWN. ) ;
#83 = DIRECTION ( 'NONE',  ( 1.000000000000000000, 0.0000000000000000000, 0.0000000000000000000 ) ) ;
#84 = CARTESIAN_POINT ( 'NONE',  ( -2.632659340083872050E-13, 0.0000000000000000000, -37.00000000000000711 ) ) ;
#85 = DATE_AND_TIME ( #190, #96 ) ;
#86 = SECURITY_CLASSIFICATION_LEVEL ( 'unclassified' ) ;
#87 = AXIS2_PLACEMENT_3D ( 'NONE', #26, #145, #102 ) ;
#88 = CIRCLE ( 'NONE', #209, 0.1500000000000022704 ) ;
#89 = FACE_BOUND ( 'NONE', #219, .T. ) ;
#90 = EDGE_LOOP ( 'NONE', ( #134 ) ) ;
#91 = FACE_OUTER_BOUND ( 'NONE', #90, .T. ) ;
#92 = EDGE_LOOP ( 'NONE', ( #13 ) ) ;
#93 = DIRECTION ( 'NONE',  ( 6.982962677686266711E-15, 0.0000000000000000000, 1.000000000000000000 ) ) ;
#94 = ORIENTED_EDGE ( 'NONE', *, *, #140, .F. ) ;
#95 = PERSON_AND_ORGANIZATION ( #48, #211 ) ;
#96 = LOCAL_TIME ( 1, 31, 50.00000000000000000, #163 ) ;
#97 = AXIS2_PLACEMENT_3D ( 'NONE', #9, #63, #220 ) ;
#98 = CC_DESIGN_PERSON_AND_ORGANIZATION_ASSIGNMENT ( #11, #45, ( #82 ) ) ;
#99 = DATE_AND_TIME ( #18, #36 ) ;
#100 = DIRECTION ( 'NONE',  ( 6.982962677686266711E-15, 0.0000000000000000000, 1.000000000000000000 ) ) ;
#101 = FACE_OUTER_BOUND ( 'NONE', #215, .T. ) ;
#102 = DIRECTION ( 'NONE',  ( 1.000000000000000000, 0.0000000000000000000, -6.982962677686266711E-15 ) ) ;
#103 = AXIS2_PLACEMENT_3D ( 'NONE', #125, #196, #43 ) ;
#104 = CARTESIAN_POINT ( 'NONE',  ( -2.583696190743918430E-13, 0.0000000000000000000, -37.00000000000000000 ) ) ;
#105 = FACE_OUTER_BOUND ( 'NONE', #15, .T. ) ;
#106 = ORIENTED_EDGE ( 'NONE', *, *, #12, .F. ) ;
#107 = CIRCLE ( 'NONE', #22, 1.500000000000000000 ) ;
#108 = APPROVAL ( #67, 'UNSPECIFIED' ) ;
#109 = ORIENTED_EDGE ( 'NONE', *, *, #76, .F. ) ;
#110 = CYLINDRICAL_SURFACE ( 'NONE', #19, 1.500000000000019540 ) ;
#111 = ADVANCED_FACE ( 'NONE', ( #155 ), #117, .T. ) ;
#112 = PERSON_AND_ORGANIZATION_ROLE ( 'design_owner' ) ;
#113 = FACE_OUTER_BOUND ( 'NONE', #55, .T. ) ;
#114 = CC_DESIGN_PERSON_AND_ORGANIZATION_ASSIGNMENT ( #158, #64, ( #82 ) ) ;
#115 = CARTESIAN_POINT ( 'NONE',  ( -2.632659340083872050E-13, 0.0000000000000000000, -37.00000000000000711 ) ) ;
#116 = PERSON_AND_ORGANIZATION ( #48, #211 ) ;
#117 = SPHERICAL_SURFACE ( 'NONE', #118, 0.1500000000001439626 ) ;
#118 = AXIS2_PLACEMENT_3D ( 'NONE', #44, #229, #164 ) ;
#119 = APPROVAL ( #171, 'UNSPECIFIED' ) ;
#120 = CC_DESIGN_APPROVAL ( #108, ( #127 ) ) ;
#121 = CARTESIAN_POINT ( 'NONE',  ( -2.607948178093420086E-13, 0.0000000000000000000, -36.65270364466616115 ) ) ;
#122 = PERSON_AND_ORGANIZATION ( #48, #211 ) ;
#123 = PLANE ( 'NONE',  #75 ) ;
#124 = DIRECTION ( 'NONE',  ( -6.982962677686266711E-15, 0.0000000000000000000, -1.000000000000000000 ) ) ;
#125 = CARTESIAN_POINT ( 'NONE',  ( -2.643051373504232197E-13, 0.0000000000000000000, -37.84999999999971720 ) ) ;
#126 = CARTESIAN_POINT ( 'NONE',  ( 1.199999999999998845, 0.0000000000000000000, -8.379555213223512164E-15 ) ) ;
#127 = SECURITY_CLASSIFICATION ( '', '', #86 ) ;
#128 = DIRECTION ( 'NONE',  ( 1.000000000000000000, 0.0000000000000000000, -1.156482317317719356E-14 ) ) ;
#129 = EDGE_LOOP ( 'NONE', ( #54 ) ) ;
#130 = FACE_OUTER_BOUND ( 'NONE', #180, .T. ) ;
#131 = CYLINDRICAL_SURFACE ( 'NONE', #204, 0.1500000000000197287 ) ;
#132 = VERTEX_POINT ( 'NONE', #126 ) ;
#133 = COORDINATED_UNIVERSAL_TIME_OFFSET ( 1, 0, .AHEAD. ) ;
#134 = ORIENTED_EDGE ( 'NONE', *, *, #183, .F. ) ;
#135 = FACE_OUTER_BOUND ( 'NONE', #129, .T. ) ;
#136 = AXIS2_PLACEMENT_3D ( 'NONE', #38, #100, #226 ) ;
#137 = CARTESIAN_POINT ( 'NONE',  ( -2.094888803305891846E-15, 0.0000000000000000000, -0.3000000000000016542 ) ) ;
#138 = APPROVAL_PERSON_ORGANIZATION ( #116, #170, #21 ) ;
#139 = PRODUCT_DEFINITION_SHAPE ( 'NONE', 'NONE',  #144 ) ;
#140 = EDGE_CURVE ( 'NONE', #166, #166, #107, .T. ) ;
#141 = COORDINATED_UNIVERSAL_TIME_OFFSET ( 1, 0, .AHEAD. ) ;
#142 = CIRCLE ( 'NONE', #136, 1.199999999999998845 ) ;
#143 = CALENDAR_DATE ( 2019, 9, 1 ) ;
#144 = PRODUCT_DEFINITION ( 'UNKNOWN', '', #82, #152 ) ;
#145 = DIRECTION ( 'NONE',  ( 6.982962677686266711E-15, 0.0000000000000000000, 1.000000000000000000 ) ) ;
#146 = APPROVAL_DATE_TIME ( #85, #119 ) ;
#147 = DIRECTION ( 'NONE',  ( 7.533118505783949356E-15, -0.0000000000000000000, 1.000000000000000000 ) ) ;
#148 = LOCAL_TIME ( 1, 31, 50.00000000000000000, #28 ) ;
#149 = CC_DESIGN_SECURITY_CLASSIFICATION ( #127, ( #82 ) ) ;
#150 = EDGE_LOOP ( 'NONE', ( #168 ) ) ;
#151 = CARTESIAN_POINT ( 'NONE',  ( 0.1499999999997389810, 0.0000000000000000000, -37.00000000000000711 ) ) ;
#152 = DESIGN_CONTEXT ( 'detailed design', #8, 'design' ) ;
#153 = ADVANCED_BREP_SHAPE_REPRESENTATION ( '532.030.09', ( #241, #238, #187 ), #186 ) ;
#154 = CARTESIAN_POINT ( 'NONE',  ( -2.631401086333281130E-13, 0.0000000000000000000, -37.00000000000000711 ) ) ;
#155 = FACE_OUTER_BOUND ( 'NONE', #150, .T. ) ;
#156 = AXIS2_PLACEMENT_3D ( 'NONE', #154, #203, #60 ) ;
#157 = ADVANCED_FACE ( 'NONE', ( #70 ), #123, .F. ) ;
#158 = PERSON_AND_ORGANIZATION ( #48, #211 ) ;
#159 = PERSON_AND_ORGANIZATION ( #48, #211 ) ;
#160 = DIRECTION ( 'NONE',  ( 1.000000000000000000, 0.0000000000000000000, -6.938893903907137659E-15 ) ) ;
#161 = ADVANCED_FACE ( 'NONE', ( #162 ), #231, .T. ) ;
#162 = FACE_OUTER_BOUND ( 'NONE', #182, .T. ) ;
#163 = COORDINATED_UNIVERSAL_TIME_OFFSET ( 1, 0, .AHEAD. ) ;
#164 = DIRECTION ( 'NONE',  ( -1.000000000000000000, 0.0000000000000000000, 0.0000000000000000000 ) ) ;
#165 = CC_DESIGN_DATE_AND_TIME_ASSIGNMENT ( #174, #3, ( #144 ) ) ;
#166 = VERTEX_POINT ( 'NONE', #237 ) ;
#167 =( LENGTH_UNIT ( ) NAMED_UNIT ( * ) SI_UNIT ( .MILLI., .METRE. ) );
#168 = ORIENTED_EDGE ( 'NONE', *, *, #205, .T. ) ;
#169 = CIRCLE ( 'NONE', #103, 0.1499999999999934441 ) ;
#170 = APPROVAL ( #7, 'UNSPECIFIED' ) ;
#171 = APPROVAL_STATUS ( 'not_yet_approved' ) ;
#172 = FACE_BOUND ( 'NONE', #202, .T. ) ;
#173 = APPLICATION_CONTEXT ( 'configuration controlled 3d designs of mechanical parts and assemblies' ) ;
#174 = DATE_AND_TIME ( #175, #192 ) ;
#175 = CALENDAR_DATE ( 2019, 9, 1 ) ;
#176 = DIRECTION ( 'NONE',  ( -6.982962677686266711E-15, 0.0000000000000000000, -1.000000000000000000 ) ) ;
#177 = AXIS2_PLACEMENT_3D ( 'NONE', #235, #66, #160 ) ;
#178 = DIRECTION ( 'NONE',  ( -1.000000000000000000, 0.0000000000000000000, 6.982962677686266711E-15 ) ) ;
#179 = VERTEX_POINT ( 'NONE', #50 ) ;
#180 = EDGE_LOOP ( 'NONE', ( #94 ) ) ;
#181 = ORIENTED_EDGE ( 'NONE', *, *, #27, .T. ) ;
#182 = EDGE_LOOP ( 'NONE', ( #243 ) ) ;
#183 = EDGE_CURVE ( 'NONE', #78, #78, #217, .T. ) ;
#184 = PERSON_AND_ORGANIZATION_ROLE ( 'creator' ) ;
#185 = APPROVAL_DATE_TIME ( #99, #170 ) ;
#186 =( GEOMETRIC_REPRESENTATION_CONTEXT ( 3 ) GLOBAL_UNCERTAINTY_ASSIGNED_CONTEXT ( ( #71 ) ) GLOBAL_UNIT_ASSIGNED_CONTEXT ( ( #167, #198, #200 ) ) REPRESENTATION_CONTEXT ( 'NONE', 'WORKASPACE' ) );
#187 = AXIS2_PLACEMENT_3D ( 'NONE', #224, #41, #221 ) ;
#188 = COORDINATED_UNIVERSAL_TIME_OFFSET ( 1, 0, .AHEAD. ) ;
#189 = DIRECTION ( 'NONE',  ( 7.115295513740193365E-15, -0.0000000000000000000, 1.000000000000000000 ) ) ;
#190 = CALENDAR_DATE ( 2019, 9, 1 ) ;
#191 = DIRECTION ( 'NONE',  ( -6.982962677686266711E-15, 0.0000000000000000000, -1.000000000000000000 ) ) ;
#192 = LOCAL_TIME ( 1, 31, 50.00000000000000000, #141 ) ;
#193 = DATE_TIME_ROLE ( 'classification_date' ) ;
#194 = DIRECTION ( 'NONE',  ( 1.000000000000000000, 0.0000000000000000000, -6.975033976323412122E-15 ) ) ;
#195 = PERSON_AND_ORGANIZATION_ROLE ( 'classification_officer' ) ;
#196 = DIRECTION ( 'NONE',  ( -6.982962677686266711E-15, 0.0000000000000000000, -1.000000000000000000 ) ) ;
#197 = VERTEX_POINT ( 'NONE', #49 ) ;
#198 =( NAMED_UNIT ( * ) PLANE_ANGLE_UNIT ( ) SI_UNIT ( $, .RADIAN. ) );
#199 = ADVANCED_FACE ( 'NONE', ( #232 ), #207, .T. ) ;
#200 =( NAMED_UNIT ( * ) SI_UNIT ( $, .STERADIAN. ) SOLID_ANGLE_UNIT ( ) );
#201 = AXIS2_PLACEMENT_3D ( 'NONE', #121, #189, #25 ) ;
#202 = EDGE_LOOP ( 'NONE', ( #106 ) ) ;
#203 = DIRECTION ( 'NONE',  ( 7.115295513740193365E-15, -0.0000000000000000000, 1.000000000000000000 ) ) ;
#204 = AXIS2_PLACEMENT_3D ( 'NONE', #72, #147, #128 ) ;
#205 = EDGE_CURVE ( 'NONE', #216, #216, #169, .T. ) ;
#206 = APPROVAL_DATE_TIME ( #24, #108 ) ;
#207 = PLANE ( 'NONE',  #37 ) ;
#208 = APPROVAL_PERSON_ORGANIZATION ( #95, #119, #59 ) ;
#209 = AXIS2_PLACEMENT_3D ( 'NONE', #84, #23, #83 ) ;
#210 = SHAPE_DEFINITION_REPRESENTATION ( #139, #153 ) ;
#211 = ORGANIZATION ( 'UNSPECIFIED', 'UNSPECIFIED', '' ) ;
#212 = DIRECTION ( 'NONE',  ( -1.000000000000000000, 0.0000000000000000000, 6.982962677686266711E-15 ) ) ;
#213 = ADVANCED_FACE ( 'NONE', ( #105, #89 ), #68, .T. ) ;
#214 = CARTESIAN_POINT ( 'NONE',  ( -2.653525817520781350E-13, 0.0000000000000000000, -38.00000000000000711 ) ) ;
#215 = EDGE_LOOP ( 'NONE', ( #109 ) ) ;
#216 = VERTEX_POINT ( 'NONE', #73 ) ;
#217 = CIRCLE ( 'NONE', #177, 1.500000000000019540 ) ;
#218 = LOCAL_TIME ( 1, 31, 50.00000000000000000, #188 ) ;
#219 = EDGE_LOOP ( 'NONE', ( #181 ) ) ;
#220 = DIRECTION ( 'NONE',  ( 1.000000000000000000, 0.0000000000000000000, 0.0000000000000000000 ) ) ;
#221 = DIRECTION ( 'NONE',  ( 1.000000000000000000, 0.0000000000000000000, 0.0000000000000000000 ) ) ;
#222 = CARTESIAN_POINT ( 'NONE',  ( 0.0000000000000000000, 0.0000000000000000000, 0.0000000000000000000 ) ) ;
#223 = ADVANCED_FACE ( 'NONE', ( #101, #10 ), #131, .T. ) ;
#224 = CARTESIAN_POINT ( 'NONE',  ( 0.0000000000000000000, 0.0000000000000000000, 0.0000000000000000000 ) ) ;
#225 = CC_DESIGN_PERSON_AND_ORGANIZATION_ASSIGNMENT ( #39, #184, ( #144 ) ) ;
#226 = DIRECTION ( 'NONE',  ( 1.000000000000000000, 0.0000000000000000000, -6.982962677686266711E-15 ) ) ;
#227 = TOROIDAL_SURFACE ( 'NONE', #156, 2.149999999999999023, 1.999999999999997113 ) ;
#228 = CALENDAR_DATE ( 2019, 9, 1 ) ;
#229 = DIRECTION ( 'NONE',  ( 0.0000000000000000000, 1.000000000000000000, 0.0000000000000000000 ) ) ;
#230 = DATE_AND_TIME ( #143, #148 ) ;
#231 = PLANE ( 'NONE',  #87 ) ;
#232 = FACE_OUTER_BOUND ( 'NONE', #16, .T. ) ;
#233 = CC_DESIGN_APPROVAL ( #119, ( #82 ) ) ;
#234 = CONICAL_SURFACE ( 'NONE', #236, 1.199999999999998845, 0.7853981633974476129 ) ;
#235 = CARTESIAN_POINT ( 'NONE',  ( -2.075445763990252090E-13, 0.0000000000000000000, -29.16879221646386000 ) ) ;
#236 = AXIS2_PLACEMENT_3D ( 'NONE', #222, #176, #57 ) ;
#237 = CARTESIAN_POINT ( 'NONE',  ( 1.499999999999997780, 0.0000000000000000000, -0.3000000000000120903 ) ) ;
#238 = MANIFOLD_SOLID_BREP ( 'Körper in Z minus drehen[2]', #20 ) ;
#239 = ADVANCED_FACE ( 'NONE', ( #91, #130 ), #110, .T. ) ;
#240 = AXIS2_PLACEMENT_3D ( 'NONE', #115, #2, #81 ) ;
#241 = MANIFOLD_SOLID_BREP ( 'Körper in Z minus drehen[1]', #42 ) ;
#242 = APPLICATION_PROTOCOL_DEFINITION ( 'international standard', 'config_control_design', 1994, #173 ) ;
#243 = ORIENTED_EDGE ( 'NONE', *, *, #12, .T. ) ;
ENDSEC;
END-ISO-10303-21;
16928