ISO-10303-21;
HEADER;
FILE_DESCRIPTION (( 'STEP AP203' ),
    '1' );
FILE_NAME ('593.100.10.STEP',
    '2019-01-09T01:37:34',
    ( '' ),
    ( '' ),
    'SwSTEP 2.0',
    'SolidWorks 2019',
    '' );
FILE_SCHEMA (( 'CONFIG_CONTROL_DESIGN' ));
ENDSEC;

DATA;
#1 = ADVANCED_FACE ( 'NONE', ( #143 ), #58, .T. ) ;
#2 = VERTEX_POINT ( 'NONE', #145 ) ;
#3 = CARTESIAN_POINT ( 'NONE',  ( 4.999999999999703348, 0.0000000000000000000, -44.62679491924309616 ) ) ;
#4 = EDGE_LOOP ( 'NONE', ( #227 ) ) ;
#5 = CALENDAR_DATE ( 2019, 9, 1 ) ;
#6 =( GEOMETRIC_REPRESENTATION_CONTEXT ( 3 ) GLOBAL_UNCERTAINTY_ASSIGNED_CONTEXT ( ( #38 ) ) GLOBAL_UNIT_ASSIGNED_CONTEXT ( ( #16, #67, #105 ) ) REPRESENTATION_CONTEXT ( 'NONE', 'WORKASPACE' ) );
#7 = CARTESIAN_POINT ( 'NONE',  ( 4.999999999999992895, 0.0000000000000000000, -1.000000000000035749 ) ) ;
#8 = CC_DESIGN_PERSON_AND_ORGANIZATION_ASSIGNMENT ( #30, #82, ( #15 ) ) ;
#9 = PERSON_AND_ORGANIZATION_ROLE ( 'design_supplier' ) ;
#10 = APPLICATION_PROTOCOL_DEFINITION ( 'international standard', 'config_control_design', 1994, #109 ) ;
#11 = DIRECTION ( 'NONE',  ( -6.982962677686266711E-15, 0.0000000000000000000, -1.000000000000000000 ) ) ;
#12 = DIRECTION ( 'NONE',  ( -7.840527924098085864E-15, 0.0000000000000000000, -1.000000000000000000 ) ) ;
#13 = DIRECTION ( 'NONE',  ( -1.000000000000000000, 0.0000000000000000000, 7.080503983578803823E-15 ) ) ;
#14 = CALENDAR_DATE ( 2019, 9, 1 ) ;
#15 = PRODUCT_DEFINITION ( 'UNKNOWN', '', #279, #91 ) ;
#16 =( LENGTH_UNIT ( ) NAMED_UNIT ( * ) SI_UNIT ( .MILLI., .METRE. ) );
#17 = CARTESIAN_POINT ( 'NONE',  ( -3.124573219855853564E-13, 0.0000000000000000000, -44.74566690496975241 ) ) ;
#18 = AXIS2_PLACEMENT_3D ( 'NONE', #17, #237, #127 ) ;
#19 = AXIS2_PLACEMENT_3D ( 'NONE', #77, #165, #256 ) ;
#20 = ORIENTED_EDGE ( 'NONE', *, *, #230, .F. ) ;
#21 = MECHANICAL_CONTEXT ( 'NONE', #104, 'mechanical' ) ;
#22 = EDGE_LOOP ( 'NONE', ( #119 ) ) ;
#23 = PLANE ( 'NONE',  #197 ) ;
#24 = CC_DESIGN_PERSON_AND_ORGANIZATION_ASSIGNMENT ( #179, #213, ( #279 ) ) ;
#25 = ORGANIZATION ( 'UNSPECIFIED', 'UNSPECIFIED', '' ) ;
#26 = AXIS2_PLACEMENT_3D ( 'NONE', #172, #12, #192 ) ;
#27 = DATE_AND_TIME ( #5, #177 ) ;
#28 = CARTESIAN_POINT ( 'NONE',  ( 4.999999999999665157, 0.0000000000000000000, -50.00000000000002842 ) ) ;
#29 = EDGE_LOOP ( 'NONE', ( #163 ) ) ;
#30 = PERSON_AND_ORGANIZATION ( #106, #25 ) ;
#31 = ADVANCED_BREP_SHAPE_REPRESENTATION ( '593.100.10', ( #57, #150, #69 ), #6 ) ;
#32 = AXIS2_PLACEMENT_3D ( 'NONE', #199, #68, #193 ) ;
#33 = CARTESIAN_POINT ( 'NONE',  ( -5.843145836512212879E-13, 0.0000000000000000000, -80.00000000000000000 ) ) ;
#34 = APPROVAL_DATE_TIME ( #59, #204 ) ;
#35 = SECURITY_CLASSIFICATION ( '', '', #99 ) ;
#36 = CARTESIAN_POINT ( 'NONE',  ( -5.586370142149013368E-13, 0.0000000000000000000, -80.00000000000000000 ) ) ;
#37 = CARTESIAN_POINT ( 'NONE',  ( -3.160719694500358850E-13, 0.0000000000000000000, -45.26330499517477790 ) ) ;
#38 = UNCERTAINTY_MEASURE_WITH_UNIT (LENGTH_MEASURE( 1.000000000000000082E-05 ), #16, 'distance_accuracy_value', 'NONE');
#39 = FACE_OUTER_BOUND ( 'NONE', #22, .T. ) ;
#40 = DIRECTION ( 'NONE',  ( -6.982962677686266711E-15, 0.0000000000000000000, -1.000000000000000000 ) ) ;
#41 = FACE_OUTER_BOUND ( 'NONE', #155, .T. ) ;
#42 = EDGE_LOOP ( 'NONE', ( #231 ) ) ;
#43 = ORIENTED_EDGE ( 'NONE', *, *, #84, .F. ) ;
#44 = PERSON_AND_ORGANIZATION ( #106, #25 ) ;
#45 = CLOSED_SHELL ( 'NONE', ( #240, #113, #178, #64 ) ) ;
#46 = DIRECTION ( 'NONE',  ( 1.000000000000000000, 0.0000000000000000000, -6.982962677686266711E-15 ) ) ;
#47 = CARTESIAN_POINT ( 'NONE',  ( -3.491481338843133355E-13, 0.0000000000000000000, -50.00000000000000000 ) ) ;
#48 = PERSON_AND_ORGANIZATION ( #106, #25 ) ;
#49 = FACE_OUTER_BOUND ( 'NONE', #154, .T. ) ;
#50 = EDGE_LOOP ( 'NONE', ( #43 ) ) ;
#51 = DATE_TIME_ROLE ( 'classification_date' ) ;
#52 = ORIENTED_EDGE ( 'NONE', *, *, #210, .F. ) ;
#53 = APPROVAL_ROLE ( '' ) ;
#54 = CIRCLE ( 'NONE', #26, 4.800000000000007816 ) ;
#55 = COORDINATED_UNIVERSAL_TIME_OFFSET ( 1, 0, .AHEAD. ) ;
#56 = LOCAL_TIME ( 2, 37, 34.00000000000000000, #55 ) ;
#57 = MANIFOLD_SOLID_BREP ( 'Körper in Z minus drehen[1]', #45 ) ;
#58 = PLANE ( 'NONE',  #225 ) ;
#59 = DATE_AND_TIME ( #14, #270 ) ;
#60 = VERTEX_POINT ( 'NONE', #207 ) ;
#61 = EDGE_CURVE ( 'NONE', #98, #98, #95, .T. ) ;
#62 = PLANE ( 'NONE',  #88 ) ;
#63 = AXIS2_PLACEMENT_3D ( 'NONE', #36, #217, #92 ) ;
#64 = ADVANCED_FACE ( 'NONE', ( #168 ), #62, .T. ) ;
#65 = DIRECTION ( 'NONE',  ( -6.982962677686266711E-15, -0.0000000000000000000, -1.000000000000000000 ) ) ;
#66 = CARTESIAN_POINT ( 'NONE',  ( -3.116272433458334440E-13, 0.0000000000000000000, -44.62679491924306063 ) ) ;
#67 =( NAMED_UNIT ( * ) PLANE_ANGLE_UNIT ( ) SI_UNIT ( $, .RADIAN. ) );
#68 = DIRECTION ( 'NONE',  ( -6.982962677686266711E-15, 0.0000000000000000000, -1.000000000000000000 ) ) ;
#69 = AXIS2_PLACEMENT_3D ( 'NONE', #126, #74, #75 ) ;
#70 = EDGE_LOOP ( 'NONE', ( #100 ) ) ;
#71 = PRODUCT_RELATED_PRODUCT_CATEGORY ( 'detail', '', ( #133 ) ) ;
#72 = PLANE ( 'NONE',  #206 ) ;
#73 = ORIENTED_EDGE ( 'NONE', *, *, #170, .F. ) ;
#74 = DIRECTION ( 'NONE',  ( 0.0000000000000000000, 0.0000000000000000000, 1.000000000000000000 ) ) ;
#75 = DIRECTION ( 'NONE',  ( 1.000000000000000000, 0.0000000000000000000, 0.0000000000000000000 ) ) ;
#76 = ADVANCED_FACE ( 'NONE', ( #148, #194 ), #87, .T. ) ;
#77 = CARTESIAN_POINT ( 'NONE',  ( -6.982962677686273021E-15, 0.0000000000000000000, -1.000000000000000888 ) ) ;
#78 = DATE_TIME_ROLE ( 'creation_date' ) ;
#79 = DIRECTION ( 'NONE',  ( 1.000000000000000000, 0.0000000000000000000, -6.983380344820068151E-15 ) ) ;
#80 = PERSON_AND_ORGANIZATION ( #106, #25 ) ;
#81 = LOCAL_TIME ( 2, 37, 34.00000000000000000, #139 ) ;
#82 = PERSON_AND_ORGANIZATION_ROLE ( 'creator' ) ;
#83 = CARTESIAN_POINT ( 'NONE',  ( -4.800000000000593126, 0.0000000000000000000, -79.99999999999995737 ) ) ;
#84 = EDGE_CURVE ( 'NONE', #229, #229, #205, .T. ) ;
#85 = COORDINATED_UNIVERSAL_TIME_OFFSET ( 1, 0, .AHEAD. ) ;
#86 = SHAPE_DEFINITION_REPRESENTATION ( #129, #31 ) ;
#87 = CYLINDRICAL_SURFACE ( 'NONE', #242, 4.900000000000000355 ) ;
#88 = AXIS2_PLACEMENT_3D ( 'NONE', #102, #258, #128 ) ;
#89 = CARTESIAN_POINT ( 'NONE',  ( -3.491481338843132850E-13, 0.0000000000000000000, -49.99999999999999289 ) ) ;
#90 = FACE_OUTER_BOUND ( 'NONE', #265, .T. ) ;
#91 = DESIGN_CONTEXT ( 'detailed design', #109, 'design' ) ;
#92 = DIRECTION ( 'NONE',  ( 1.000000000000000000, 0.0000000000000000000, -8.326672684688648810E-15 ) ) ;
#93 = EDGE_LOOP ( 'NONE', ( #173 ) ) ;
#94 = DIRECTION ( 'NONE',  ( 1.000000000000000000, 0.0000000000000000000, -6.982962677686266711E-15 ) ) ;
#95 = CIRCLE ( 'NONE', #259, 5.000000000000015099 ) ;
#96 = EDGE_LOOP ( 'NONE', ( #167 ) ) ;
#97 = PERSON_AND_ORGANIZATION ( #106, #25 ) ;
#98 = VERTEX_POINT ( 'NONE', #3 ) ;
#99 = SECURITY_CLASSIFICATION_LEVEL ( 'unclassified' ) ;
#100 = ORIENTED_EDGE ( 'NONE', *, *, #170, .T. ) ;
#101 = DATE_AND_TIME ( #117, #56 ) ;
#102 = CARTESIAN_POINT ( 'NONE',  ( 4.999999999999643840, 0.0000000000000000000, -50.00000000000002842 ) ) ;
#103 = CIRCLE ( 'NONE', #278, 5.000000000000025757 ) ;
#104 = APPLICATION_CONTEXT ( 'configuration controlled 3d designs of mechanical parts and assemblies' ) ;
#105 =( NAMED_UNIT ( * ) SI_UNIT ( $, .STERADIAN. ) SOLID_ANGLE_UNIT ( ) );
#106 = PERSON ( 'UNSPECIFIED', 'UNSPECIFIED', 'UNSPECIFIED', ('UNSPECIFIED'), ('UNSPECIFIED'), ('UNSPECIFIED') ) ;
#107 = CC_DESIGN_PERSON_AND_ORGANIZATION_ASSIGNMENT ( #97, #269, ( #133 ) ) ;
#108 = DIRECTION ( 'NONE',  ( -6.982962677686266711E-15, 0.0000000000000000000, -1.000000000000000000 ) ) ;
#109 = APPLICATION_CONTEXT ( 'configuration controlled 3d designs of mechanical parts and assemblies' ) ;
#110 = DIRECTION ( 'NONE',  ( 6.982962677686266711E-15, 0.0000000000000000000, 1.000000000000000000 ) ) ;
#111 = ORIENTED_EDGE ( 'NONE', *, *, #162, .T. ) ;
#112 = CARTESIAN_POINT ( 'NONE',  ( -3.124573219855853564E-13, 0.0000000000000000000, -44.74566690496975241 ) ) ;
#113 = ADVANCED_FACE ( 'NONE', ( #190, #234 ), #238, .T. ) ;
#114 = FACE_BOUND ( 'NONE', #222, .T. ) ;
#115 = DIRECTION ( 'NONE',  ( 7.272537772031604810E-15, -0.0000000000000000000, 1.000000000000000000 ) ) ;
#116 = ADVANCED_FACE ( 'NONE', ( #147, #257 ), #216, .T. ) ;
#117 = CALENDAR_DATE ( 2019, 9, 1 ) ;
#118 = VERTEX_POINT ( 'NONE', #83 ) ;
#119 = ORIENTED_EDGE ( 'NONE', *, *, #132, .T. ) ;
#120 = COORDINATED_UNIVERSAL_TIME_OFFSET ( 1, 0, .AHEAD. ) ;
#121 = DIRECTION ( 'NONE',  ( -1.000000000000000000, 0.0000000000000000000, 6.982962677686266711E-15 ) ) ;
#122 = ADVANCED_FACE ( 'NONE', ( #39, #260 ), #158, .F. ) ;
#123 = DATE_AND_TIME ( #186, #81 ) ;
#124 = LOCAL_TIME ( 2, 37, 34.00000000000000000, #120 ) ;
#125 = CYLINDRICAL_SURFACE ( 'NONE', #63, 5.000000000000015099 ) ;
#126 = CARTESIAN_POINT ( 'NONE',  ( 0.0000000000000000000, 0.0000000000000000000, 0.0000000000000000000 ) ) ;
#127 = DIRECTION ( 'NONE',  ( -1.000000000000000000, 0.0000000000000000000, 6.983380344820068151E-15 ) ) ;
#128 = DIRECTION ( 'NONE',  ( 1.000000000000000000, 0.0000000000000000000, -6.982962677686266711E-15 ) ) ;
#129 = PRODUCT_DEFINITION_SHAPE ( 'NONE', 'NONE',  #15 ) ;
#130 = CONICAL_SURFACE ( 'NONE', #166, 4.968148347421863065, 0.2617993877991500740 ) ;
#131 = CC_DESIGN_APPROVAL ( #157, ( #15 ) ) ;
#132 = EDGE_CURVE ( 'NONE', #60, #60, #201, .T. ) ;
#133 = PRODUCT ( '593.100.10', '593.100.10', '', ( #21 ) ) ;
#134 = EDGE_LOOP ( 'NONE', ( #52 ) ) ;
#135 = CIRCLE ( 'NONE', #247, 3.999999999999996447 ) ;
#136 = DIRECTION ( 'NONE',  ( 6.982962677686266711E-15, 0.0000000000000000000, 1.000000000000000000 ) ) ;
#137 = APPROVAL_PERSON_ORGANIZATION ( #146, #204, #141 ) ;
#138 = DIRECTION ( 'NONE',  ( -6.982962677686266711E-15, 0.0000000000000000000, -1.000000000000000000 ) ) ;
#139 = COORDINATED_UNIVERSAL_TIME_OFFSET ( 1, 0, .AHEAD. ) ;
#140 = FACE_BOUND ( 'NONE', #223, .T. ) ;
#141 = APPROVAL_ROLE ( '' ) ;
#142 = VERTEX_POINT ( 'NONE', #28 ) ;
#143 = FACE_OUTER_BOUND ( 'NONE', #93, .T. ) ;
#144 = EDGE_CURVE ( 'NONE', #2, #2, #211, .T. ) ;
#145 = CARTESIAN_POINT ( 'NONE',  ( -4.900000000000350298, 0.0000000000000000000, -49.99999999999995737 ) ) ;
#146 = PERSON_AND_ORGANIZATION ( #106, #25 ) ;
#147 = FACE_OUTER_BOUND ( 'NONE', #252, .T. ) ;
#148 = FACE_OUTER_BOUND ( 'NONE', #4, .T. ) ;
#149 = CLOSED_SHELL ( 'NONE', ( #218, #272, #116, #215, #122, #76, #1 ) ) ;
#150 = MANIFOLD_SOLID_BREP ( 'Körper in Z minus drehen[2]', #149 ) ;
#151 = DIRECTION ( 'NONE',  ( -1.000000000000000000, 0.0000000000000000000, 7.080503983578803823E-15 ) ) ;
#152 = CC_DESIGN_APPROVAL ( #204, ( #35 ) ) ;
#153 = AXIS2_PLACEMENT_3D ( 'NONE', #37, #40, #151 ) ;
#154 = EDGE_LOOP ( 'NONE', ( #246 ) ) ;
#155 = EDGE_LOOP ( 'NONE', ( #111 ) ) ;
#156 = APPROVAL_STATUS ( 'not_yet_approved' ) ;
#157 = APPROVAL ( #164, 'UNSPECIFIED' ) ;
#158 = TOROIDAL_SURFACE ( 'NONE', #32, 6.900000000000001243, 2.000000000000000888 ) ;
#159 = ORIENTED_EDGE ( 'NONE', *, *, #132, .F. ) ;
#160 = CALENDAR_DATE ( 2019, 9, 1 ) ;
#161 = VERTEX_POINT ( 'NONE', #180 ) ;
#162 = EDGE_CURVE ( 'NONE', #142, #142, #244, .T. ) ;
#163 = ORIENTED_EDGE ( 'NONE', *, *, #61, .T. ) ;
#164 = APPROVAL_STATUS ( 'not_yet_approved' ) ;
#165 = DIRECTION ( 'NONE',  ( 6.982962677686266711E-15, 0.0000000000000000000, 1.000000000000000000 ) ) ;
#166 = AXIS2_PLACEMENT_3D ( 'NONE', #112, #202, #79 ) ;
#167 = ORIENTED_EDGE ( 'NONE', *, *, #61, .F. ) ;
#168 = FACE_OUTER_BOUND ( 'NONE', #174, .T. ) ;
#169 = CC_DESIGN_APPROVAL ( #283, ( #279 ) ) ;
#170 = EDGE_CURVE ( 'NONE', #161, #161, #103, .T. ) ;
#171 = DIRECTION ( 'NONE',  ( 6.982962677686266711E-15, 0.0000000000000000000, 1.000000000000000000 ) ) ;
#172 = CARTESIAN_POINT ( 'NONE',  ( -5.843145836512212879E-13, 0.0000000000000000000, -80.00000000000000000 ) ) ;
#173 = ORIENTED_EDGE ( 'NONE', *, *, #144, .T. ) ;
#174 = EDGE_LOOP ( 'NONE', ( #233 ) ) ;
#175 = EDGE_LOOP ( 'NONE', ( #264 ) ) ;
#176 = FACE_OUTER_BOUND ( 'NONE', #273, .T. ) ;
#177 = LOCAL_TIME ( 2, 37, 34.00000000000000000, #266 ) ;
#178 = ADVANCED_FACE ( 'NONE', ( #90, #41 ), #125, .T. ) ;
#179 = PERSON_AND_ORGANIZATION ( #106, #25 ) ;
#180 = CARTESIAN_POINT ( 'NONE',  ( -5.000000000000609290, 0.0000000000000000000, -79.79999999999995453 ) ) ;
#181 = CARTESIAN_POINT ( 'NONE',  ( -5.586370142149013368E-13, 0.0000000000000000000, -80.00000000000000000 ) ) ;
#182 = APPROVAL_ROLE ( '' ) ;
#183 = VERTEX_POINT ( 'NONE', #7 ) ;
#184 = DIRECTION ( 'NONE',  ( 1.000000000000000000, 0.0000000000000000000, -8.326672684688648810E-15 ) ) ;
#185 = PERSON_AND_ORGANIZATION_ROLE ( 'classification_officer' ) ;
#186 = CALENDAR_DATE ( 2019, 9, 1 ) ;
#187 = DIRECTION ( 'NONE',  ( 7.840527924098085864E-15, 0.0000000000000000000, 1.000000000000000000 ) ) ;
#188 = CARTESIAN_POINT ( 'NONE',  ( -4.900000000000316547, 0.0000000000000000000, -45.26330499517474237 ) ) ;
#189 = DIRECTION ( 'NONE',  ( 1.000000000000000000, 0.0000000000000000000, -8.673617379884021273E-15 ) ) ;
#190 = FACE_OUTER_BOUND ( 'NONE', #70, .T. ) ;
#191 = CC_DESIGN_PERSON_AND_ORGANIZATION_ASSIGNMENT ( #48, #185, ( #35 ) ) ;
#192 = DIRECTION ( 'NONE',  ( -1.000000000000000000, 0.0000000000000000000, 8.673617379884021273E-15 ) ) ;
#193 = DIRECTION ( 'NONE',  ( -1.000000000000000000, 0.0000000000000000000, 6.982962677686266711E-15 ) ) ;
#194 = FACE_OUTER_BOUND ( 'NONE', #42, .T. ) ;
#195 = DIRECTION ( 'NONE',  ( -6.982962677686266711E-15, 0.0000000000000000000, -1.000000000000000000 ) ) ;
#196 = DIRECTION ( 'NONE',  ( -1.000000000000000000, 0.0000000000000000000, 6.982962677686267499E-15 ) ) ;
#197 = AXIS2_PLACEMENT_3D ( 'NONE', #245, #115, #203 ) ;
#198 = APPLICATION_PROTOCOL_DEFINITION ( 'international standard', 'config_control_design', 1994, #104 ) ;
#199 = CARTESIAN_POINT ( 'NONE',  ( -3.160719694500359859E-13, 0.0000000000000000000, -45.26330499517479211 ) ) ;
#200 = CARTESIAN_POINT ( 'NONE',  ( -5.827464780664016473E-13, 0.0000000000000000000, -79.79999999999999716 ) ) ;
#201 = CIRCLE ( 'NONE', #18, 4.968148347421863065 ) ;
#202 = DIRECTION ( 'NONE',  ( 6.982962677686266711E-15, 0.0000000000000000000, 1.000000000000000000 ) ) ;
#203 = DIRECTION ( 'NONE',  ( 1.000000000000000000, 0.0000000000000000000, -7.272537772031604810E-15 ) ) ;
#204 = APPROVAL ( #274, 'UNSPECIFIED' ) ;
#205 = CIRCLE ( 'NONE', #153, 4.900000000000000355 ) ;
#206 = AXIS2_PLACEMENT_3D ( 'NONE', #282, #110, #46 ) ;
#207 = CARTESIAN_POINT ( 'NONE',  ( -4.968148347422175704, 0.0000000000000000000, -44.74566690496972399 ) ) ;
#208 = DIRECTION ( 'NONE',  ( -1.000000000000000000, 0.0000000000000000000, 6.982962677686266711E-15 ) ) ;
#209 = VERTEX_POINT ( 'NONE', #267 ) ;
#210 = EDGE_CURVE ( 'NONE', #118, #118, #54, .T. ) ;
#211 = CIRCLE ( 'NONE', #235, 4.900000000000000355 ) ;
#212 = ORIENTED_EDGE ( 'NONE', *, *, #261, .F. ) ;
#213 = PERSON_AND_ORGANIZATION_ROLE ( 'creator' ) ;
#214 = CARTESIAN_POINT ( 'NONE',  ( 0.0000000000000000000, 0.0000000000000000000, 0.0000000000000000000 ) ) ;
#215 = ADVANCED_FACE ( 'NONE', ( #277, #114 ), #130, .T. ) ;
#216 = CYLINDRICAL_SURFACE ( 'NONE', #275, 5.000000000000015099 ) ;
#217 = DIRECTION ( 'NONE',  ( 6.982962677686266711E-15, 0.0000000000000000000, 1.000000000000000000 ) ) ;
#218 = ADVANCED_FACE ( 'NONE', ( #224 ), #72, .T. ) ;
#219 = CARTESIAN_POINT ( 'NONE',  ( -3.491481338843132346E-13, 0.0000000000000000000, -49.99999999999998579 ) ) ;
#220 = CARTESIAN_POINT ( 'NONE',  ( 0.0000000000000000000, 0.0000000000000000000, 0.0000000000000000000 ) ) ;
#221 = DIRECTION ( 'NONE',  ( 1.000000000000000000, 0.0000000000000000000, -6.938893903907207078E-15 ) ) ;
#222 = EDGE_LOOP ( 'NONE', ( #159 ) ) ;
#223 = EDGE_LOOP ( 'NONE', ( #20 ) ) ;
#224 = FACE_OUTER_BOUND ( 'NONE', #175, .T. ) ;
#225 = AXIS2_PLACEMENT_3D ( 'NONE', #47, #138, #208 ) ;
#226 = APPROVAL_PERSON_ORGANIZATION ( #253, #283, #182 ) ;
#227 = ORIENTED_EDGE ( 'NONE', *, *, #84, .T. ) ;
#228 = APPROVAL_DATE_TIME ( #27, #157 ) ;
#229 = VERTEX_POINT ( 'NONE', #188 ) ;
#230 = EDGE_CURVE ( 'NONE', #209, #209, #135, .T. ) ;
#231 = ORIENTED_EDGE ( 'NONE', *, *, #144, .F. ) ;
#232 = DATE_AND_TIME ( #160, #124 ) ;
#233 = ORIENTED_EDGE ( 'NONE', *, *, #162, .F. ) ;
#234 = FACE_BOUND ( 'NONE', #134, .T. ) ;
#235 = AXIS2_PLACEMENT_3D ( 'NONE', #219, #195, #13 ) ;
#236 = DIRECTION ( 'NONE',  ( 1.000000000000000000, 0.0000000000000000000, -6.938893903907207078E-15 ) ) ;
#237 = DIRECTION ( 'NONE',  ( -6.982962677686266711E-15, 0.0000000000000000000, -1.000000000000000000 ) ) ;
#238 = CONICAL_SURFACE ( 'NONE', #262, 4.800000000000007816, 0.7853981633974764787 ) ;
#239 = CONICAL_SURFACE ( 'NONE', #276, 3.999999999999996447, 0.7853981633974496113 ) ;
#240 = ADVANCED_FACE ( 'NONE', ( #176 ), #23, .F. ) ;
#241 = CARTESIAN_POINT ( 'NONE',  ( 0.0000000000000000000, 0.0000000000000000000, 0.0000000000000000000 ) ) ;
#242 = AXIS2_PLACEMENT_3D ( 'NONE', #220, #108, #196 ) ;
#243 = CC_DESIGN_DATE_AND_TIME_ASSIGNMENT ( #123, #51, ( #35 ) ) ;
#244 = CIRCLE ( 'NONE', #268, 5.000000000000015099 ) ;
#245 = CARTESIAN_POINT ( 'NONE',  ( -5.843145836512212879E-13, 0.0000000000000000000, -80.00000000000000000 ) ) ;
#246 = ORIENTED_EDGE ( 'NONE', *, *, #261, .T. ) ;
#247 = AXIS2_PLACEMENT_3D ( 'NONE', #241, #136, #94 ) ;
#248 = APPROVAL_PERSON_ORGANIZATION ( #80, #157, #53 ) ;
#249 = CC_DESIGN_DATE_AND_TIME_ASSIGNMENT ( #101, #78, ( #15 ) ) ;
#250 = DIRECTION ( 'NONE',  ( 6.982962677686266711E-15, 0.0000000000000000000, 1.000000000000000000 ) ) ;
#251 = APPROVAL_DATE_TIME ( #232, #283 ) ;
#252 = EDGE_LOOP ( 'NONE', ( #212 ) ) ;
#253 = PERSON_AND_ORGANIZATION ( #106, #25 ) ;
#254 = CC_DESIGN_PERSON_AND_ORGANIZATION_ASSIGNMENT ( #44, #9, ( #279 ) ) ;
#255 = CIRCLE ( 'NONE', #19, 5.000000000000000000 ) ;
#256 = DIRECTION ( 'NONE',  ( 1.000000000000000000, 0.0000000000000000000, -6.982261990806648555E-15 ) ) ;
#257 = FACE_OUTER_BOUND ( 'NONE', #29, .T. ) ;
#258 = DIRECTION ( 'NONE',  ( 6.982962677686266711E-15, 0.0000000000000000000, 1.000000000000000000 ) ) ;
#259 = AXIS2_PLACEMENT_3D ( 'NONE', #66, #171, #236 ) ;
#260 = FACE_OUTER_BOUND ( 'NONE', #50, .T. ) ;
#261 = EDGE_CURVE ( 'NONE', #183, #183, #255, .T. ) ;
#262 = AXIS2_PLACEMENT_3D ( 'NONE', #33, #187, #189 ) ;
#263 = CC_DESIGN_SECURITY_CLASSIFICATION ( #35, ( #279 ) ) ;
#264 = ORIENTED_EDGE ( 'NONE', *, *, #230, .T. ) ;
#265 = EDGE_LOOP ( 'NONE', ( #73 ) ) ;
#266 = COORDINATED_UNIVERSAL_TIME_OFFSET ( 1, 0, .AHEAD. ) ;
#267 = CARTESIAN_POINT ( 'NONE',  ( 3.999999999999996447, 0.0000000000000000000, -2.793185071074504160E-14 ) ) ;
#268 = AXIS2_PLACEMENT_3D ( 'NONE', #89, #65, #221 ) ;
#269 = PERSON_AND_ORGANIZATION_ROLE ( 'design_owner' ) ;
#270 = LOCAL_TIME ( 2, 37, 34.00000000000000000, #85 ) ;
#271 = ORIENTED_EDGE ( 'NONE', *, *, #210, .T. ) ;
#272 = ADVANCED_FACE ( 'NONE', ( #49, #140 ), #239, .T. ) ;
#273 = EDGE_LOOP ( 'NONE', ( #271 ) ) ;
#274 = APPROVAL_STATUS ( 'not_yet_approved' ) ;
#275 = AXIS2_PLACEMENT_3D ( 'NONE', #181, #250, #184 ) ;
#276 = AXIS2_PLACEMENT_3D ( 'NONE', #214, #11, #121 ) ;
#277 = FACE_OUTER_BOUND ( 'NONE', #96, .T. ) ;
#278 = AXIS2_PLACEMENT_3D ( 'NONE', #200, #281, #280 ) ;
#279 = PRODUCT_DEFINITION_FORMATION_WITH_SPECIFIED_SOURCE ( 'ANY', '', #133, .NOT_KNOWN. ) ;
#280 = DIRECTION ( 'NONE',  ( -1.000000000000000000, 0.0000000000000000000, 8.326672684688631455E-15 ) ) ;
#281 = DIRECTION ( 'NONE',  ( -7.840527924098085864E-15, 0.0000000000000000000, -1.000000000000000000 ) ) ;
#282 = CARTESIAN_POINT ( 'NONE',  ( -1.514188661106529085E-30, 0.0000000000000000000, -2.168404344971008868E-16 ) ) ;
#283 = APPROVAL ( #156, 'UNSPECIFIED' ) ;
ENDSEC;
END-ISO-10303-21;
19839