ISO-10303-21;
HEADER;
FILE_DESCRIPTION (( 'STEP AP203' ),
    '1' );
FILE_NAME ('592.100.10.STEP',
    '2019-01-09T01:37:16',
    ( '' ),
    ( '' ),
    'SwSTEP 2.0',
    'SolidWorks 2019',
    '' );
FILE_SCHEMA (( 'CONFIG_CONTROL_DESIGN' ));
ENDSEC;

DATA;
#1 = VERTEX_POINT ( 'NONE', #86 ) ;
#2 = EDGE_LOOP ( 'NONE', ( #105 ) ) ;
#3 = DIRECTION ( 'NONE',  ( -1.000000000000000000, 0.0000000000000000000, 6.983380344820068151E-15 ) ) ;
#4 = CYLINDRICAL_SURFACE ( 'NONE', #131, 5.000000000000015099 ) ;
#5 = APPLICATION_PROTOCOL_DEFINITION ( 'international standard', 'config_control_design', 1994, #155 ) ;
#6 = DIRECTION ( 'NONE',  ( -1.000000000000000000, 0.0000000000000000000, 7.080503983578803823E-15 ) ) ;
#7 = APPROVAL_PERSON_ORGANIZATION ( #61, #113, #77 ) ;
#8 = PERSON ( 'UNSPECIFIED', 'UNSPECIFIED', 'UNSPECIFIED', ('UNSPECIFIED'), ('UNSPECIFIED'), ('UNSPECIFIED') ) ;
#9 = CARTESIAN_POINT ( 'NONE',  ( -5.827464780664016473E-13, 0.0000000000000000000, -79.79999999999999716 ) ) ;
#10 = EDGE_LOOP ( 'NONE', ( #111 ) ) ;
#11 = CARTESIAN_POINT ( 'NONE',  ( -4.968148347422175704, 0.0000000000000000000, -44.74566690496972399 ) ) ;
#12 = ORIENTED_EDGE ( 'NONE', *, *, #237, .F. ) ;
#13 = CARTESIAN_POINT ( 'NONE',  ( 3.999999999999996447, 0.0000000000000000000, -2.793185071074504160E-14 ) ) ;
#14 = ADVANCED_FACE ( 'NONE', ( #112, #193 ), #52, .T. ) ;
#15 = CIRCLE ( 'NONE', #201, 5.000000000000025757 ) ;
#16 = PERSON_AND_ORGANIZATION_ROLE ( 'design_supplier' ) ;
#17 = CC_DESIGN_PERSON_AND_ORGANIZATION_ASSIGNMENT ( #202, #16, ( #66 ) ) ;
#18 = PERSON_AND_ORGANIZATION_ROLE ( 'design_owner' ) ;
#19 = AXIS2_PLACEMENT_3D ( 'NONE', #80, #21, #103 ) ;
#20 = UNCERTAINTY_MEASURE_WITH_UNIT (LENGTH_MEASURE( 1.000000000000000082E-05 ), #63, 'distance_accuracy_value', 'NONE');
#21 = DIRECTION ( 'NONE',  ( 6.982962677686266711E-15, 0.0000000000000000000, 1.000000000000000000 ) ) ;
#22 = APPROVAL_DATE_TIME ( #123, #108 ) ;
#23 = CONICAL_SURFACE ( 'NONE', #170, 4.800000000000007816, 0.7853981633974764787 ) ;
#24 = CARTESIAN_POINT ( 'NONE',  ( -5.000000000000609290, 0.0000000000000000000, -79.79999999999995453 ) ) ;
#25 = PERSON_AND_ORGANIZATION ( #8, #126 ) ;
#26 = FACE_OUTER_BOUND ( 'NONE', #104, .T. ) ;
#27 = CALENDAR_DATE ( 2019, 9, 1 ) ;
#28 = ADVANCED_BREP_SHAPE_REPRESENTATION ( '592.100.10', ( #185, #102, #281 ), #164 ) ;
#29 = DIRECTION ( 'NONE',  ( -7.840527924098085864E-15, 0.0000000000000000000, -1.000000000000000000 ) ) ;
#30 = APPROVAL_DATE_TIME ( #192, #215 ) ;
#31 = EDGE_CURVE ( 'NONE', #280, #280, #245, .T. ) ;
#32 = DIRECTION ( 'NONE',  ( 6.982962677686266711E-15, 0.0000000000000000000, 1.000000000000000000 ) ) ;
#33 = CARTESIAN_POINT ( 'NONE',  ( -5.843145836512212879E-13, 0.0000000000000000000, -80.00000000000000000 ) ) ;
#34 = PERSON_AND_ORGANIZATION ( #8, #126 ) ;
#35 = TOROIDAL_SURFACE ( 'NONE', #182, 6.900000000000001243, 2.000000000000000888 ) ;
#36 = CARTESIAN_POINT ( 'NONE',  ( 0.0000000000000000000, 0.0000000000000000000, 0.0000000000000000000 ) ) ;
#37 = FACE_OUTER_BOUND ( 'NONE', #51, .T. ) ;
#38 = APPROVAL_DATE_TIME ( #118, #113 ) ;
#39 = AXIS2_PLACEMENT_3D ( 'NONE', #150, #220, #241 ) ;
#40 = VERTEX_POINT ( 'NONE', #275 ) ;
#41 = CC_DESIGN_APPROVAL ( #215, ( #209 ) ) ;
#42 = CARTESIAN_POINT ( 'NONE',  ( -3.124573219855853564E-13, 0.0000000000000000000, -44.74566690496975241 ) ) ;
#43 = CC_DESIGN_PERSON_AND_ORGANIZATION_ASSIGNMENT ( #34, #272, ( #209 ) ) ;
#44 = CARTESIAN_POINT ( 'NONE',  ( -3.160719694500358850E-13, 0.0000000000000000000, -45.26330499517477790 ) ) ;
#45 = CLOSED_SHELL ( 'NONE', ( #221, #120, #67, #227, #171, #198, #188 ) ) ;
#46 = EDGE_CURVE ( 'NONE', #89, #89, #225, .T. ) ;
#47 = FACE_OUTER_BOUND ( 'NONE', #144, .T. ) ;
#48 = VERTEX_POINT ( 'NONE', #24 ) ;
#49 = DIRECTION ( 'NONE',  ( -1.000000000000000000, 0.0000000000000000000, 6.982962677686267499E-15 ) ) ;
#50 = FACE_BOUND ( 'NONE', #124, .T. ) ;
#51 = EDGE_LOOP ( 'NONE', ( #72 ) ) ;
#52 = CYLINDRICAL_SURFACE ( 'NONE', #69, 5.000000000000015099 ) ;
#53 = CIRCLE ( 'NONE', #276, 5.000000000000015099 ) ;
#54 = EDGE_LOOP ( 'NONE', ( #244 ) ) ;
#55 = ORIENTED_EDGE ( 'NONE', *, *, #92, .F. ) ;
#56 = CARTESIAN_POINT ( 'NONE',  ( -6.982962677686273021E-15, 0.0000000000000000000, -1.000000000000000888 ) ) ;
#57 = LOCAL_TIME ( 2, 37, 16.00000000000000000, #125 ) ;
#58 = CALENDAR_DATE ( 2019, 9, 1 ) ;
#59 = CIRCLE ( 'NONE', #119, 4.968148347421863065 ) ;
#60 = CARTESIAN_POINT ( 'NONE',  ( -3.116272433458334440E-13, 0.0000000000000000000, -44.62679491924306063 ) ) ;
#61 = PERSON_AND_ORGANIZATION ( #8, #126 ) ;
#62 = AXIS2_PLACEMENT_3D ( 'NONE', #73, #243, #49 ) ;
#63 =( LENGTH_UNIT ( ) NAMED_UNIT ( * ) SI_UNIT ( .MILLI., .METRE. ) );
#64 = DIRECTION ( 'NONE',  ( -6.982962677686266711E-15, 0.0000000000000000000, -1.000000000000000000 ) ) ;
#65 = PERSON_AND_ORGANIZATION ( #8, #126 ) ;
#66 = PRODUCT_DEFINITION_FORMATION_WITH_SPECIFIED_SOURCE ( 'ANY', '', #127, .NOT_KNOWN. ) ;
#67 = ADVANCED_FACE ( 'NONE', ( #47, #189 ), #4, .T. ) ;
#68 = SHAPE_DEFINITION_REPRESENTATION ( #168, #28 ) ;
#69 = AXIS2_PLACEMENT_3D ( 'NONE', #172, #261, #128 ) ;
#70 = DIRECTION ( 'NONE',  ( 1.000000000000000000, 0.0000000000000000000, -7.272537772031604810E-15 ) ) ;
#71 = CC_DESIGN_SECURITY_CLASSIFICATION ( #200, ( #66 ) ) ;
#72 = ORIENTED_EDGE ( 'NONE', *, *, #268, .F. ) ;
#73 = CARTESIAN_POINT ( 'NONE',  ( 0.0000000000000000000, 0.0000000000000000000, 0.0000000000000000000 ) ) ;
#74 = APPROVAL_ROLE ( '' ) ;
#75 = FACE_BOUND ( 'NONE', #222, .T. ) ;
#76 = FACE_OUTER_BOUND ( 'NONE', #278, .T. ) ;
#77 = APPROVAL_ROLE ( '' ) ;
#78 = ADVANCED_FACE ( 'NONE', ( #152, #223 ), #23, .T. ) ;
#79 = FACE_OUTER_BOUND ( 'NONE', #54, .T. ) ;
#80 = CARTESIAN_POINT ( 'NONE',  ( -3.124573219855853564E-13, 0.0000000000000000000, -44.74566690496975241 ) ) ;
#81 = CIRCLE ( 'NONE', #267, 5.000000000000000000 ) ;
#82 = SECURITY_CLASSIFICATION_LEVEL ( 'unclassified' ) ;
#83 = EDGE_LOOP ( 'NONE', ( #165 ) ) ;
#84 = DATE_TIME_ROLE ( 'classification_date' ) ;
#85 = APPROVAL_PERSON_ORGANIZATION ( #65, #108, #277 ) ;
#86 = CARTESIAN_POINT ( 'NONE',  ( 4.999999999999992895, 0.0000000000000000000, -1.000000000000035749 ) ) ;
#87 = CC_DESIGN_PERSON_AND_ORGANIZATION_ASSIGNMENT ( #100, #274, ( #66 ) ) ;
#88 = PERSON_AND_ORGANIZATION ( #8, #126 ) ;
#89 = VERTEX_POINT ( 'NONE', #257 ) ;
#90 = DIRECTION ( 'NONE',  ( -1.000000000000000000, 0.0000000000000000000, 8.326672684688631455E-15 ) ) ;
#91 = FACE_OUTER_BOUND ( 'NONE', #190, .T. ) ;
#92 = EDGE_CURVE ( 'NONE', #48, #48, #15, .T. ) ;
#93 = CARTESIAN_POINT ( 'NONE',  ( -5.586370142149013368E-13, 0.0000000000000000000, -80.00000000000000000 ) ) ;
#94 = AXIS2_PLACEMENT_3D ( 'NONE', #117, #32, #273 ) ;
#95 = FACE_OUTER_BOUND ( 'NONE', #110, .T. ) ;
#96 = DIRECTION ( 'NONE',  ( -1.000000000000000000, 0.0000000000000000000, 6.982962677686266711E-15 ) ) ;
#97 = VERTEX_POINT ( 'NONE', #13 ) ;
#98 = PLANE ( 'NONE',  #94 ) ;
#99 = AXIS2_PLACEMENT_3D ( 'NONE', #279, #139, #159 ) ;
#100 = PERSON_AND_ORGANIZATION ( #8, #126 ) ;
#101 = EDGE_LOOP ( 'NONE', ( #55 ) ) ;
#102 = MANIFOLD_SOLID_BREP ( 'Körper in Z minus drehen[2]', #45 ) ;
#103 = DIRECTION ( 'NONE',  ( 1.000000000000000000, 0.0000000000000000000, -6.983380344820068151E-15 ) ) ;
#104 = EDGE_LOOP ( 'NONE', ( #234 ) ) ;
#105 = ORIENTED_EDGE ( 'NONE', *, *, #203, .F. ) ;
#106 = CARTESIAN_POINT ( 'NONE',  ( 0.0000000000000000000, 0.0000000000000000000, 0.0000000000000000000 ) ) ;
#107 = VERTEX_POINT ( 'NONE', #262 ) ;
#108 = APPROVAL ( #136, 'UNSPECIFIED' ) ;
#109 = ORIENTED_EDGE ( 'NONE', *, *, #203, .T. ) ;
#110 = EDGE_LOOP ( 'NONE', ( #180 ) ) ;
#111 = ORIENTED_EDGE ( 'NONE', *, *, #92, .T. ) ;
#112 = FACE_OUTER_BOUND ( 'NONE', #101, .T. ) ;
#113 = APPROVAL ( #130, 'UNSPECIFIED' ) ;
#114 = ORIENTED_EDGE ( 'NONE', *, *, #31, .T. ) ;
#115 =( NAMED_UNIT ( * ) SI_UNIT ( $, .STERADIAN. ) SOLID_ANGLE_UNIT ( ) );
#116 = DIRECTION ( 'NONE',  ( -6.982962677686266711E-15, 0.0000000000000000000, -1.000000000000000000 ) ) ;
#117 = CARTESIAN_POINT ( 'NONE',  ( -1.514188661106529085E-30, 0.0000000000000000000, -2.168404344971008868E-16 ) ) ;
#118 = DATE_AND_TIME ( #58, #156 ) ;
#119 = AXIS2_PLACEMENT_3D ( 'NONE', #42, #122, #3 ) ;
#120 = ADVANCED_FACE ( 'NONE', ( #242, #50 ), #196, .T. ) ;
#121 = DATE_AND_TIME ( #213, #57 ) ;
#122 = DIRECTION ( 'NONE',  ( -6.982962677686266711E-15, 0.0000000000000000000, -1.000000000000000000 ) ) ;
#123 = DATE_AND_TIME ( #233, #151 ) ;
#124 = EDGE_LOOP ( 'NONE', ( #256 ) ) ;
#125 = COORDINATED_UNIVERSAL_TIME_OFFSET ( 1, 0, .AHEAD. ) ;
#126 = ORGANIZATION ( 'UNSPECIFIED', 'UNSPECIFIED', '' ) ;
#127 = PRODUCT ( '592.100.10', '592.100.10', '', ( #255 ) ) ;
#128 = DIRECTION ( 'NONE',  ( 1.000000000000000000, 0.0000000000000000000, -8.326672684688648810E-15 ) ) ;
#129 = DIRECTION ( 'NONE',  ( 1.000000000000000000, 0.0000000000000000000, -8.326672684688648810E-15 ) ) ;
#130 = APPROVAL_STATUS ( 'not_yet_approved' ) ;
#131 = AXIS2_PLACEMENT_3D ( 'NONE', #93, #174, #129 ) ;
#132 = DIRECTION ( 'NONE',  ( 6.982962677686266711E-15, 0.0000000000000000000, 1.000000000000000000 ) ) ;
#133 = COORDINATED_UNIVERSAL_TIME_OFFSET ( 1, 0, .AHEAD. ) ;
#134 = CIRCLE ( 'NONE', #211, 5.000000000000015099 ) ;
#135 = CIRCLE ( 'NONE', #148, 3.999999999999996447 ) ;
#136 = APPROVAL_STATUS ( 'not_yet_approved' ) ;
#137 = PRODUCT_RELATED_PRODUCT_CATEGORY ( 'detail', '', ( #127 ) ) ;
#138 = ORIENTED_EDGE ( 'NONE', *, *, #161, .F. ) ;
#139 = DIRECTION ( 'NONE',  ( 6.982962677686266711E-15, 0.0000000000000000000, 1.000000000000000000 ) ) ;
#140 = COORDINATED_UNIVERSAL_TIME_OFFSET ( 1, 0, .AHEAD. ) ;
#141 = AXIS2_PLACEMENT_3D ( 'NONE', #44, #217, #6 ) ;
#142 = EDGE_LOOP ( 'NONE', ( #236 ) ) ;
#143 = DIRECTION ( 'NONE',  ( -6.982962677686266711E-15, 0.0000000000000000000, -1.000000000000000000 ) ) ;
#144 = EDGE_LOOP ( 'NONE', ( #138 ) ) ;
#145 = DIRECTION ( 'NONE',  ( -1.000000000000000000, 0.0000000000000000000, 8.673617379884021273E-15 ) ) ;
#146 = CC_DESIGN_APPROVAL ( #108, ( #200 ) ) ;
#147 = CARTESIAN_POINT ( 'NONE',  ( -5.843145836512212879E-13, 0.0000000000000000000, -80.00000000000000000 ) ) ;
#148 = AXIS2_PLACEMENT_3D ( 'NONE', #250, #132, #271 ) ;
#149 = CC_DESIGN_PERSON_AND_ORGANIZATION_ASSIGNMENT ( #162, #254, ( #200 ) ) ;
#150 = CARTESIAN_POINT ( 'NONE',  ( -3.491481338843132346E-13, 0.0000000000000000000, -49.99999999999998579 ) ) ;
#151 = LOCAL_TIME ( 2, 37, 16.00000000000000000, #140 ) ;
#152 = FACE_OUTER_BOUND ( 'NONE', #10, .T. ) ;
#153 = EDGE_CURVE ( 'NONE', #107, #107, #53, .T. ) ;
#154 = CARTESIAN_POINT ( 'NONE',  ( -4.900000000000316547, 0.0000000000000000000, -45.26330499517474237 ) ) ;
#155 = APPLICATION_CONTEXT ( 'configuration controlled 3d designs of mechanical parts and assemblies' ) ;
#156 = LOCAL_TIME ( 2, 37, 16.00000000000000000, #133 ) ;
#157 = DATE_AND_TIME ( #178, #191 ) ;
#158 = APPLICATION_CONTEXT ( 'configuration controlled 3d designs of mechanical parts and assemblies' ) ;
#159 = DIRECTION ( 'NONE',  ( 1.000000000000000000, 0.0000000000000000000, -6.982962677686266711E-15 ) ) ;
#160 = VERTEX_POINT ( 'NONE', #11 ) ;
#161 = EDGE_CURVE ( 'NONE', #1, #1, #81, .T. ) ;
#162 = PERSON_AND_ORGANIZATION ( #8, #126 ) ;
#163 = EDGE_LOOP ( 'NONE', ( #114 ) ) ;
#164 =( GEOMETRIC_REPRESENTATION_CONTEXT ( 3 ) GLOBAL_UNCERTAINTY_ASSIGNED_CONTEXT ( ( #20 ) ) GLOBAL_UNIT_ASSIGNED_CONTEXT ( ( #63, #224, #115 ) ) REPRESENTATION_CONTEXT ( 'NONE', 'WORKASPACE' ) );
#165 = ORIENTED_EDGE ( 'NONE', *, *, #153, .T. ) ;
#166 = EDGE_CURVE ( 'NONE', #97, #97, #135, .T. ) ;
#167 = APPLICATION_PROTOCOL_DEFINITION ( 'international standard', 'config_control_design', 1994, #158 ) ;
#168 = PRODUCT_DEFINITION_SHAPE ( 'NONE', 'NONE',  #209 ) ;
#169 = DIRECTION ( 'NONE',  ( -7.840527924098085864E-15, 0.0000000000000000000, -1.000000000000000000 ) ) ;
#170 = AXIS2_PLACEMENT_3D ( 'NONE', #33, #258, #240 ) ;
#171 = ADVANCED_FACE ( 'NONE', ( #79, #37 ), #35, .F. ) ;
#172 = CARTESIAN_POINT ( 'NONE',  ( -5.586370142149013368E-13, 0.0000000000000000000, -80.00000000000000000 ) ) ;
#173 = EDGE_LOOP ( 'NONE', ( #177 ) ) ;
#174 = DIRECTION ( 'NONE',  ( 6.982962677686266711E-15, 0.0000000000000000000, 1.000000000000000000 ) ) ;
#175 = CLOSED_SHELL ( 'NONE', ( #251, #78, #14, #229 ) ) ;
#176 = CIRCLE ( 'NONE', #141, 4.900000000000000355 ) ;
#177 = ORIENTED_EDGE ( 'NONE', *, *, #31, .F. ) ;
#178 = CALENDAR_DATE ( 2019, 9, 1 ) ;
#179 = FACE_OUTER_BOUND ( 'NONE', #163, .T. ) ;
#180 = ORIENTED_EDGE ( 'NONE', *, *, #153, .F. ) ;
#181 = DIRECTION ( 'NONE',  ( -1.000000000000000000, 0.0000000000000000000, 6.982962677686266711E-15 ) ) ;
#182 = AXIS2_PLACEMENT_3D ( 'NONE', #194, #64, #208 ) ;
#183 = FACE_OUTER_BOUND ( 'NONE', #2, .T. ) ;
#184 = EDGE_LOOP ( 'NONE', ( #228 ) ) ;
#185 = MANIFOLD_SOLID_BREP ( 'Körper in Z minus drehen[1]', #175 ) ;
#186 = CARTESIAN_POINT ( 'NONE',  ( -5.843145836512212879E-13, 0.0000000000000000000, -80.00000000000000000 ) ) ;
#187 = DIRECTION ( 'NONE',  ( 0.0000000000000000000, 0.0000000000000000000, 1.000000000000000000 ) ) ;
#188 = ADVANCED_FACE ( 'NONE', ( #179 ), #210, .T. ) ;
#189 = FACE_OUTER_BOUND ( 'NONE', #83, .T. ) ;
#190 = EDGE_LOOP ( 'NONE', ( #216 ) ) ;
#191 = LOCAL_TIME ( 2, 37, 16.00000000000000000, #249 ) ;
#192 = DATE_AND_TIME ( #27, #232 ) ;
#193 = FACE_OUTER_BOUND ( 'NONE', #218, .T. ) ;
#194 = CARTESIAN_POINT ( 'NONE',  ( -3.160719694500359859E-13, 0.0000000000000000000, -45.26330499517479211 ) ) ;
#195 = APPROVAL_STATUS ( 'not_yet_approved' ) ;
#196 = CONICAL_SURFACE ( 'NONE', #283, 3.999999999999996447, 0.7853981633974496113 ) ;
#197 = DIRECTION ( 'NONE',  ( 6.982962677686266711E-15, 0.0000000000000000000, 1.000000000000000000 ) ) ;
#198 = ADVANCED_FACE ( 'NONE', ( #26, #238 ), #263, .T. ) ;
#199 = DIRECTION ( 'NONE',  ( 6.982962677686266711E-15, 0.0000000000000000000, 1.000000000000000000 ) ) ;
#200 = SECURITY_CLASSIFICATION ( '', '', #82 ) ;
#201 = AXIS2_PLACEMENT_3D ( 'NONE', #9, #169, #90 ) ;
#202 = PERSON_AND_ORGANIZATION ( #8, #126 ) ;
#203 = EDGE_CURVE ( 'NONE', #40, #40, #134, .T. ) ;
#204 = CARTESIAN_POINT ( 'NONE',  ( -3.491481338843133355E-13, 0.0000000000000000000, -50.00000000000000000 ) ) ;
#205 = APPROVAL_PERSON_ORGANIZATION ( #88, #215, #74 ) ;
#206 = CC_DESIGN_APPROVAL ( #113, ( #66 ) ) ;
#207 = ORIENTED_EDGE ( 'NONE', *, *, #166, .T. ) ;
#208 = DIRECTION ( 'NONE',  ( -1.000000000000000000, 0.0000000000000000000, 6.982962677686266711E-15 ) ) ;
#209 = PRODUCT_DEFINITION ( 'UNKNOWN', '', #66, #264 ) ;
#210 = PLANE ( 'NONE',  #226 ) ;
#211 = AXIS2_PLACEMENT_3D ( 'NONE', #266, #212, #269 ) ;
#212 = DIRECTION ( 'NONE',  ( -6.982962677686266711E-15, -0.0000000000000000000, -1.000000000000000000 ) ) ;
#213 = CALENDAR_DATE ( 2019, 9, 1 ) ;
#214 = CARTESIAN_POINT ( 'NONE',  ( -4.900000000000350298, 0.0000000000000000000, -49.99999999999995737 ) ) ;
#215 = APPROVAL ( #195, 'UNSPECIFIED' ) ;
#216 = ORIENTED_EDGE ( 'NONE', *, *, #46, .T. ) ;
#217 = DIRECTION ( 'NONE',  ( -6.982962677686266711E-15, 0.0000000000000000000, -1.000000000000000000 ) ) ;
#218 = EDGE_LOOP ( 'NONE', ( #109 ) ) ;
#219 = COORDINATED_UNIVERSAL_TIME_OFFSET ( 1, 0, .AHEAD. ) ;
#220 = DIRECTION ( 'NONE',  ( -6.982962677686266711E-15, 0.0000000000000000000, -1.000000000000000000 ) ) ;
#221 = ADVANCED_FACE ( 'NONE', ( #76 ), #98, .T. ) ;
#222 = EDGE_LOOP ( 'NONE', ( #12 ) ) ;
#223 = FACE_BOUND ( 'NONE', #142, .T. ) ;
#224 =( NAMED_UNIT ( * ) PLANE_ANGLE_UNIT ( ) SI_UNIT ( $, .RADIAN. ) );
#225 = CIRCLE ( 'NONE', #260, 4.800000000000007816 ) ;
#226 = AXIS2_PLACEMENT_3D ( 'NONE', #204, #143, #181 ) ;
#227 = ADVANCED_FACE ( 'NONE', ( #95, #75 ), #239, .T. ) ;
#228 = ORIENTED_EDGE ( 'NONE', *, *, #161, .T. ) ;
#229 = ADVANCED_FACE ( 'NONE', ( #183 ), #231, .T. ) ;
#230 = AXIS2_PLACEMENT_3D ( 'NONE', #147, #259, #70 ) ;
#231 = PLANE ( 'NONE',  #99 ) ;
#232 = LOCAL_TIME ( 2, 37, 16.00000000000000000, #219 ) ;
#233 = CALENDAR_DATE ( 2019, 9, 1 ) ;
#234 = ORIENTED_EDGE ( 'NONE', *, *, #268, .T. ) ;
#235 = DIRECTION ( 'NONE',  ( 1.000000000000000000, 0.0000000000000000000, 0.0000000000000000000 ) ) ;
#236 = ORIENTED_EDGE ( 'NONE', *, *, #46, .F. ) ;
#237 = EDGE_CURVE ( 'NONE', #160, #160, #59, .T. ) ;
#238 = FACE_OUTER_BOUND ( 'NONE', #173, .T. ) ;
#239 = CONICAL_SURFACE ( 'NONE', #19, 4.968148347421863065, 0.2617993877991500740 ) ;
#240 = DIRECTION ( 'NONE',  ( 1.000000000000000000, 0.0000000000000000000, -8.673617379884021273E-15 ) ) ;
#241 = DIRECTION ( 'NONE',  ( -1.000000000000000000, 0.0000000000000000000, 7.080503983578803823E-15 ) ) ;
#242 = FACE_OUTER_BOUND ( 'NONE', #184, .T. ) ;
#243 = DIRECTION ( 'NONE',  ( -6.982962677686266711E-15, 0.0000000000000000000, -1.000000000000000000 ) ) ;
#244 = ORIENTED_EDGE ( 'NONE', *, *, #237, .T. ) ;
#245 = CIRCLE ( 'NONE', #39, 4.900000000000000355 ) ;
#246 = DATE_TIME_ROLE ( 'creation_date' ) ;
#247 = CC_DESIGN_DATE_AND_TIME_ASSIGNMENT ( #157, #246, ( #209 ) ) ;
#248 = DIRECTION ( 'NONE',  ( 1.000000000000000000, 0.0000000000000000000, -6.938893903907207078E-15 ) ) ;
#249 = COORDINATED_UNIVERSAL_TIME_OFFSET ( 1, 0, .AHEAD. ) ;
#250 = CARTESIAN_POINT ( 'NONE',  ( 0.0000000000000000000, 0.0000000000000000000, 0.0000000000000000000 ) ) ;
#251 = ADVANCED_FACE ( 'NONE', ( #91 ), #265, .F. ) ;
#252 = VERTEX_POINT ( 'NONE', #154 ) ;
#253 = CC_DESIGN_PERSON_AND_ORGANIZATION_ASSIGNMENT ( #25, #18, ( #127 ) ) ;
#254 = PERSON_AND_ORGANIZATION_ROLE ( 'classification_officer' ) ;
#255 = MECHANICAL_CONTEXT ( 'NONE', #158, 'mechanical' ) ;
#256 = ORIENTED_EDGE ( 'NONE', *, *, #166, .F. ) ;
#257 = CARTESIAN_POINT ( 'NONE',  ( -4.800000000000593126, 0.0000000000000000000, -79.99999999999995737 ) ) ;
#258 = DIRECTION ( 'NONE',  ( 7.840527924098085864E-15, 0.0000000000000000000, 1.000000000000000000 ) ) ;
#259 = DIRECTION ( 'NONE',  ( 7.272537772031604810E-15, -0.0000000000000000000, 1.000000000000000000 ) ) ;
#260 = AXIS2_PLACEMENT_3D ( 'NONE', #186, #29, #145 ) ;
#261 = DIRECTION ( 'NONE',  ( 6.982962677686266711E-15, 0.0000000000000000000, 1.000000000000000000 ) ) ;
#262 = CARTESIAN_POINT ( 'NONE',  ( 4.999999999999703348, 0.0000000000000000000, -44.62679491924309616 ) ) ;
#263 = CYLINDRICAL_SURFACE ( 'NONE', #62, 4.900000000000000355 ) ;
#264 = DESIGN_CONTEXT ( 'detailed design', #155, 'design' ) ;
#265 = PLANE ( 'NONE',  #230 ) ;
#266 = CARTESIAN_POINT ( 'NONE',  ( -3.491481338843132850E-13, 0.0000000000000000000, -49.99999999999999289 ) ) ;
#267 = AXIS2_PLACEMENT_3D ( 'NONE', #56, #199, #270 ) ;
#268 = EDGE_CURVE ( 'NONE', #252, #252, #176, .T. ) ;
#269 = DIRECTION ( 'NONE',  ( 1.000000000000000000, 0.0000000000000000000, -6.938893903907207078E-15 ) ) ;
#270 = DIRECTION ( 'NONE',  ( 1.000000000000000000, 0.0000000000000000000, -6.982261990806648555E-15 ) ) ;
#271 = DIRECTION ( 'NONE',  ( 1.000000000000000000, 0.0000000000000000000, -6.982962677686266711E-15 ) ) ;
#272 = PERSON_AND_ORGANIZATION_ROLE ( 'creator' ) ;
#273 = DIRECTION ( 'NONE',  ( 1.000000000000000000, 0.0000000000000000000, -6.982962677686266711E-15 ) ) ;
#274 = PERSON_AND_ORGANIZATION_ROLE ( 'creator' ) ;
#275 = CARTESIAN_POINT ( 'NONE',  ( 4.999999999999665157, 0.0000000000000000000, -50.00000000000002842 ) ) ;
#276 = AXIS2_PLACEMENT_3D ( 'NONE', #60, #197, #248 ) ;
#277 = APPROVAL_ROLE ( '' ) ;
#278 = EDGE_LOOP ( 'NONE', ( #207 ) ) ;
#279 = CARTESIAN_POINT ( 'NONE',  ( 4.999999999999643840, 0.0000000000000000000, -50.00000000000002842 ) ) ;
#280 = VERTEX_POINT ( 'NONE', #214 ) ;
#281 = AXIS2_PLACEMENT_3D ( 'NONE', #106, #187, #235 ) ;
#282 = CC_DESIGN_DATE_AND_TIME_ASSIGNMENT ( #121, #84, ( #200 ) ) ;
#283 = AXIS2_PLACEMENT_3D ( 'NONE', #36, #116, #96 ) ;
ENDSEC;
END-ISO-10303-21;
19838