ISO-10303-21;
HEADER;
FILE_DESCRIPTION (( 'STEP AP203' ),
    '1' );
FILE_NAME ('414.101.00.STEP',
    '2019-01-09T01:36:14',
    ( '' ),
    ( '' ),
    'SwSTEP 2.0',
    'SolidWorks 2019',
    '' );
FILE_SCHEMA (( 'CONFIG_CONTROL_DESIGN' ));
ENDSEC;

DATA;
#1 = EDGE_LOOP ( 'NONE', ( #8 ) ) ;
#2 = LOCAL_TIME ( 2, 36, 14.00000000000000000, #32 ) ;
#3 = SECURITY_CLASSIFICATION ( '', '', #75 ) ;
#4 = EDGE_LOOP ( 'NONE', ( #39 ) ) ;
#5 =( LENGTH_UNIT ( ) NAMED_UNIT ( * ) SI_UNIT ( .MILLI., .METRE. ) );
#7 = VERTEX_POINT ( 'NONE', #21 ) ;
#6 = CC_DESIGN_PERSON_AND_ORGANIZATION_ASSIGNMENT ( #138, #95, ( #3 ) ) ;
#8 = ORIENTED_EDGE ( 'NONE', *, *, #80, .T. ) ;
#9 = APPROVAL_PERSON_ORGANIZATION ( #275, #120, #258 ) ;
#10 = APPLICATION_CONTEXT ( 'configuration controlled 3d designs of mechanical parts and assemblies' ) ;
#11 = CARTESIAN_POINT ( 'NONE',  ( -1.514188661106529085E-30, 0.0000000000000000000, -2.168404344971008868E-16 ) ) ;
#12 = EDGE_CURVE ( 'NONE', #58, #58, #181, .T. ) ;
#13 = DIRECTION ( 'NONE',  ( 6.982962677686266711E-15, 0.0000000000000000000, 1.000000000000000000 ) ) ;
#14 = DIRECTION ( 'NONE',  ( 7.219244978988030329E-15, -0.0000000000000000000, 1.000000000000000000 ) ) ;
#15 = PERSON_AND_ORGANIZATION ( #176, #82 ) ;
#16 = CONICAL_SURFACE ( 'NONE', #74, 3.999999999999996447, 0.7853981633974496113 ) ;
#17 = AXIS2_PLACEMENT_3D ( 'NONE', #265, #42, #118 ) ;
#18 = AXIS2_PLACEMENT_3D ( 'NONE', #25, #248, #150 ) ;
#19 = APPROVAL_DATE_TIME ( #222, #255 ) ;
#20 = DIRECTION ( 'NONE',  ( 1.000000000000000000, 0.0000000000000000000, -8.673617379884021273E-15 ) ) ;
#21 = CARTESIAN_POINT ( 'NONE',  ( 4.999999999999467093, 0.0000000000000000000, -78.00000000000005684 ) ) ;
#22 = ORIENTED_EDGE ( 'NONE', *, *, #274, .F. ) ;
#23 = PRODUCT_DEFINITION ( 'UNKNOWN', '', #268, #225 ) ;
#24 = CARTESIAN_POINT ( 'NONE',  ( 3.999999999999996447, 0.0000000000000000000, -2.793185071074504160E-14 ) ) ;
#25 = CARTESIAN_POINT ( 'NONE',  ( -6.982962677686266711E-13, 0.0000000000000000000, -100.0000000000000000 ) ) ;
#26 = CARTESIAN_POINT ( 'NONE',  ( 4.999999999999722000, 0.0000000000000000000, -41.44019237886465845 ) ) ;
#27 = MANIFOLD_SOLID_BREP ( 'Körper in Z minus drehen[2]', #202 ) ;
#28 = CARTESIAN_POINT ( 'NONE',  ( 0.0000000000000000000, 0.0000000000000000000, 0.0000000000000000000 ) ) ;
#29 = CIRCLE ( 'NONE', #251, 5.000000000000025757 ) ;
#30 = DATE_AND_TIME ( #73, #224 ) ;
#31 = MECHANICAL_CONTEXT ( 'NONE', #103, 'mechanical' ) ;
#32 = COORDINATED_UNIVERSAL_TIME_OFFSET ( 1, 0, .AHEAD. ) ;
#33 = APPROVAL_ROLE ( '' ) ;
#34 = LOCAL_TIME ( 2, 36, 14.00000000000000000, #168 ) ;
#35 = ORIENTED_EDGE ( 'NONE', *, *, #87, .T. ) ;
#36 = EDGE_CURVE ( 'NONE', #226, #226, #269, .T. ) ;
#37 = CIRCLE ( 'NONE', #283, 5.000000000000011546 ) ;
#38 = FACE_BOUND ( 'NONE', #242, .T. ) ;
#39 = ORIENTED_EDGE ( 'NONE', *, *, #274, .T. ) ;
#40 = ORIENTED_EDGE ( 'NONE', *, *, #195, .T. ) ;
#41 = ADVANCED_FACE ( 'NONE', ( #159, #108 ), #16, .T. ) ;
#42 = DIRECTION ( 'NONE',  ( 6.982962677686266711E-15, 0.0000000000000000000, 1.000000000000000000 ) ) ;
#43 = VERTEX_POINT ( 'NONE', #26 ) ;
#44 = DIRECTION ( 'NONE',  ( -1.000000000000000000, 0.0000000000000000000, 5.722799096005960939E-15 ) ) ;
#45 = DATE_TIME_ROLE ( 'creation_date' ) ;
#46 = DIRECTION ( 'NONE',  ( -1.000000000000000000, 0.0000000000000000000, 6.982962677686266711E-15 ) ) ;
#47 = CONICAL_SURFACE ( 'NONE', #210, 4.800000000000007816, 0.7853981633974764787 ) ;
#48 = DIRECTION ( 'NONE',  ( -8.152369831884203354E-15, 0.0000000000000000000, -1.000000000000000000 ) ) ;
#49 = DIRECTION ( 'NONE',  ( -6.982962677686266711E-15, 0.0000000000000000000, -1.000000000000000000 ) ) ;
#50 = CYLINDRICAL_SURFACE ( 'NONE', #90, 5.000000000000011546 ) ;
#51 = PLANE ( 'NONE',  #208 ) ;
#52 = EDGE_CURVE ( 'NONE', #43, #43, #37, .T. ) ;
#53 = AXIS2_PLACEMENT_3D ( 'NONE', #11, #189, #88 ) ;
#54 = DIRECTION ( 'NONE',  ( -6.982962677686266711E-15, 0.0000000000000000000, -1.000000000000000000 ) ) ;
#55 = CALENDAR_DATE ( 2019, 9, 1 ) ;
#56 = DIRECTION ( 'NONE',  ( 6.982962677686266711E-15, 0.0000000000000000000, 1.000000000000000000 ) ) ;
#57 = AXIS2_PLACEMENT_3D ( 'NONE', #102, #146, #119 ) ;
#58 = VERTEX_POINT ( 'NONE', #204 ) ;
#59 = ORIENTED_EDGE ( 'NONE', *, *, #87, .F. ) ;
#60 = FACE_OUTER_BOUND ( 'NONE', #105, .T. ) ;
#61 = LOCAL_TIME ( 2, 36, 14.00000000000000000, #127 ) ;
#62 = PERSON_AND_ORGANIZATION_ROLE ( 'creator' ) ;
#63 = CALENDAR_DATE ( 2019, 9, 1 ) ;
#64 = ORIENTED_EDGE ( 'NONE', *, *, #12, .F. ) ;
#65 = CARTESIAN_POINT ( 'NONE',  ( -4.918148347422152789, 0.0000000000000000000, -41.74566690496971688 ) ) ;
#66 = FACE_OUTER_BOUND ( 'NONE', #1, .T. ) ;
#67 = DIRECTION ( 'NONE',  ( 1.000000000000000000, 0.0000000000000000000, -6.938893903907212600E-15 ) ) ;
#68 = EDGE_CURVE ( 'NONE', #7, #7, #157, .T. ) ;
#69 = FACE_OUTER_BOUND ( 'NONE', #4, .T. ) ;
#70 = ORIENTED_EDGE ( 'NONE', *, *, #68, .F. ) ;
#71 = CARTESIAN_POINT ( 'NONE',  ( -4.850000000000294520, 0.0000000000000000000, -42.26330499517474237 ) ) ;
#72 = EDGE_LOOP ( 'NONE', ( #40 ) ) ;
#73 = CALENDAR_DATE ( 2019, 9, 1 ) ;
#74 = AXIS2_PLACEMENT_3D ( 'NONE', #132, #185, #46 ) ;
#75 = SECURITY_CLASSIFICATION_LEVEL ( 'unclassified' ) ;
#76 = CARTESIAN_POINT ( 'NONE',  ( 0.0000000000000000000, 0.0000000000000000000, 0.0000000000000000000 ) ) ;
#77 = PERSON_AND_ORGANIZATION_ROLE ( 'design_owner' ) ;
#78 = DIRECTION ( 'NONE',  ( -1.000000000000000000, 0.0000000000000000000, 8.673617379884021273E-15 ) ) ;
#79 = APPROVAL_DATE_TIME ( #126, #184 ) ;
#80 = EDGE_CURVE ( 'NONE', #205, #205, #227, .T. ) ;
#81 = PERSON_AND_ORGANIZATION ( #176, #82 ) ;
#82 = ORGANIZATION ( 'UNSPECIFIED', 'UNSPECIFIED', '' ) ;
#83 =( NAMED_UNIT ( * ) PLANE_ANGLE_UNIT ( ) SI_UNIT ( $, .RADIAN. ) );
#84 = EDGE_LOOP ( 'NONE', ( #177 ) ) ;
#85 = CARTESIAN_POINT ( 'NONE',  ( 4.999999999999992895, 0.0000000000000000000, -1.000000000000035749 ) ) ;
#86 = LOCAL_TIME ( 2, 36, 14.00000000000000000, #147 ) ;
#87 = EDGE_CURVE ( 'NONE', #129, #129, #144, .T. ) ;
#88 = DIRECTION ( 'NONE',  ( 1.000000000000000000, 0.0000000000000000000, -6.982962677686266711E-15 ) ) ;
#89 = EDGE_LOOP ( 'NONE', ( #228 ) ) ;
#90 = AXIS2_PLACEMENT_3D ( 'NONE', #135, #56, #262 ) ;
#91 = CC_DESIGN_SECURITY_CLASSIFICATION ( #3, ( #268 ) ) ;
#92 = DIRECTION ( 'NONE',  ( -6.982962677686266711E-15, 0.0000000000000000000, -1.000000000000000000 ) ) ;
#93 = CARTESIAN_POINT ( 'NONE',  ( -7.223433632385697498E-13, 0.0000000000000000000, -99.79999999999999716 ) ) ;
#94 = UNCERTAINTY_MEASURE_WITH_UNIT (LENGTH_MEASURE( 1.000000000000000082E-05 ), #5, 'distance_accuracy_value', 'NONE');
#95 = PERSON_AND_ORGANIZATION_ROLE ( 'classification_officer' ) ;
#96 = CARTESIAN_POINT ( 'NONE',  ( 4.999999999999444888, 0.0000000000000000000, -78.00000000000005684 ) ) ;
#97 = PLANE ( 'NONE',  #162 ) ;
#98 = CC_DESIGN_PERSON_AND_ORGANIZATION_ASSIGNMENT ( #213, #165, ( #268 ) ) ;
#99 = ORIENTED_EDGE ( 'NONE', *, *, #36, .F. ) ;
#100 = CC_DESIGN_PERSON_AND_ORGANIZATION_ASSIGNMENT ( #171, #259, ( #268 ) ) ;
#101 = CARTESIAN_POINT ( 'NONE',  ( -7.239738372049466221E-13, 0.0000000000000000000, -100.0000000000000000 ) ) ;
#102 = CARTESIAN_POINT ( 'NONE',  ( -5.446710888595289549E-13, 0.0000000000000000000, -78.00000000000001421 ) ) ;
#103 = APPLICATION_CONTEXT ( 'configuration controlled 3d designs of mechanical parts and assemblies' ) ;
#104 = CIRCLE ( 'NONE', #243, 4.800000000000007816 ) ;
#105 = EDGE_LOOP ( 'NONE', ( #249 ) ) ;
#106 = AXIS2_PLACEMENT_3D ( 'NONE', #229, #109, #133 ) ;
#107 = CARTESIAN_POINT ( 'NONE',  ( -7.239738372049466221E-13, 0.0000000000000000000, -100.0000000000000000 ) ) ;
#108 = FACE_BOUND ( 'NONE', #155, .T. ) ;
#109 = DIRECTION ( 'NONE',  ( 6.982962677686266711E-15, 0.0000000000000000000, 1.000000000000000000 ) ) ;
#110 = AXIS2_PLACEMENT_3D ( 'NONE', #239, #122, #198 ) ;
#111 = DIRECTION ( 'NONE',  ( -1.000000000000000000, 0.0000000000000000000, 6.982962677686266711E-15 ) ) ;
#112 = AXIS2_PLACEMENT_3D ( 'NONE', #28, #92, #149 ) ;
#113 = MANIFOLD_SOLID_BREP ( 'Körper in Z minus drehen[1]', #191 ) ;
#114 = FACE_OUTER_BOUND ( 'NONE', #131, .T. ) ;
#115 = DATE_TIME_ROLE ( 'classification_date' ) ;
#116 = ADVANCED_FACE ( 'NONE', ( #160, #254 ), #50, .T. ) ;
#117 =( NAMED_UNIT ( * ) SI_UNIT ( $, .STERADIAN. ) SOLID_ANGLE_UNIT ( ) );
#118 = DIRECTION ( 'NONE',  ( 1.000000000000000000, 0.0000000000000000000, -7.054376376776699275E-15 ) ) ;
#119 = DIRECTION ( 'NONE',  ( 1.000000000000000000, 0.0000000000000000000, -8.326672684688655121E-15 ) ) ;
#120 = APPROVAL ( #143, 'UNSPECIFIED' ) ;
#121 = EDGE_LOOP ( 'NONE', ( #35 ) ) ;
#122 = DIRECTION ( 'NONE',  ( -6.982962677686266711E-15, 0.0000000000000000000, -1.000000000000000000 ) ) ;
#123 = EDGE_LOOP ( 'NONE', ( #197 ) ) ;
#124 = ADVANCED_FACE ( 'NONE', ( #206, #235 ), #139, .T. ) ;
#125 = DIRECTION ( 'NONE',  ( 8.152369831884203354E-15, 0.0000000000000000000, 1.000000000000000000 ) ) ;
#126 = DATE_AND_TIME ( #63, #2 ) ;
#127 = COORDINATED_UNIVERSAL_TIME_OFFSET ( 1, 0, .AHEAD. ) ;
#128 = ADVANCED_BREP_SHAPE_REPRESENTATION ( '414.101.00', ( #113, #27, #217 ), #153 ) ;
#129 = VERTEX_POINT ( 'NONE', #24 ) ;
#130 = ADVANCED_FACE ( 'NONE', ( #278 ), #137, .T. ) ;
#131 = EDGE_LOOP ( 'NONE', ( #151 ) ) ;
#132 = CARTESIAN_POINT ( 'NONE',  ( 0.0000000000000000000, 0.0000000000000000000, 0.0000000000000000000 ) ) ;
#133 = DIRECTION ( 'NONE',  ( 1.000000000000000000, 0.0000000000000000000, -6.982261990806648555E-15 ) ) ;
#134 = VERTEX_POINT ( 'NONE', #209 ) ;
#135 = CARTESIAN_POINT ( 'NONE',  ( -6.982962677686266711E-13, 0.0000000000000000000, -100.0000000000000000 ) ) ;
#136 = EDGE_LOOP ( 'NONE', ( #70 ) ) ;
#137 = PLANE ( 'NONE',  #256 ) ;
#138 = PERSON_AND_ORGANIZATION ( #176, #82 ) ;
#139 = CONICAL_SURFACE ( 'NONE', #17, 4.918148347421861466, 0.2617993877991500740 ) ;
#140 = COORDINATED_UNIVERSAL_TIME_OFFSET ( 1, 0, .AHEAD. ) ;
#141 = DATE_AND_TIME ( #55, #34 ) ;
#142 = CC_DESIGN_PERSON_AND_ORGANIZATION_ASSIGNMENT ( #218, #77, ( #203 ) ) ;
#143 = APPROVAL_STATUS ( 'not_yet_approved' ) ;
#144 = CIRCLE ( 'NONE', #193, 3.999999999999996447 ) ;
#145 = PERSON_AND_ORGANIZATION ( #176, #82 ) ;
#146 = DIRECTION ( 'NONE',  ( -6.982962677686266711E-15, -0.0000000000000000000, -1.000000000000000000 ) ) ;
#147 = COORDINATED_UNIVERSAL_TIME_OFFSET ( 1, 0, .AHEAD. ) ;
#148 = ORIENTED_EDGE ( 'NONE', *, *, #36, .T. ) ;
#149 = DIRECTION ( 'NONE',  ( -1.000000000000000000, 0.0000000000000000000, 6.982962677686265922E-15 ) ) ;
#150 = DIRECTION ( 'NONE',  ( 1.000000000000000000, 0.0000000000000000000, -8.326672684688655121E-15 ) ) ;
#151 = ORIENTED_EDGE ( 'NONE', *, *, #195, .F. ) ;
#152 = EDGE_LOOP ( 'NONE', ( #99 ) ) ;
#153 =( GEOMETRIC_REPRESENTATION_CONTEXT ( 3 ) GLOBAL_UNCERTAINTY_ASSIGNED_CONTEXT ( ( #94 ) ) GLOBAL_UNIT_ASSIGNED_CONTEXT ( ( #5, #83, #117 ) ) REPRESENTATION_CONTEXT ( 'NONE', 'WORKASPACE' ) );
#154 = ADVANCED_FACE ( 'NONE', ( #182, #60 ), #180, .T. ) ;
#155 = EDGE_LOOP ( 'NONE', ( #59 ) ) ;
#156 = DATE_AND_TIME ( #246, #61 ) ;
#157 = CIRCLE ( 'NONE', #57, 5.000000000000011546 ) ;
#158 = ORIENTED_EDGE ( 'NONE', *, *, #52, .F. ) ;
#159 = FACE_OUTER_BOUND ( 'NONE', #221, .T. ) ;
#160 = FACE_OUTER_BOUND ( 'NONE', #89, .T. ) ;
#161 = ADVANCED_FACE ( 'NONE', ( #245, #38 ), #47, .T. ) ;
#162 = AXIS2_PLACEMENT_3D ( 'NONE', #260, #54, #111 ) ;
#163 = CC_DESIGN_APPROVAL ( #184, ( #3 ) ) ;
#164 = DIRECTION ( 'NONE',  ( 1.000000000000000000, 0.0000000000000000000, -6.982962677686266711E-15 ) ) ;
#165 = PERSON_AND_ORGANIZATION_ROLE ( 'design_supplier' ) ;
#166 = EDGE_LOOP ( 'NONE', ( #219 ) ) ;
#167 = DIRECTION ( 'NONE',  ( 0.0000000000000000000, 0.0000000000000000000, 1.000000000000000000 ) ) ;
#168 = COORDINATED_UNIVERSAL_TIME_OFFSET ( 1, 0, .AHEAD. ) ;
#169 = APPLICATION_PROTOCOL_DEFINITION ( 'international standard', 'config_control_design', 1994, #103 ) ;
#170 = APPROVAL_ROLE ( '' ) ;
#171 = PERSON_AND_ORGANIZATION ( #176, #82 ) ;
#172 = ADVANCED_FACE ( 'NONE', ( #183 ), #273, .T. ) ;
#173 = APPLICATION_PROTOCOL_DEFINITION ( 'international standard', 'config_control_design', 1994, #10 ) ;
#174 = APPROVAL_PERSON_ORGANIZATION ( #15, #184, #170 ) ;
#175 = APPROVAL_DATE_TIME ( #141, #120 ) ;
#176 = PERSON ( 'UNSPECIFIED', 'UNSPECIFIED', 'UNSPECIFIED', ('UNSPECIFIED'), ('UNSPECIFIED'), ('UNSPECIFIED') ) ;
#177 = ORIENTED_EDGE ( 'NONE', *, *, #216, .T. ) ;
#178 = EDGE_LOOP ( 'NONE', ( #270 ) ) ;
#179 = CC_DESIGN_DATE_AND_TIME_ASSIGNMENT ( #156, #45, ( #23 ) ) ;
#180 = CYLINDRICAL_SURFACE ( 'NONE', #18, 5.000000000000011546 ) ;
#181 = CIRCLE ( 'NONE', #220, 4.850000000000000533 ) ;
#182 = FACE_OUTER_BOUND ( 'NONE', #152, .T. ) ;
#183 = FACE_OUTER_BOUND ( 'NONE', #121, .T. ) ;
#184 = APPROVAL ( #234, 'UNSPECIFIED' ) ;
#185 = DIRECTION ( 'NONE',  ( -6.982962677686266711E-15, 0.0000000000000000000, -1.000000000000000000 ) ) ;
#186 = DIRECTION ( 'NONE',  ( 1.000000000000000000, 0.0000000000000000000, -7.219244978988030329E-15 ) ) ;
#187 = VERTEX_POINT ( 'NONE', #277 ) ;
#188 = PRODUCT_RELATED_PRODUCT_CATEGORY ( 'detail', '', ( #203 ) ) ;
#189 = DIRECTION ( 'NONE',  ( 6.982962677686266711E-15, 0.0000000000000000000, 1.000000000000000000 ) ) ;
#190 = DIRECTION ( 'NONE',  ( -6.982962677686266711E-15, 0.0000000000000000000, -1.000000000000000000 ) ) ;
#191 = CLOSED_SHELL ( 'NONE', ( #212, #161, #116, #130 ) ) ;
#192 = DIRECTION ( 'NONE',  ( -8.152369831884203354E-15, 0.0000000000000000000, -1.000000000000000000 ) ) ;
#193 = AXIS2_PLACEMENT_3D ( 'NONE', #201, #272, #164 ) ;
#194 = CALENDAR_DATE ( 2019, 9, 1 ) ;
#195 = EDGE_CURVE ( 'NONE', #207, #207, #247, .T. ) ;
#196 = PRODUCT_DEFINITION_SHAPE ( 'NONE', 'NONE',  #23 ) ;
#197 = ORIENTED_EDGE ( 'NONE', *, *, #68, .T. ) ;
#198 = DIRECTION ( 'NONE',  ( -1.000000000000000000, 0.0000000000000000000, 7.054376376776699275E-15 ) ) ;
#199 = EDGE_LOOP ( 'NONE', ( #64 ) ) ;
#200 = TOROIDAL_SURFACE ( 'NONE', #238, 6.850000000000000533, 2.000000000000002220 ) ;
#201 = CARTESIAN_POINT ( 'NONE',  ( 0.0000000000000000000, 0.0000000000000000000, 0.0000000000000000000 ) ) ;
#202 = CLOSED_SHELL ( 'NONE', ( #172, #41, #154, #124, #267, #281, #223 ) ) ;
#203 = PRODUCT ( '414.101.00', '414.101.00', '', ( #31 ) ) ;
#204 = CARTESIAN_POINT ( 'NONE',  ( -4.850000000000544986, 0.0000000000000000000, -77.99999999999998579 ) ) ;
#205 = VERTEX_POINT ( 'NONE', #65 ) ;
#206 = FACE_OUTER_BOUND ( 'NONE', #253, .T. ) ;
#207 = VERTEX_POINT ( 'NONE', #71 ) ;
#208 = AXIS2_PLACEMENT_3D ( 'NONE', #107, #14, #186 ) ;
#209 = CARTESIAN_POINT ( 'NONE',  ( -5.000000000000748734, 0.0000000000000000000, -99.79999999999995453 ) ) ;
#210 = AXIS2_PLACEMENT_3D ( 'NONE', #101, #125, #20 ) ;
#211 = CARTESIAN_POINT ( 'NONE',  ( -5.446710888595289549E-13, 0.0000000000000000000, -78.00000000000001421 ) ) ;
#212 = ADVANCED_FACE ( 'NONE', ( #69 ), #51, .F. ) ;
#213 = PERSON_AND_ORGANIZATION ( #176, #82 ) ;
#214 = CARTESIAN_POINT ( 'NONE',  ( -2.951230814169770596E-13, 0.0000000000000000000, -42.26330499517477790 ) ) ;
#215 = CARTESIAN_POINT ( 'NONE',  ( -2.951230814169771606E-13, 0.0000000000000000000, -42.26330499517479211 ) ) ;
#216 = EDGE_CURVE ( 'NONE', #134, #134, #29, .T. ) ;
#217 = AXIS2_PLACEMENT_3D ( 'NONE', #76, #167, #237 ) ;
#218 = PERSON_AND_ORGANIZATION ( #176, #82 ) ;
#219 = ORIENTED_EDGE ( 'NONE', *, *, #80, .F. ) ;
#220 = AXIS2_PLACEMENT_3D ( 'NONE', #211, #49, #44 ) ;
#221 = EDGE_LOOP ( 'NONE', ( #148 ) ) ;
#222 = DATE_AND_TIME ( #194, #86 ) ;
#223 = ADVANCED_FACE ( 'NONE', ( #276 ), #97, .T. ) ;
#224 = LOCAL_TIME ( 2, 36, 14.00000000000000000, #140 ) ;
#225 = DESIGN_CONTEXT ( 'detailed design', #10, 'design' ) ;
#226 = VERTEX_POINT ( 'NONE', #85 ) ;
#227 = CIRCLE ( 'NONE', #110, 4.918148347421861466 ) ;
#228 = ORIENTED_EDGE ( 'NONE', *, *, #216, .F. ) ;
#229 = CARTESIAN_POINT ( 'NONE',  ( -6.982962677686273021E-15, 0.0000000000000000000, -1.000000000000000888 ) ) ;
#230 = DIRECTION ( 'NONE',  ( -1.000000000000000000, 0.0000000000000000000, 8.326672684688631455E-15 ) ) ;
#231 = CARTESIAN_POINT ( 'NONE',  ( -2.893753167377505289E-13, 0.0000000000000000000, -41.44019237886462292 ) ) ;
#232 = DIRECTION ( 'NONE',  ( -6.982962677686266711E-15, 0.0000000000000000000, -1.000000000000000000 ) ) ;
#233 = CC_DESIGN_PERSON_AND_ORGANIZATION_ASSIGNMENT ( #81, #62, ( #23 ) ) ;
#234 = APPROVAL_STATUS ( 'not_yet_approved' ) ;
#235 = FACE_BOUND ( 'NONE', #166, .T. ) ;
#236 = DIRECTION ( 'NONE',  ( -1.000000000000000000, 0.0000000000000000000, 6.982962677686265922E-15 ) ) ;
#237 = DIRECTION ( 'NONE',  ( 1.000000000000000000, 0.0000000000000000000, 0.0000000000000000000 ) ) ;
#238 = AXIS2_PLACEMENT_3D ( 'NONE', #215, #190, #236 ) ;
#239 = CARTESIAN_POINT ( 'NONE',  ( -2.915084339525265310E-13, 0.0000000000000000000, -41.74566690496975241 ) ) ;
#240 = APPROVAL_STATUS ( 'not_yet_approved' ) ;
#241 = CC_DESIGN_DATE_AND_TIME_ASSIGNMENT ( #30, #115, ( #3 ) ) ;
#242 = EDGE_LOOP ( 'NONE', ( #22 ) ) ;
#243 = AXIS2_PLACEMENT_3D ( 'NONE', #279, #192, #78 ) ;
#244 = CC_DESIGN_APPROVAL ( #120, ( #268 ) ) ;
#245 = FACE_OUTER_BOUND ( 'NONE', #84, .T. ) ;
#246 = CALENDAR_DATE ( 2019, 9, 1 ) ;
#247 = CIRCLE ( 'NONE', #280, 4.849999999999999645 ) ;
#248 = DIRECTION ( 'NONE',  ( 6.982962677686266711E-15, 0.0000000000000000000, 1.000000000000000000 ) ) ;
#249 = ORIENTED_EDGE ( 'NONE', *, *, #52, .T. ) ;
#250 = FACE_OUTER_BOUND ( 'NONE', #199, .T. ) ;
#251 = AXIS2_PLACEMENT_3D ( 'NONE', #93, #48, #230 ) ;
#252 = DIRECTION ( 'NONE',  ( -1.000000000000000000, 0.0000000000000000000, 7.153498870007452554E-15 ) ) ;
#253 = EDGE_LOOP ( 'NONE', ( #158 ) ) ;
#254 = FACE_OUTER_BOUND ( 'NONE', #123, .T. ) ;
#255 = APPROVAL ( #240, 'UNSPECIFIED' ) ;
#256 = AXIS2_PLACEMENT_3D ( 'NONE', #96, #13, #266 ) ;
#257 = CC_DESIGN_APPROVAL ( #255, ( #23 ) ) ;
#258 = APPROVAL_ROLE ( '' ) ;
#259 = PERSON_AND_ORGANIZATION_ROLE ( 'creator' ) ;
#260 = CARTESIAN_POINT ( 'NONE',  ( -5.446710888595289549E-13, 0.0000000000000000000, -78.00000000000001421 ) ) ;
#261 = FACE_OUTER_BOUND ( 'NONE', #72, .T. ) ;
#262 = DIRECTION ( 'NONE',  ( 1.000000000000000000, 0.0000000000000000000, -8.326672684688655121E-15 ) ) ;
#263 = SHAPE_DEFINITION_REPRESENTATION ( #196, #128 ) ;
#264 = CYLINDRICAL_SURFACE ( 'NONE', #112, 4.850000000000000533 ) ;
#265 = CARTESIAN_POINT ( 'NONE',  ( -2.915084339525265310E-13, 0.0000000000000000000, -41.74566690496975241 ) ) ;
#266 = DIRECTION ( 'NONE',  ( 1.000000000000000000, 0.0000000000000000000, -6.982962677686266711E-15 ) ) ;
#267 = ADVANCED_FACE ( 'NONE', ( #66, #114 ), #200, .F. ) ;
#268 = PRODUCT_DEFINITION_FORMATION_WITH_SPECIFIED_SOURCE ( 'ANY', '', #203, .NOT_KNOWN. ) ;
#269 = CIRCLE ( 'NONE', #106, 5.000000000000000000 ) ;
#270 = ORIENTED_EDGE ( 'NONE', *, *, #12, .T. ) ;
#271 = DIRECTION ( 'NONE',  ( 6.982962677686266711E-15, 0.0000000000000000000, 1.000000000000000000 ) ) ;
#272 = DIRECTION ( 'NONE',  ( 6.982962677686266711E-15, 0.0000000000000000000, 1.000000000000000000 ) ) ;
#273 = PLANE ( 'NONE',  #53 ) ;
#274 = EDGE_CURVE ( 'NONE', #187, #187, #104, .T. ) ;
#275 = PERSON_AND_ORGANIZATION ( #176, #82 ) ;
#276 = FACE_OUTER_BOUND ( 'NONE', #178, .T. ) ;
#277 = CARTESIAN_POINT ( 'NONE',  ( -4.800000000000732570, 0.0000000000000000000, -99.99999999999995737 ) ) ;
#278 = FACE_OUTER_BOUND ( 'NONE', #136, .T. ) ;
#279 = CARTESIAN_POINT ( 'NONE',  ( -7.239738372049466221E-13, 0.0000000000000000000, -100.0000000000000000 ) ) ;
#280 = AXIS2_PLACEMENT_3D ( 'NONE', #214, #232, #252 ) ;
#281 = ADVANCED_FACE ( 'NONE', ( #261, #250 ), #264, .T. ) ;
#282 = APPROVAL_PERSON_ORGANIZATION ( #145, #255, #33 ) ;
#283 = AXIS2_PLACEMENT_3D ( 'NONE', #231, #271, #67 ) ;
ENDSEC;
END-ISO-10303-21;
19831