ISO-10303-21;
HEADER;
FILE_DESCRIPTION (( 'STEP AP203' ),
    '1' );
FILE_NAME ('591.120.10.STEP',
    '2019-01-09T01:36:57',
    ( '' ),
    ( '' ),
    'SwSTEP 2.0',
    'SolidWorks 2019',
    '' );
FILE_SCHEMA (( 'CONFIG_CONTROL_DESIGN' ));
ENDSEC;

DATA;
#1 = SECURITY_CLASSIFICATION_LEVEL ( 'unclassified' ) ;
#2 = DIRECTION ( 'NONE',  ( -1.000000000000000000, 0.0000000000000000000, 6.982962677686266711E-15 ) ) ;
#3 = APPROVAL_DATE_TIME ( #268, #41 ) ;
#4 = LOCAL_TIME ( 2, 36, 57.00000000000000000, #7 ) ;
#5 = VERTEX_POINT ( 'NONE', #276 ) ;
#6 = UNCERTAINTY_MEASURE_WITH_UNIT (LENGTH_MEASURE( 1.000000000000000082E-05 ), #64, 'distance_accuracy_value', 'NONE');
#7 = COORDINATED_UNIVERSAL_TIME_OFFSET ( 1, 0, .AHEAD. ) ;
#8 = ADVANCED_BREP_SHAPE_REPRESENTATION ( '591.120.10', ( #159, #151, #23 ), #229 ) ;
#9 = CARTESIAN_POINT ( 'NONE',  ( 0.0000000000000000000, 0.0000000000000000000, 0.0000000000000000000 ) ) ;
#10 = EDGE_LOOP ( 'NONE', ( #161 ) ) ;
#11 = DIRECTION ( 'NONE',  ( 6.982962677686266711E-15, 0.0000000000000000000, 1.000000000000000000 ) ) ;
#12 = ORIENTED_EDGE ( 'NONE', *, *, #165, .T. ) ;
#13 = APPROVAL_DATE_TIME ( #248, #129 ) ;
#14 = LOCAL_TIME ( 2, 36, 57.00000000000000000, #98 ) ;
#15 = DIRECTION ( 'NONE',  ( 1.000000000000000000, 0.0000000000000000000, -6.982962677686266711E-15 ) ) ;
#16 = APPROVAL_ROLE ( '' ) ;
#17 = EDGE_LOOP ( 'NONE', ( #230 ) ) ;
#18 = ADVANCED_FACE ( 'NONE', ( #263, #270 ), #125, .T. ) ;
#19 = EDGE_CURVE ( 'NONE', #210, #210, #154, .T. ) ;
#20 = DIRECTION ( 'NONE',  ( -1.000000000000000000, 0.0000000000000000000, 6.938893903907198401E-15 ) ) ;
#21 = EDGE_LOOP ( 'NONE', ( #12 ) ) ;
#22 = FACE_OUTER_BOUND ( 'NONE', #221, .T. ) ;
#23 = AXIS2_PLACEMENT_3D ( 'NONE', #101, #32, #121 ) ;
#24 = EDGE_LOOP ( 'NONE', ( #201 ) ) ;
#25 = APPROVAL_DATE_TIME ( #43, #190 ) ;
#26 = EDGE_CURVE ( 'NONE', #5, #5, #33, .T. ) ;
#27 = PERSON_AND_ORGANIZATION_ROLE ( 'creator' ) ;
#28 = CC_DESIGN_SECURITY_CLASSIFICATION ( #275, ( #189 ) ) ;
#29 = EDGE_CURVE ( 'NONE', #75, #75, #103, .T. ) ;
#30 = DIRECTION ( 'NONE',  ( 1.000000000000000000, 0.0000000000000000000, -6.975926367753285093E-15 ) ) ;
#31 = DIRECTION ( 'NONE',  ( -6.982962677686266711E-15, 0.0000000000000000000, -1.000000000000000000 ) ) ;
#32 = DIRECTION ( 'NONE',  ( 0.0000000000000000000, 0.0000000000000000000, 1.000000000000000000 ) ) ;
#33 = CIRCLE ( 'NONE', #155, 5.900000000000000355 ) ;
#34 = FACE_OUTER_BOUND ( 'NONE', #271, .T. ) ;
#35 = PRODUCT_DEFINITION ( 'UNKNOWN', '', #189, #77 ) ;
#36 = DIRECTION ( 'NONE',  ( 1.000000000000000000, 0.0000000000000000000, -7.178166107490227548E-15 ) ) ;
#37 = CARTESIAN_POINT ( 'NONE',  ( -6.000000000000699885, 0.0000000000000000000, -92.79999999999995453 ) ) ;
#38 = DIRECTION ( 'NONE',  ( -7.697600383029449339E-15, 0.0000000000000000000, -1.000000000000000000 ) ) ;
#39 = VERTEX_POINT ( 'NONE', #137 ) ;
#40 = APPROVAL_STATUS ( 'not_yet_approved' ) ;
#41 = APPROVAL ( #212, 'UNSPECIFIED' ) ;
#42 = AXIS2_PLACEMENT_3D ( 'NONE', #200, #97, #71 ) ;
#43 = DATE_AND_TIME ( #79, #73 ) ;
#44 = EDGE_CURVE ( 'NONE', #184, #184, #203, .T. ) ;
#45 = TOROIDAL_SURFACE ( 'NONE', #223, 7.900000000000000355, 2.000000000000001776 ) ;
#46 = COORDINATED_UNIVERSAL_TIME_OFFSET ( 1, 0, .AHEAD. ) ;
#47 = FACE_OUTER_BOUND ( 'NONE', #152, .T. ) ;
#48 = DIRECTION ( 'NONE',  ( -1.000000000000000000, 0.0000000000000000000, 7.056502275159893199E-15 ) ) ;
#49 = PERSON_AND_ORGANIZATION ( #215, #206 ) ;
#50 = AXIS2_PLACEMENT_3D ( 'NONE', #54, #31, #272 ) ;
#51 = CARTESIAN_POINT ( 'NONE',  ( 0.0000000000000000000, 0.0000000000000000000, 0.0000000000000000000 ) ) ;
#52 = DIRECTION ( 'NONE',  ( -1.000000000000000000, 0.0000000000000000000, 6.982962677686266711E-15 ) ) ;
#53 = FACE_OUTER_BOUND ( 'NONE', #211, .T. ) ;
#54 = CARTESIAN_POINT ( 'NONE',  ( 0.0000000000000000000, 0.0000000000000000000, 0.0000000000000000000 ) ) ;
#55 = EDGE_LOOP ( 'NONE', ( #195 ) ) ;
#56 = CYLINDRICAL_SURFACE ( 'NONE', #194, 6.000000000000012434 ) ;
#57 = DIRECTION ( 'NONE',  ( -6.982962677686266711E-15, 0.0000000000000000000, -1.000000000000000000 ) ) ;
#58 = AXIS2_PLACEMENT_3D ( 'NONE', #51, #153, #213 ) ;
#59 = CARTESIAN_POINT ( 'NONE',  ( 5.999999999999614531, 0.0000000000000000000, -57.00000000000004974 ) ) ;
#60 = CARTESIAN_POINT ( 'NONE',  ( -6.750930984611427299E-13, 0.0000000000000000000, -93.00000000000000000 ) ) ;
#61 = CARTESIAN_POINT ( 'NONE',  ( -5.800000000000681055, 0.0000000000000000000, -92.99999999999995737 ) ) ;
#62 = CC_DESIGN_APPROVAL ( #190, ( #35 ) ) ;
#63 = CC_DESIGN_PERSON_AND_ORGANIZATION_ASSIGNMENT ( #95, #277, ( #279 ) ) ;
#64 =( LENGTH_UNIT ( ) NAMED_UNIT ( * ) SI_UNIT ( .MILLI., .METRE. ) );
#65 = ADVANCED_FACE ( 'NONE', ( #22, #183 ), #258, .T. ) ;
#66 = PERSON_AND_ORGANIZATION ( #215, #206 ) ;
#67 = DIRECTION ( 'NONE',  ( -6.982962677686266711E-15, 0.0000000000000000000, -1.000000000000000000 ) ) ;
#68 = ORIENTED_EDGE ( 'NONE', *, *, #76, .T. ) ;
#69 = AXIS2_PLACEMENT_3D ( 'NONE', #171, #235, #241 ) ;
#70 = EDGE_LOOP ( 'NONE', ( #176 ) ) ;
#71 = DIRECTION ( 'NONE',  ( -1.000000000000000000, 0.0000000000000000000, 7.056502275159893199E-15 ) ) ;
#72 = ORIENTED_EDGE ( 'NONE', *, *, #26, .T. ) ;
#73 = LOCAL_TIME ( 2, 36, 57.00000000000000000, #127 ) ;
#74 = DIRECTION ( 'NONE',  ( -7.697600383029449339E-15, 0.0000000000000000000, -1.000000000000000000 ) ) ;
#75 = VERTEX_POINT ( 'NONE', #59 ) ;
#76 = EDGE_CURVE ( 'NONE', #247, #247, #269, .T. ) ;
#77 = DESIGN_CONTEXT ( 'detailed design', #180, 'design' ) ;
#78 = ORIENTED_EDGE ( 'NONE', *, *, #115, .F. ) ;
#79 = CALENDAR_DATE ( 2019, 9, 1 ) ;
#80 = ADVANCED_FACE ( 'NONE', ( #168 ), #128, .F. ) ;
#81 = ORIENTED_EDGE ( 'NONE', *, *, #19, .F. ) ;
#82 =( NAMED_UNIT ( * ) SI_UNIT ( $, .STERADIAN. ) SOLID_ANGLE_UNIT ( ) );
#83 = DIRECTION ( 'NONE',  ( -6.982962677686266711E-15, -0.0000000000000000000, -1.000000000000000000 ) ) ;
#84 = DIRECTION ( 'NONE',  ( 1.000000000000000000, 0.0000000000000000000, -6.982962677686266711E-15 ) ) ;
#85 = DATE_TIME_ROLE ( 'creation_date' ) ;
#86 = AXIS2_PLACEMENT_3D ( 'NONE', #149, #196, #133 ) ;
#87 = CC_DESIGN_DATE_AND_TIME_ASSIGNMENT ( #256, #85, ( #35 ) ) ;
#88 = COORDINATED_UNIVERSAL_TIME_OFFSET ( 1, 0, .AHEAD. ) ;
#89 = CARTESIAN_POINT ( 'NONE',  ( -3.370208574830947608E-13, 0.0000000000000000000, -48.26330499517479922 ) ) ;
#90 = CALENDAR_DATE ( 2019, 9, 1 ) ;
#91 = CC_DESIGN_PERSON_AND_ORGANIZATION_ASSIGNMENT ( #49, #27, ( #189 ) ) ;
#92 = LOCAL_TIME ( 2, 36, 57.00000000000000000, #88 ) ;
#93 = FACE_OUTER_BOUND ( 'NONE', #246, .T. ) ;
#94 = CALENDAR_DATE ( 2019, 9, 1 ) ;
#95 = PERSON_AND_ORGANIZATION ( #215, #206 ) ;
#96 = ORIENTED_EDGE ( 'NONE', *, *, #26, .F. ) ;
#97 = DIRECTION ( 'NONE',  ( -6.982962677686266711E-15, 0.0000000000000000000, -1.000000000000000000 ) ) ;
#98 = COORDINATED_UNIVERSAL_TIME_OFFSET ( 1, 0, .AHEAD. ) ;
#99 = CARTESIAN_POINT ( 'NONE',  ( -5.968148347422196132, 0.0000000000000000000, -47.74566690496970978 ) ) ;
#100 = DATE_TIME_ROLE ( 'classification_date' ) ;
#101 = CARTESIAN_POINT ( 'NONE',  ( 0.0000000000000000000, 0.0000000000000000000, 0.0000000000000000000 ) ) ;
#102 = CIRCLE ( 'NONE', #160, 5.968148347421863065 ) ;
#103 = CIRCLE ( 'NONE', #118, 6.000000000000012434 ) ;
#104 = PLANE ( 'NONE',  #126 ) ;
#105 = CLOSED_SHELL ( 'NONE', ( #181, #18, #175, #240, #226, #187, #112 ) ) ;
#106 = APPLICATION_PROTOCOL_DEFINITION ( 'international standard', 'config_control_design', 1994, #180 ) ;
#107 = FACE_OUTER_BOUND ( 'NONE', #231, .T. ) ;
#108 = FACE_OUTER_BOUND ( 'NONE', #139, .T. ) ;
#109 = AXIS2_PLACEMENT_3D ( 'NONE', #207, #111, #191 ) ;
#110 = PERSON_AND_ORGANIZATION_ROLE ( 'design_supplier' ) ;
#111 = DIRECTION ( 'NONE',  ( 6.982962677686266711E-15, 0.0000000000000000000, 1.000000000000000000 ) ) ;
#112 = ADVANCED_FACE ( 'NONE', ( #107 ), #143, .T. ) ;
#113 = FACE_OUTER_BOUND ( 'NONE', #70, .T. ) ;
#114 = CARTESIAN_POINT ( 'NONE',  ( -3.980288726281172277E-13, 0.0000000000000000000, -57.00000000000000000 ) ) ;
#115 = EDGE_CURVE ( 'NONE', #199, #199, #102, .T. ) ;
#116 = DIRECTION ( 'NONE',  ( 6.982962677686266711E-15, 0.0000000000000000000, 1.000000000000000000 ) ) ;
#117 = CARTESIAN_POINT ( 'NONE',  ( -8.379555213223567384E-15, 0.0000000000000000000, -1.200000000000006617 ) ) ;
#118 = AXIS2_PLACEMENT_3D ( 'NONE', #124, #83, #182 ) ;
#119 = DATE_AND_TIME ( #164, #92 ) ;
#120 = VERTEX_POINT ( 'NONE', #202 ) ;
#121 = DIRECTION ( 'NONE',  ( 1.000000000000000000, 0.0000000000000000000, 0.0000000000000000000 ) ) ;
#122 = AXIS2_PLACEMENT_3D ( 'NONE', #255, #228, #148 ) ;
#123 = CARTESIAN_POINT ( 'NONE',  ( -6.735535783845368416E-13, 0.0000000000000000000, -92.79999999999999716 ) ) ;
#124 = CARTESIAN_POINT ( 'NONE',  ( -3.980288726281172782E-13, 0.0000000000000000000, -57.00000000000000711 ) ) ;
#125 = CONICAL_SURFACE ( 'NONE', #50, 4.799999999999996270, 0.7853981633974472798 ) ;
#126 = AXIS2_PLACEMENT_3D ( 'NONE', #185, #280, #84 ) ;
#127 = COORDINATED_UNIVERSAL_TIME_OFFSET ( 1, 0, .AHEAD. ) ;
#128 = PLANE ( 'NONE',  #122 ) ;
#129 = APPROVAL ( #40, 'UNSPECIFIED' ) ;
#130 = AXIS2_PLACEMENT_3D ( 'NONE', #9, #132, #15 ) ;
#131 = EDGE_CURVE ( 'NONE', #244, #244, #198, .T. ) ;
#132 = DIRECTION ( 'NONE',  ( 6.982962677686266711E-15, 0.0000000000000000000, 1.000000000000000000 ) ) ;
#133 = DIRECTION ( 'NONE',  ( 1.000000000000000000, 0.0000000000000000000, -6.982962677686266711E-15 ) ) ;
#134 = EDGE_LOOP ( 'NONE', ( #78 ) ) ;
#135 = ADVANCED_FACE ( 'NONE', ( #222 ), #104, .T. ) ;
#136 = ORIENTED_EDGE ( 'NONE', *, *, #131, .F. ) ;
#137 = CARTESIAN_POINT ( 'NONE',  ( 5.999999999999680256, 0.0000000000000000000, -47.62679491924311037 ) ) ;
#138 = CC_DESIGN_PERSON_AND_ORGANIZATION_ASSIGNMENT ( #261, #110, ( #189 ) ) ;
#139 = EDGE_LOOP ( 'NONE', ( #136 ) ) ;
#140 = DIRECTION ( 'NONE',  ( 7.697600383029449339E-15, 0.0000000000000000000, 1.000000000000000000 ) ) ;
#141 = CC_DESIGN_APPROVAL ( #129, ( #275 ) ) ;
#142 = EDGE_LOOP ( 'NONE', ( #68 ) ) ;
#143 = PLANE ( 'NONE',  #163 ) ;
#144 = APPROVAL_ROLE ( '' ) ;
#145 = FACE_OUTER_BOUND ( 'NONE', #21, .T. ) ;
#146 =( NAMED_UNIT ( * ) PLANE_ANGLE_UNIT ( ) SI_UNIT ( $, .RADIAN. ) );
#147 = CONICAL_SURFACE ( 'NONE', #186, 5.968148347421863065, 0.2617993877991502960 ) ;
#148 = DIRECTION ( 'NONE',  ( 1.000000000000000000, 0.0000000000000000000, -7.235512540465463672E-15 ) ) ;
#149 = CARTESIAN_POINT ( 'NONE',  ( -1.509694037878245577E-30, 0.0000000000000000000, -2.161967788690039381E-16 ) ) ;
#150 = PERSON_AND_ORGANIZATION_ROLE ( 'classification_officer' ) ;
#151 = MANIFOLD_SOLID_BREP ( 'Körper in Z minus drehen[2]', #105 ) ;
#152 = EDGE_LOOP ( 'NONE', ( #96 ) ) ;
#153 = DIRECTION ( 'NONE',  ( -6.982962677686266711E-15, 0.0000000000000000000, -1.000000000000000000 ) ) ;
#154 = CIRCLE ( 'NONE', #42, 5.900000000000000355 ) ;
#155 = AXIS2_PLACEMENT_3D ( 'NONE', #220, #236, #48 ) ;
#156 = ORIENTED_EDGE ( 'NONE', *, *, #232, .T. ) ;
#157 = FACE_OUTER_BOUND ( 'NONE', #55, .T. ) ;
#158 = CC_DESIGN_DATE_AND_TIME_ASSIGNMENT ( #119, #100, ( #275 ) ) ;
#159 = MANIFOLD_SOLID_BREP ( 'Körper in Z minus drehen[1]', #237 ) ;
#160 = AXIS2_PLACEMENT_3D ( 'NONE', #217, #67, #177 ) ;
#161 = ORIENTED_EDGE ( 'NONE', *, *, #29, .F. ) ;
#162 = PERSON_AND_ORGANIZATION ( #215, #206 ) ;
#163 = AXIS2_PLACEMENT_3D ( 'NONE', #114, #57, #52 ) ;
#164 = CALENDAR_DATE ( 2019, 9, 1 ) ;
#165 = EDGE_CURVE ( 'NONE', #39, #39, #214, .T. ) ;
#166 = APPLICATION_CONTEXT ( 'configuration controlled 3d designs of mechanical parts and assemblies' ) ;
#167 = APPROVAL_PERSON_ORGANIZATION ( #224, #190, #144 ) ;
#168 = FACE_OUTER_BOUND ( 'NONE', #142, .T. ) ;
#169 = DIRECTION ( 'NONE',  ( -1.000000000000000000, 0.0000000000000000000, 7.178166107490227548E-15 ) ) ;
#170 = DIRECTION ( 'NONE',  ( 6.982962677686266711E-15, 0.0000000000000000000, 1.000000000000000000 ) ) ;
#171 = CARTESIAN_POINT ( 'NONE',  ( -6.494155290248227788E-13, 0.0000000000000000000, -93.00000000000000000 ) ) ;
#172 = DIRECTION ( 'NONE',  ( 1.000000000000000000, 0.0000000000000000000, -6.975033976323412122E-15 ) ) ;
#173 = APPROVAL_PERSON_ORGANIZATION ( #283, #41, #209 ) ;
#174 = FACE_OUTER_BOUND ( 'NONE', #260, .T. ) ;
#175 = ADVANCED_FACE ( 'NONE', ( #108, #145 ), #227, .T. ) ;
#176 = ORIENTED_EDGE ( 'NONE', *, *, #115, .T. ) ;
#177 = DIRECTION ( 'NONE',  ( -1.000000000000000000, 0.0000000000000000000, 6.975926367753285093E-15 ) ) ;
#178 = SHAPE_DEFINITION_REPRESENTATION ( #254, #8 ) ;
#179 = CARTESIAN_POINT ( 'NONE',  ( -6.750930984611427299E-13, 0.0000000000000000000, -93.00000000000000000 ) ) ;
#180 = APPLICATION_CONTEXT ( 'configuration controlled 3d designs of mechanical parts and assemblies' ) ;
#181 = ADVANCED_FACE ( 'NONE', ( #93 ), #219, .T. ) ;
#182 = DIRECTION ( 'NONE',  ( 1.000000000000000000, 0.0000000000000000000, -6.938893903907214178E-15 ) ) ;
#183 = FACE_BOUND ( 'NONE', #24, .T. ) ;
#184 = VERTEX_POINT ( 'NONE', #37 ) ;
#185 = CARTESIAN_POINT ( 'NONE',  ( 5.999999999999594102, 0.0000000000000000000, -57.00000000000004974 ) ) ;
#186 = AXIS2_PLACEMENT_3D ( 'NONE', #216, #116, #30 ) ;
#187 = ADVANCED_FACE ( 'NONE', ( #267, #47 ), #262, .T. ) ;
#188 = PERSON_AND_ORGANIZATION_ROLE ( 'creator' ) ;
#189 = PRODUCT_DEFINITION_FORMATION_WITH_SPECIFIED_SOURCE ( 'ANY', '', #279, .NOT_KNOWN. ) ;
#190 = APPROVAL ( #281, 'UNSPECIFIED' ) ;
#191 = DIRECTION ( 'NONE',  ( 1.000000000000000000, 0.0000000000000000000, -6.938893903907214178E-15 ) ) ;
#192 = CARTESIAN_POINT ( 'NONE',  ( -6.494155290248227788E-13, 0.0000000000000000000, -93.00000000000000000 ) ) ;
#193 = CARTESIAN_POINT ( 'NONE',  ( -5.900000000000337863, 0.0000000000000000000, -48.26330499517474948 ) ) ;
#194 = AXIS2_PLACEMENT_3D ( 'NONE', #192, #170, #233 ) ;
#195 = ORIENTED_EDGE ( 'NONE', *, *, #29, .T. ) ;
#196 = DIRECTION ( 'NONE',  ( 6.982962677686266711E-15, 0.0000000000000000000, 1.000000000000000000 ) ) ;
#197 = CC_DESIGN_PERSON_AND_ORGANIZATION_ASSIGNMENT ( #162, #188, ( #35 ) ) ;
#198 = CIRCLE ( 'NONE', #278, 6.000000000000000000 ) ;
#199 = VERTEX_POINT ( 'NONE', #99 ) ;
#200 = CARTESIAN_POINT ( 'NONE',  ( -3.370208574830947103E-13, 0.0000000000000000000, -48.26330499517479211 ) ) ;
#201 = ORIENTED_EDGE ( 'NONE', *, *, #76, .F. ) ;
#202 = CARTESIAN_POINT ( 'NONE',  ( 4.799999999999996270, 0.0000000000000000000, -3.351822085289405497E-14 ) ) ;
#203 = CIRCLE ( 'NONE', #251, 6.000000000000025757 ) ;
#204 = ORIENTED_EDGE ( 'NONE', *, *, #131, .T. ) ;
#205 = CC_DESIGN_PERSON_AND_ORGANIZATION_ASSIGNMENT ( #66, #150, ( #275 ) ) ;
#206 = ORGANIZATION ( 'UNSPECIFIED', 'UNSPECIFIED', '' ) ;
#207 = CARTESIAN_POINT ( 'NONE',  ( -3.325761313788922694E-13, 0.0000000000000000000, -47.62679491924306774 ) ) ;
#208 = CC_DESIGN_APPROVAL ( #41, ( #189 ) ) ;
#209 = APPROVAL_ROLE ( '' ) ;
#210 = VERTEX_POINT ( 'NONE', #193 ) ;
#211 = EDGE_LOOP ( 'NONE', ( #81 ) ) ;
#212 = APPROVAL_STATUS ( 'not_yet_approved' ) ;
#213 = DIRECTION ( 'NONE',  ( -1.000000000000000000, 0.0000000000000000000, 6.982962677686265922E-15 ) ) ;
#214 = CIRCLE ( 'NONE', #109, 6.000000000000012434 ) ;
#215 = PERSON ( 'UNSPECIFIED', 'UNSPECIFIED', 'UNSPECIFIED', ('UNSPECIFIED'), ('UNSPECIFIED'), ('UNSPECIFIED') ) ;
#216 = CARTESIAN_POINT ( 'NONE',  ( -3.334062100186441313E-13, 0.0000000000000000000, -47.74566690496975241 ) ) ;
#217 = CARTESIAN_POINT ( 'NONE',  ( -3.334062100186441313E-13, 0.0000000000000000000, -47.74566690496975241 ) ) ;
#218 = ORIENTED_EDGE ( 'NONE', *, *, #19, .T. ) ;
#219 = PLANE ( 'NONE',  #86 ) ;
#220 = CARTESIAN_POINT ( 'NONE',  ( -3.980288726281172782E-13, 0.0000000000000000000, -57.00000000000000711 ) ) ;
#221 = EDGE_LOOP ( 'NONE', ( #234 ) ) ;
#222 = FACE_OUTER_BOUND ( 'NONE', #10, .T. ) ;
#223 = AXIS2_PLACEMENT_3D ( 'NONE', #89, #239, #2 ) ;
#224 = PERSON_AND_ORGANIZATION ( #215, #206 ) ;
#225 = AXIS2_PLACEMENT_3D ( 'NONE', #179, #140, #36 ) ;
#226 = ADVANCED_FACE ( 'NONE', ( #113, #53 ), #45, .F. ) ;
#227 = CYLINDRICAL_SURFACE ( 'NONE', #69, 6.000000000000012434 ) ;
#228 = DIRECTION ( 'NONE',  ( 7.235512540465463672E-15, -0.0000000000000000000, 1.000000000000000000 ) ) ;
#229 =( GEOMETRIC_REPRESENTATION_CONTEXT ( 3 ) GLOBAL_UNCERTAINTY_ASSIGNED_CONTEXT ( ( #6 ) ) GLOBAL_UNIT_ASSIGNED_CONTEXT ( ( #64, #146, #82 ) ) REPRESENTATION_CONTEXT ( 'NONE', 'WORKASPACE' ) );
#230 = ORIENTED_EDGE ( 'NONE', *, *, #232, .F. ) ;
#231 = EDGE_LOOP ( 'NONE', ( #72 ) ) ;
#232 = EDGE_CURVE ( 'NONE', #120, #120, #250, .T. ) ;
#233 = DIRECTION ( 'NONE',  ( 1.000000000000000000, 0.0000000000000000000, -6.938893903907214178E-15 ) ) ;
#234 = ORIENTED_EDGE ( 'NONE', *, *, #44, .T. ) ;
#235 = DIRECTION ( 'NONE',  ( 6.982962677686266711E-15, 0.0000000000000000000, 1.000000000000000000 ) ) ;
#236 = DIRECTION ( 'NONE',  ( -6.982962677686266711E-15, 0.0000000000000000000, -1.000000000000000000 ) ) ;
#237 = CLOSED_SHELL ( 'NONE', ( #80, #65, #252, #135 ) ) ;
#238 = AXIS2_PLACEMENT_3D ( 'NONE', #60, #38, #169 ) ;
#239 = DIRECTION ( 'NONE',  ( -6.982962677686266711E-15, 0.0000000000000000000, -1.000000000000000000 ) ) ;
#240 = ADVANCED_FACE ( 'NONE', ( #34, #259 ), #147, .T. ) ;
#241 = DIRECTION ( 'NONE',  ( 1.000000000000000000, 0.0000000000000000000, -6.938893903907214178E-15 ) ) ;
#242 = PERSON_AND_ORGANIZATION ( #215, #206 ) ;
#243 = LOCAL_TIME ( 2, 36, 57.00000000000000000, #46 ) ;
#244 = VERTEX_POINT ( 'NONE', #274 ) ;
#245 = APPROVAL_PERSON_ORGANIZATION ( #242, #129, #16 ) ;
#246 = EDGE_LOOP ( 'NONE', ( #156 ) ) ;
#247 = VERTEX_POINT ( 'NONE', #61 ) ;
#248 = DATE_AND_TIME ( #94, #14 ) ;
#249 = EDGE_LOOP ( 'NONE', ( #218 ) ) ;
#250 = CIRCLE ( 'NONE', #130, 4.799999999999996270 ) ;
#251 = AXIS2_PLACEMENT_3D ( 'NONE', #123, #74, #20 ) ;
#252 = ADVANCED_FACE ( 'NONE', ( #174, #157 ), #56, .T. ) ;
#253 = ORIENTED_EDGE ( 'NONE', *, *, #44, .F. ) ;
#254 = PRODUCT_DEFINITION_SHAPE ( 'NONE', 'NONE',  #35 ) ;
#255 = CARTESIAN_POINT ( 'NONE',  ( -6.750930984611427299E-13, 0.0000000000000000000, -93.00000000000000000 ) ) ;
#256 = DATE_AND_TIME ( #264, #243 ) ;
#257 = PRODUCT_RELATED_PRODUCT_CATEGORY ( 'detail', '', ( #279 ) ) ;
#258 = CONICAL_SURFACE ( 'NONE', #225, 5.800000000000006928, 0.7853981633974808085 ) ;
#259 = FACE_BOUND ( 'NONE', #134, .T. ) ;
#260 = EDGE_LOOP ( 'NONE', ( #253 ) ) ;
#261 = PERSON_AND_ORGANIZATION ( #215, #206 ) ;
#262 = CYLINDRICAL_SURFACE ( 'NONE', #58, 5.900000000000000355 ) ;
#263 = FACE_OUTER_BOUND ( 'NONE', #282, .T. ) ;
#264 = CALENDAR_DATE ( 2019, 9, 1 ) ;
#265 = APPLICATION_PROTOCOL_DEFINITION ( 'international standard', 'config_control_design', 1994, #166 ) ;
#266 = ORIENTED_EDGE ( 'NONE', *, *, #165, .F. ) ;
#267 = FACE_OUTER_BOUND ( 'NONE', #249, .T. ) ;
#268 = DATE_AND_TIME ( #90, #4 ) ;
#269 = CIRCLE ( 'NONE', #238, 5.800000000000006928 ) ;
#270 = FACE_BOUND ( 'NONE', #17, .T. ) ;
#271 = EDGE_LOOP ( 'NONE', ( #266 ) ) ;
#272 = DIRECTION ( 'NONE',  ( -1.000000000000000000, 0.0000000000000000000, 6.982962677686266711E-15 ) ) ;
#273 = MECHANICAL_CONTEXT ( 'NONE', #166, 'mechanical' ) ;
#274 = CARTESIAN_POINT ( 'NONE',  ( 5.999999999999991118, 0.0000000000000000000, -1.200000000000048361 ) ) ;
#275 = SECURITY_CLASSIFICATION ( '', '', #1 ) ;
#276 = CARTESIAN_POINT ( 'NONE',  ( -5.900000000000399147, 0.0000000000000000000, -56.99999999999996447 ) ) ;
#277 = PERSON_AND_ORGANIZATION_ROLE ( 'design_owner' ) ;
#278 = AXIS2_PLACEMENT_3D ( 'NONE', #117, #11, #172 ) ;
#279 = PRODUCT ( '591.120.10', '591.120.10', '', ( #273 ) ) ;
#280 = DIRECTION ( 'NONE',  ( 6.982962677686266711E-15, 0.0000000000000000000, 1.000000000000000000 ) ) ;
#281 = APPROVAL_STATUS ( 'not_yet_approved' ) ;
#282 = EDGE_LOOP ( 'NONE', ( #204 ) ) ;
#283 = PERSON_AND_ORGANIZATION ( #215, #206 ) ;
ENDSEC;
END-ISO-10303-21;
19846