ISO-10303-21;
HEADER;
FILE_DESCRIPTION (( 'STEP AP203' ),
    '1' );
FILE_NAME ('591.100.10.STEP',
    '2019-01-09T01:36:54',
    ( '' ),
    ( '' ),
    'SwSTEP 2.0',
    'SolidWorks 2019',
    '' );
FILE_SCHEMA (( 'CONFIG_CONTROL_DESIGN' ));
ENDSEC;

DATA;
#1 = EDGE_CURVE ( 'NONE', #156, #156, #52, .T. ) ;
#2 = DIRECTION ( 'NONE',  ( -6.982962677686266711E-15, 0.0000000000000000000, -1.000000000000000000 ) ) ;
#3 = PRODUCT ( '591.100.10', '591.100.10', '', ( #51 ) ) ;
#4 = AXIS2_PLACEMENT_3D ( 'NONE', #77, #116, #11 ) ;
#5 = CARTESIAN_POINT ( 'NONE',  ( 4.999999999999643840, 0.0000000000000000000, -50.00000000000002842 ) ) ;
#6 = CARTESIAN_POINT ( 'NONE',  ( -3.124573219855853564E-13, 0.0000000000000000000, -44.74566690496975241 ) ) ;
#7 = PRODUCT_DEFINITION_SHAPE ( 'NONE', 'NONE',  #38 ) ;
#8 = DATE_AND_TIME ( #192, #61 ) ;
#9 = PERSON_AND_ORGANIZATION ( #240, #99 ) ;
#10 = CARTESIAN_POINT ( 'NONE',  ( 4.999999999999992895, 0.0000000000000000000, -1.000000000000035749 ) ) ;
#11 = DIRECTION ( 'NONE',  ( -1.000000000000000000, 0.0000000000000000000, 6.982962677686266711E-15 ) ) ;
#12 = VERTEX_POINT ( 'NONE', #10 ) ;
#13 = FACE_OUTER_BOUND ( 'NONE', #232, .T. ) ;
#14 = ORIENTED_EDGE ( 'NONE', *, *, #142, .F. ) ;
#15 = CALENDAR_DATE ( 2019, 9, 1 ) ;
#16 = AXIS2_PLACEMENT_3D ( 'NONE', #150, #267, #112 ) ;
#17 = ORIENTED_EDGE ( 'NONE', *, *, #139, .T. ) ;
#18 = DIRECTION ( 'NONE',  ( 6.982962677686266711E-15, 0.0000000000000000000, 1.000000000000000000 ) ) ;
#19 = CARTESIAN_POINT ( 'NONE',  ( -3.491481338843132346E-13, 0.0000000000000000000, -49.99999999999998579 ) ) ;
#20 = CONICAL_SURFACE ( 'NONE', #4, 3.999999999999996447, 0.7853981633974496113 ) ;
#21 = ORIENTED_EDGE ( 'NONE', *, *, #204, .F. ) ;
#22 = ORIENTED_EDGE ( 'NONE', *, *, #129, .T. ) ;
#23 = CIRCLE ( 'NONE', #119, 4.968148347421863065 ) ;
#24 = AXIS2_PLACEMENT_3D ( 'NONE', #155, #268, #216 ) ;
#25 = DIRECTION ( 'NONE',  ( -1.000000000000000000, 0.0000000000000000000, 8.326672684688631455E-15 ) ) ;
#26 = PERSON_AND_ORGANIZATION ( #240, #99 ) ;
#27 = EDGE_CURVE ( 'NONE', #123, #123, #92, .T. ) ;
#28 = PLANE ( 'NONE',  #16 ) ;
#29 = APPROVAL_STATUS ( 'not_yet_approved' ) ;
#30 = AXIS2_PLACEMENT_3D ( 'NONE', #238, #239, #182 ) ;
#31 = CC_DESIGN_APPROVAL ( #197, ( #138 ) ) ;
#32 = FACE_OUTER_BOUND ( 'NONE', #80, .T. ) ;
#33 = APPROVAL_ROLE ( '' ) ;
#34 =( NAMED_UNIT ( * ) SI_UNIT ( $, .STERADIAN. ) SOLID_ANGLE_UNIT ( ) );
#35 = AXIS2_PLACEMENT_3D ( 'NONE', #60, #154, #198 ) ;
#36 = APPROVAL_PERSON_ORGANIZATION ( #165, #137, #47 ) ;
#37 = DIRECTION ( 'NONE',  ( 0.0000000000000000000, 0.0000000000000000000, 1.000000000000000000 ) ) ;
#38 = PRODUCT_DEFINITION ( 'UNKNOWN', '', #275, #87 ) ;
#39 = LOCAL_TIME ( 2, 36, 54.00000000000000000, #186 ) ;
#40 = ORIENTED_EDGE ( 'NONE', *, *, #139, .F. ) ;
#41 = APPLICATION_CONTEXT ( 'configuration controlled 3d designs of mechanical parts and assemblies' ) ;
#42 = DIRECTION ( 'NONE',  ( 1.000000000000000000, 0.0000000000000000000, -6.983380344820068151E-15 ) ) ;
#43 = LOCAL_TIME ( 2, 36, 54.00000000000000000, #97 ) ;
#44 = VERTEX_POINT ( 'NONE', #257 ) ;
#45 = CARTESIAN_POINT ( 'NONE',  ( -3.116272433458334440E-13, 0.0000000000000000000, -44.62679491924306063 ) ) ;
#46 = VERTEX_POINT ( 'NONE', #126 ) ;
#47 = APPROVAL_ROLE ( '' ) ;
#48 = AXIS2_PLACEMENT_3D ( 'NONE', #191, #164, #283 ) ;
#49 = DIRECTION ( 'NONE',  ( -1.000000000000000000, 0.0000000000000000000, 6.983380344820068151E-15 ) ) ;
#50 = DIRECTION ( 'NONE',  ( -7.840527924098085864E-15, 0.0000000000000000000, -1.000000000000000000 ) ) ;
#51 = MECHANICAL_CONTEXT ( 'NONE', #41, 'mechanical' ) ;
#52 = CIRCLE ( 'NONE', #274, 4.900000000000000355 ) ;
#53 = FACE_OUTER_BOUND ( 'NONE', #160, .T. ) ;
#54 = FACE_OUTER_BOUND ( 'NONE', #222, .T. ) ;
#55 = DATE_TIME_ROLE ( 'classification_date' ) ;
#56 = VERTEX_POINT ( 'NONE', #153 ) ;
#57 = AXIS2_PLACEMENT_3D ( 'NONE', #45, #173, #83 ) ;
#58 = FACE_BOUND ( 'NONE', #63, .T. ) ;
#59 = SECURITY_CLASSIFICATION_LEVEL ( 'unclassified' ) ;
#60 = CARTESIAN_POINT ( 'NONE',  ( -3.160719694500359859E-13, 0.0000000000000000000, -45.26330499517479211 ) ) ;
#61 = LOCAL_TIME ( 2, 36, 54.00000000000000000, #110 ) ;
#62 = CARTESIAN_POINT ( 'NONE',  ( -1.514188661106529085E-30, 0.0000000000000000000, -2.168404344971008868E-16 ) ) ;
#63 = EDGE_LOOP ( 'NONE', ( #40 ) ) ;
#64 = FACE_OUTER_BOUND ( 'NONE', #115, .T. ) ;
#65 = ORIENTED_EDGE ( 'NONE', *, *, #91, .F. ) ;
#66 = ADVANCED_FACE ( 'NONE', ( #158 ), #28, .T. ) ;
#67 = ORIENTED_EDGE ( 'NONE', *, *, #91, .T. ) ;
#68 = PERSON_AND_ORGANIZATION ( #240, #99 ) ;
#69 = DIRECTION ( 'NONE',  ( -7.840527924098085864E-15, 0.0000000000000000000, -1.000000000000000000 ) ) ;
#70 = CC_DESIGN_DATE_AND_TIME_ASSIGNMENT ( #265, #166, ( #38 ) ) ;
#71 = TOROIDAL_SURFACE ( 'NONE', #35, 6.900000000000001243, 2.000000000000000888 ) ;
#72 = AXIS2_PLACEMENT_3D ( 'NONE', #62, #221, #279 ) ;
#73 = VERTEX_POINT ( 'NONE', #132 ) ;
#74 = FACE_OUTER_BOUND ( 'NONE', #203, .T. ) ;
#75 = PERSON_AND_ORGANIZATION ( #240, #99 ) ;
#76 = DIRECTION ( 'NONE',  ( -1.000000000000000000, 0.0000000000000000000, 8.673617379884021273E-15 ) ) ;
#77 = CARTESIAN_POINT ( 'NONE',  ( 0.0000000000000000000, 0.0000000000000000000, 0.0000000000000000000 ) ) ;
#78 = PERSON_AND_ORGANIZATION ( #240, #99 ) ;
#79 = DIRECTION ( 'NONE',  ( 7.840527924098085864E-15, 0.0000000000000000000, 1.000000000000000000 ) ) ;
#80 = EDGE_LOOP ( 'NONE', ( #231 ) ) ;
#81 = AXIS2_PLACEMENT_3D ( 'NONE', #273, #18, #42 ) ;
#82 = PLANE ( 'NONE',  #72 ) ;
#83 = DIRECTION ( 'NONE',  ( 1.000000000000000000, 0.0000000000000000000, -6.938893903907207078E-15 ) ) ;
#84 = ORIENTED_EDGE ( 'NONE', *, *, #204, .T. ) ;
#85 = CONICAL_SURFACE ( 'NONE', #81, 4.968148347421863065, 0.2617993877991500740 ) ;
#86 = FACE_OUTER_BOUND ( 'NONE', #280, .T. ) ;
#87 = DESIGN_CONTEXT ( 'detailed design', #225, 'design' ) ;
#88 = EDGE_LOOP ( 'NONE', ( #175 ) ) ;
#89 = DIRECTION ( 'NONE',  ( 1.000000000000000000, 0.0000000000000000000, -6.982962677686266711E-15 ) ) ;
#90 = PLANE ( 'NONE',  #227 ) ;
#91 = EDGE_CURVE ( 'NONE', #73, #73, #217, .T. ) ;
#92 = CIRCLE ( 'NONE', #57, 5.000000000000015099 ) ;
#93 = CYLINDRICAL_SURFACE ( 'NONE', #30, 5.000000000000015099 ) ;
#94 = CALENDAR_DATE ( 2019, 9, 1 ) ;
#95 = APPROVAL_STATUS ( 'not_yet_approved' ) ;
#96 = APPROVAL ( #29, 'UNSPECIFIED' ) ;
#97 = COORDINATED_UNIVERSAL_TIME_OFFSET ( 1, 0, .AHEAD. ) ;
#98 = CIRCLE ( 'NONE', #24, 4.900000000000000355 ) ;
#99 = ORGANIZATION ( 'UNSPECIFIED', 'UNSPECIFIED', '' ) ;
#100 = DATE_AND_TIME ( #15, #43 ) ;
#101 = DIRECTION ( 'NONE',  ( -6.982962677686266711E-15, 0.0000000000000000000, -1.000000000000000000 ) ) ;
#102 = ADVANCED_FACE ( 'NONE', ( #183, #53 ), #234, .T. ) ;
#103 = DIRECTION ( 'NONE',  ( -6.982962677686266711E-15, 0.0000000000000000000, -1.000000000000000000 ) ) ;
#104 = CARTESIAN_POINT ( 'NONE',  ( -5.843145836512212879E-13, 0.0000000000000000000, -80.00000000000000000 ) ) ;
#105 = ADVANCED_FACE ( 'NONE', ( #74 ), #90, .T. ) ;
#106 = AXIS2_PLACEMENT_3D ( 'NONE', #185, #50, #76 ) ;
#107 = DATE_AND_TIME ( #94, #263 ) ;
#108 = DIRECTION ( 'NONE',  ( 6.982962677686266711E-15, 0.0000000000000000000, 1.000000000000000000 ) ) ;
#109 = APPLICATION_PROTOCOL_DEFINITION ( 'international standard', 'config_control_design', 1994, #225 ) ;
#110 = COORDINATED_UNIVERSAL_TIME_OFFSET ( 1, 0, .AHEAD. ) ;
#111 = ADVANCED_FACE ( 'NONE', ( #32, #243 ), #93, .T. ) ;
#112 = DIRECTION ( 'NONE',  ( -1.000000000000000000, 0.0000000000000000000, 6.982962677686266711E-15 ) ) ;
#113 = FACE_OUTER_BOUND ( 'NONE', #248, .T. ) ;
#114 = DATE_AND_TIME ( #246, #202 ) ;
#115 = EDGE_LOOP ( 'NONE', ( #159 ) ) ;
#116 = DIRECTION ( 'NONE',  ( -6.982962677686266711E-15, 0.0000000000000000000, -1.000000000000000000 ) ) ;
#117 = EDGE_LOOP ( 'NONE', ( #17 ) ) ;
#118 = APPROVAL_PERSON_ORGANIZATION ( #125, #96, #33 ) ;
#119 = AXIS2_PLACEMENT_3D ( 'NONE', #6, #2, #49 ) ;
#120 = APPROVAL_PERSON_ORGANIZATION ( #9, #197, #219 ) ;
#121 = CYLINDRICAL_SURFACE ( 'NONE', #237, 4.900000000000000355 ) ;
#122 = EDGE_LOOP ( 'NONE', ( #146 ) ) ;
#123 = VERTEX_POINT ( 'NONE', #209 ) ;
#124 = EDGE_LOOP ( 'NONE', ( #22 ) ) ;
#125 = PERSON_AND_ORGANIZATION ( #240, #99 ) ;
#126 = CARTESIAN_POINT ( 'NONE',  ( -4.800000000000593126, 0.0000000000000000000, -79.99999999999995737 ) ) ;
#127 = DIRECTION ( 'NONE',  ( 6.982962677686266711E-15, 0.0000000000000000000, 1.000000000000000000 ) ) ;
#128 = COORDINATED_UNIVERSAL_TIME_OFFSET ( 1, 0, .AHEAD. ) ;
#129 = EDGE_CURVE ( 'NONE', #212, #212, #213, .T. ) ;
#130 = CARTESIAN_POINT ( 'NONE',  ( -4.900000000000350298, 0.0000000000000000000, -49.99999999999995737 ) ) ;
#131 = DIRECTION ( 'NONE',  ( 1.000000000000000000, 0.0000000000000000000, -6.982962677686266711E-15 ) ) ;
#132 = CARTESIAN_POINT ( 'NONE',  ( 3.999999999999996447, 0.0000000000000000000, -2.793185071074504160E-14 ) ) ;
#133 = FACE_OUTER_BOUND ( 'NONE', #201, .T. ) ;
#134 = EDGE_CURVE ( 'NONE', #190, #190, #256, .T. ) ;
#135 = PRODUCT_RELATED_PRODUCT_CATEGORY ( 'detail', '', ( #3 ) ) ;
#136 = CLOSED_SHELL ( 'NONE', ( #254, #184, #111, #105 ) ) ;
#137 = APPROVAL ( #95, 'UNSPECIFIED' ) ;
#138 = SECURITY_CLASSIFICATION ( '', '', #59 ) ;
#139 = EDGE_CURVE ( 'NONE', #44, #44, #23, .T. ) ;
#140 = EDGE_LOOP ( 'NONE', ( #67 ) ) ;
#141 = PLANE ( 'NONE',  #181 ) ;
#142 = EDGE_CURVE ( 'NONE', #46, #46, #180, .T. ) ;
#143 = CLOSED_SHELL ( 'NONE', ( #261, #189, #102, #223, #157, #269, #66 ) ) ;
#144 = CARTESIAN_POINT ( 'NONE',  ( -6.982962677686273021E-15, 0.0000000000000000000, -1.000000000000000888 ) ) ;
#145 = ORIENTED_EDGE ( 'NONE', *, *, #129, .F. ) ;
#146 = ORIENTED_EDGE ( 'NONE', *, *, #1, .T. ) ;
#147 = EDGE_LOOP ( 'NONE', ( #65 ) ) ;
#148 = CC_DESIGN_APPROVAL ( #137, ( #275 ) ) ;
#149 = PERSON_AND_ORGANIZATION_ROLE ( 'creator' ) ;
#150 = CARTESIAN_POINT ( 'NONE',  ( -3.491481338843133355E-13, 0.0000000000000000000, -50.00000000000000000 ) ) ;
#151 = CC_DESIGN_PERSON_AND_ORGANIZATION_ASSIGNMENT ( #68, #149, ( #38 ) ) ;
#152 = FACE_OUTER_BOUND ( 'NONE', #117, .T. ) ;
#153 = CARTESIAN_POINT ( 'NONE',  ( -4.900000000000316547, 0.0000000000000000000, -45.26330499517474237 ) ) ;
#154 = DIRECTION ( 'NONE',  ( -6.982962677686266711E-15, 0.0000000000000000000, -1.000000000000000000 ) ) ;
#155 = CARTESIAN_POINT ( 'NONE',  ( -3.160719694500358850E-13, 0.0000000000000000000, -45.26330499517477790 ) ) ;
#156 = VERTEX_POINT ( 'NONE', #130 ) ;
#157 = ADVANCED_FACE ( 'NONE', ( #152, #133 ), #71, .F. ) ;
#158 = FACE_OUTER_BOUND ( 'NONE', #122, .T. ) ;
#159 = ORIENTED_EDGE ( 'NONE', *, *, #1, .F. ) ;
#160 = EDGE_LOOP ( 'NONE', ( #195 ) ) ;
#161 = DIRECTION ( 'NONE',  ( 6.982962677686266711E-15, 0.0000000000000000000, 1.000000000000000000 ) ) ;
#162 = AXIS2_PLACEMENT_3D ( 'NONE', #259, #69, #25 ) ;
#163 = CC_DESIGN_PERSON_AND_ORGANIZATION_ASSIGNMENT ( #78, #218, ( #138 ) ) ;
#164 = DIRECTION ( 'NONE',  ( -6.982962677686266711E-15, -0.0000000000000000000, -1.000000000000000000 ) ) ;
#165 = PERSON_AND_ORGANIZATION ( #240, #99 ) ;
#166 = DATE_TIME_ROLE ( 'creation_date' ) ;
#167 = FACE_BOUND ( 'NONE', #147, .T. ) ;
#168 = SHAPE_DEFINITION_REPRESENTATION ( #7, #220 ) ;
#169 = COORDINATED_UNIVERSAL_TIME_OFFSET ( 1, 0, .AHEAD. ) ;
#170 = CC_DESIGN_SECURITY_CLASSIFICATION ( #138, ( #275 ) ) ;
#171 = APPROVAL_DATE_TIME ( #100, #197 ) ;
#172 = DIRECTION ( 'NONE',  ( -1.000000000000000000, 0.0000000000000000000, 6.982962677686267499E-15 ) ) ;
#173 = DIRECTION ( 'NONE',  ( 6.982962677686266711E-15, 0.0000000000000000000, 1.000000000000000000 ) ) ;
#174 = DIRECTION ( 'NONE',  ( 1.000000000000000000, 0.0000000000000000000, -6.982261990806648555E-15 ) ) ;
#175 = ORIENTED_EDGE ( 'NONE', *, *, #226, .F. ) ;
#176 = AXIS2_PLACEMENT_3D ( 'NONE', #210, #127, #188 ) ;
#177 = AXIS2_PLACEMENT_3D ( 'NONE', #144, #161, #174 ) ;
#178 = DIRECTION ( 'NONE',  ( 7.272537772031604810E-15, -0.0000000000000000000, 1.000000000000000000 ) ) ;
#179 = FACE_OUTER_BOUND ( 'NONE', #140, .T. ) ;
#180 = CIRCLE ( 'NONE', #106, 4.800000000000007816 ) ;
#181 = AXIS2_PLACEMENT_3D ( 'NONE', #104, #178, #228 ) ;
#182 = DIRECTION ( 'NONE',  ( 1.000000000000000000, 0.0000000000000000000, -8.326672684688648810E-15 ) ) ;
#183 = FACE_OUTER_BOUND ( 'NONE', #88, .T. ) ;
#184 = ADVANCED_FACE ( 'NONE', ( #113, #194 ), #196, .T. ) ;
#185 = CARTESIAN_POINT ( 'NONE',  ( -5.843145836512212879E-13, 0.0000000000000000000, -80.00000000000000000 ) ) ;
#186 = COORDINATED_UNIVERSAL_TIME_OFFSET ( 1, 0, .AHEAD. ) ;
#187 = CARTESIAN_POINT ( 'NONE',  ( 4.999999999999665157, 0.0000000000000000000, -50.00000000000002842 ) ) ;
#188 = DIRECTION ( 'NONE',  ( 1.000000000000000000, 0.0000000000000000000, -8.326672684688648810E-15 ) ) ;
#189 = ADVANCED_FACE ( 'NONE', ( #13, #167 ), #20, .T. ) ;
#190 = VERTEX_POINT ( 'NONE', #258 ) ;
#191 = CARTESIAN_POINT ( 'NONE',  ( -3.491481338843132850E-13, 0.0000000000000000000, -49.99999999999999289 ) ) ;
#192 = CALENDAR_DATE ( 2019, 9, 1 ) ;
#193 = DIRECTION ( 'NONE',  ( 1.000000000000000000, 0.0000000000000000000, -8.673617379884021273E-15 ) ) ;
#194 = FACE_BOUND ( 'NONE', #278, .T. ) ;
#195 = ORIENTED_EDGE ( 'NONE', *, *, #27, .T. ) ;
#196 = CONICAL_SURFACE ( 'NONE', #236, 4.800000000000007816, 0.7853981633974764787 ) ;
#197 = APPROVAL ( #272, 'UNSPECIFIED' ) ;
#198 = DIRECTION ( 'NONE',  ( -1.000000000000000000, 0.0000000000000000000, 6.982962677686266711E-15 ) ) ;
#199 = EDGE_LOOP ( 'NONE', ( #277 ) ) ;
#200 = PERSON_AND_ORGANIZATION_ROLE ( 'design_supplier' ) ;
#201 = EDGE_LOOP ( 'NONE', ( #21 ) ) ;
#202 = LOCAL_TIME ( 2, 36, 54.00000000000000000, #169 ) ;
#203 = EDGE_LOOP ( 'NONE', ( #145 ) ) ;
#204 = EDGE_CURVE ( 'NONE', #56, #56, #98, .T. ) ;
#205 = DIRECTION ( 'NONE',  ( 1.000000000000000000, 0.0000000000000000000, 0.0000000000000000000 ) ) ;
#206 = CIRCLE ( 'NONE', #177, 5.000000000000000000 ) ;
#207 = DIRECTION ( 'NONE',  ( 6.982962677686266711E-15, 0.0000000000000000000, 1.000000000000000000 ) ) ;
#208 = APPROVAL_DATE_TIME ( #107, #137 ) ;
#209 = CARTESIAN_POINT ( 'NONE',  ( 4.999999999999703348, 0.0000000000000000000, -44.62679491924309616 ) ) ;
#210 = CARTESIAN_POINT ( 'NONE',  ( -5.586370142149013368E-13, 0.0000000000000000000, -80.00000000000000000 ) ) ;
#211 = PERSON_AND_ORGANIZATION ( #240, #99 ) ;
#212 = VERTEX_POINT ( 'NONE', #187 ) ;
#213 = CIRCLE ( 'NONE', #48, 5.000000000000015099 ) ;
#214 = MANIFOLD_SOLID_BREP ( 'Körper in Z minus drehen[1]', #136 ) ;
#215 = MANIFOLD_SOLID_BREP ( 'Körper in Z minus drehen[2]', #143 ) ;
#216 = DIRECTION ( 'NONE',  ( -1.000000000000000000, 0.0000000000000000000, 7.080503983578803823E-15 ) ) ;
#217 = CIRCLE ( 'NONE', #244, 3.999999999999996447 ) ;
#218 = PERSON_AND_ORGANIZATION_ROLE ( 'classification_officer' ) ;
#219 = APPROVAL_ROLE ( '' ) ;
#220 = ADVANCED_BREP_SHAPE_REPRESENTATION ( '591.100.10', ( #214, #215, #224 ), #282 ) ;
#221 = DIRECTION ( 'NONE',  ( 6.982962677686266711E-15, 0.0000000000000000000, 1.000000000000000000 ) ) ;
#222 = EDGE_LOOP ( 'NONE', ( #252 ) ) ;
#223 = ADVANCED_FACE ( 'NONE', ( #54, #58 ), #85, .T. ) ;
#224 = AXIS2_PLACEMENT_3D ( 'NONE', #247, #37, #205 ) ;
#225 = APPLICATION_CONTEXT ( 'configuration controlled 3d designs of mechanical parts and assemblies' ) ;
#226 = EDGE_CURVE ( 'NONE', #12, #12, #206, .T. ) ;
#227 = AXIS2_PLACEMENT_3D ( 'NONE', #5, #108, #131 ) ;
#228 = DIRECTION ( 'NONE',  ( 1.000000000000000000, 0.0000000000000000000, -7.272537772031604810E-15 ) ) ;
#229 = CC_DESIGN_DATE_AND_TIME_ASSIGNMENT ( #114, #55, ( #138 ) ) ;
#230 = DIRECTION ( 'NONE',  ( -1.000000000000000000, 0.0000000000000000000, 7.080503983578803823E-15 ) ) ;
#231 = ORIENTED_EDGE ( 'NONE', *, *, #134, .F. ) ;
#232 = EDGE_LOOP ( 'NONE', ( #253 ) ) ;
#233 = UNCERTAINTY_MEASURE_WITH_UNIT (LENGTH_MEASURE( 1.000000000000000082E-05 ), #242, 'distance_accuracy_value', 'NONE');
#234 = CYLINDRICAL_SURFACE ( 'NONE', #176, 5.000000000000015099 ) ;
#235 = CALENDAR_DATE ( 2019, 9, 1 ) ;
#236 = AXIS2_PLACEMENT_3D ( 'NONE', #276, #79, #193 ) ;
#237 = AXIS2_PLACEMENT_3D ( 'NONE', #281, #101, #172 ) ;
#238 = CARTESIAN_POINT ( 'NONE',  ( -5.586370142149013368E-13, 0.0000000000000000000, -80.00000000000000000 ) ) ;
#239 = DIRECTION ( 'NONE',  ( 6.982962677686266711E-15, 0.0000000000000000000, 1.000000000000000000 ) ) ;
#240 = PERSON ( 'UNSPECIFIED', 'UNSPECIFIED', 'UNSPECIFIED', ('UNSPECIFIED'), ('UNSPECIFIED'), ('UNSPECIFIED') ) ;
#241 = PERSON_AND_ORGANIZATION_ROLE ( 'design_owner' ) ;
#242 =( LENGTH_UNIT ( ) NAMED_UNIT ( * ) SI_UNIT ( .MILLI., .METRE. ) );
#243 = FACE_OUTER_BOUND ( 'NONE', #124, .T. ) ;
#244 = AXIS2_PLACEMENT_3D ( 'NONE', #264, #207, #89 ) ;
#245 =( NAMED_UNIT ( * ) PLANE_ANGLE_UNIT ( ) SI_UNIT ( $, .RADIAN. ) );
#246 = CALENDAR_DATE ( 2019, 9, 1 ) ;
#247 = CARTESIAN_POINT ( 'NONE',  ( 0.0000000000000000000, 0.0000000000000000000, 0.0000000000000000000 ) ) ;
#248 = EDGE_LOOP ( 'NONE', ( #255 ) ) ;
#249 = CC_DESIGN_PERSON_AND_ORGANIZATION_ASSIGNMENT ( #211, #241, ( #3 ) ) ;
#250 = CC_DESIGN_APPROVAL ( #96, ( #38 ) ) ;
#251 = FACE_OUTER_BOUND ( 'NONE', #199, .T. ) ;
#252 = ORIENTED_EDGE ( 'NONE', *, *, #27, .F. ) ;
#253 = ORIENTED_EDGE ( 'NONE', *, *, #226, .T. ) ;
#254 = ADVANCED_FACE ( 'NONE', ( #251 ), #141, .F. ) ;
#255 = ORIENTED_EDGE ( 'NONE', *, *, #134, .T. ) ;
#256 = CIRCLE ( 'NONE', #162, 5.000000000000025757 ) ;
#257 = CARTESIAN_POINT ( 'NONE',  ( -4.968148347422175704, 0.0000000000000000000, -44.74566690496972399 ) ) ;
#258 = CARTESIAN_POINT ( 'NONE',  ( -5.000000000000609290, 0.0000000000000000000, -79.79999999999995453 ) ) ;
#259 = CARTESIAN_POINT ( 'NONE',  ( -5.827464780664016473E-13, 0.0000000000000000000, -79.79999999999999716 ) ) ;
#260 = APPROVAL_DATE_TIME ( #8, #96 ) ;
#261 = ADVANCED_FACE ( 'NONE', ( #179 ), #82, .T. ) ;
#262 = PERSON_AND_ORGANIZATION_ROLE ( 'creator' ) ;
#263 = LOCAL_TIME ( 2, 36, 54.00000000000000000, #128 ) ;
#264 = CARTESIAN_POINT ( 'NONE',  ( 0.0000000000000000000, 0.0000000000000000000, 0.0000000000000000000 ) ) ;
#265 = DATE_AND_TIME ( #235, #39 ) ;
#266 = CC_DESIGN_PERSON_AND_ORGANIZATION_ASSIGNMENT ( #26, #262, ( #275 ) ) ;
#267 = DIRECTION ( 'NONE',  ( -6.982962677686266711E-15, 0.0000000000000000000, -1.000000000000000000 ) ) ;
#268 = DIRECTION ( 'NONE',  ( -6.982962677686266711E-15, 0.0000000000000000000, -1.000000000000000000 ) ) ;
#269 = ADVANCED_FACE ( 'NONE', ( #86, #64 ), #121, .T. ) ;
#270 = APPLICATION_PROTOCOL_DEFINITION ( 'international standard', 'config_control_design', 1994, #41 ) ;
#271 = CC_DESIGN_PERSON_AND_ORGANIZATION_ASSIGNMENT ( #75, #200, ( #275 ) ) ;
#272 = APPROVAL_STATUS ( 'not_yet_approved' ) ;
#273 = CARTESIAN_POINT ( 'NONE',  ( -3.124573219855853564E-13, 0.0000000000000000000, -44.74566690496975241 ) ) ;
#274 = AXIS2_PLACEMENT_3D ( 'NONE', #19, #103, #230 ) ;
#275 = PRODUCT_DEFINITION_FORMATION_WITH_SPECIFIED_SOURCE ( 'ANY', '', #3, .NOT_KNOWN. ) ;
#276 = CARTESIAN_POINT ( 'NONE',  ( -5.843145836512212879E-13, 0.0000000000000000000, -80.00000000000000000 ) ) ;
#277 = ORIENTED_EDGE ( 'NONE', *, *, #142, .T. ) ;
#278 = EDGE_LOOP ( 'NONE', ( #14 ) ) ;
#279 = DIRECTION ( 'NONE',  ( 1.000000000000000000, 0.0000000000000000000, -6.982962677686266711E-15 ) ) ;
#280 = EDGE_LOOP ( 'NONE', ( #84 ) ) ;
#281 = CARTESIAN_POINT ( 'NONE',  ( 0.0000000000000000000, 0.0000000000000000000, 0.0000000000000000000 ) ) ;
#282 =( GEOMETRIC_REPRESENTATION_CONTEXT ( 3 ) GLOBAL_UNCERTAINTY_ASSIGNED_CONTEXT ( ( #233 ) ) GLOBAL_UNIT_ASSIGNED_CONTEXT ( ( #242, #245, #34 ) ) REPRESENTATION_CONTEXT ( 'NONE', 'WORKASPACE' ) );
#283 = DIRECTION ( 'NONE',  ( 1.000000000000000000, 0.0000000000000000000, -6.938893903907207078E-15 ) ) ;
ENDSEC;
END-ISO-10303-21;
19829