ISO-10303-21;
HEADER;
FILE_DESCRIPTION (( 'STEP AP203' ),
    '1' );
FILE_NAME ('595.100.10.STEP',
    '2019-01-08T23:44:00',
    ( '' ),
    ( '' ),
    'SwSTEP 2.0',
    'SolidWorks 2019',
    '' );
FILE_SCHEMA (( 'CONFIG_CONTROL_DESIGN' ));
ENDSEC;

DATA;
#1 = CIRCLE ( 'NONE', #100, 5.000000000000003553 ) ;
#2 = CARTESIAN_POINT ( 'NONE',  ( -4.888073874380387202E-13, 0.0000000000000000000, -70.00000000000000000 ) ) ;
#3 = PRODUCT_RELATED_PRODUCT_CATEGORY ( 'detail', '', ( #59 ) ) ;
#4 = CARTESIAN_POINT ( 'NONE',  ( -3.351822085289408526E-13, 0.0000000000000000000, -48.00000000000000711 ) ) ;
#5 = ADVANCED_BREP_SHAPE_REPRESENTATION ( '595.100.10', ( #12, #17, #172 ), #88 ) ;
#6 = ORIENTED_EDGE ( 'NONE', *, *, #72, .F. ) ;
#7 = ORIENTED_EDGE ( 'NONE', *, *, #223, .T. ) ;
#8 = VERTEX_POINT ( 'NONE', #26 ) ;
#9 = LOCAL_TIME ( 0, 44, 0.0000000000000000000, #140 ) ;
#10 = APPROVAL_ROLE ( '' ) ;
#11 = CARTESIAN_POINT ( 'NONE',  ( -5.000000000000508926, 0.0000000000000000000, -69.89999999999997726 ) ) ;
#12 = MANIFOLD_SOLID_BREP ( 'Körper in Z minus drehen[1]', #134 ) ;
#13 = DIRECTION ( 'NONE',  ( 1.000000000000000000, 0.0000000000000000000, -6.982962677686266711E-15 ) ) ;
#14 = CALENDAR_DATE ( 2019, 9, 1 ) ;
#15 = CARTESIAN_POINT ( 'NONE',  ( -5.022384888828852574E-13, 0.0000000000000000000, -70.00000000000000000 ) ) ;
#16 = ADVANCED_FACE ( 'NONE', ( #143, #158 ), #77, .T. ) ;
#17 = MANIFOLD_SOLID_BREP ( 'Körper in Z minus drehen[2]', #69 ) ;
#18 = AXIS2_PLACEMENT_3D ( 'NONE', #2, #40, #89 ) ;
#19 = ORIENTED_EDGE ( 'NONE', *, *, #144, .F. ) ;
#20 = EDGE_LOOP ( 'NONE', ( #39 ) ) ;
#21 = CC_DESIGN_PERSON_AND_ORGANIZATION_ASSIGNMENT ( #119, #206, ( #197 ) ) ;
#22 = CARTESIAN_POINT ( 'NONE',  ( -6.982962677686273021E-15, 0.0000000000000000000, -1.000000000000000888 ) ) ;
#23 = DIRECTION ( 'NONE',  ( -6.982962677686266711E-15, 0.0000000000000000000, -1.000000000000000000 ) ) ;
#24 = DIRECTION ( 'NONE',  ( -7.595712195908133638E-15, 0.0000000000000000000, -1.000000000000000000 ) ) ;
#25 = CARTESIAN_POINT ( 'NONE',  ( 4.999999999999992895, 0.0000000000000000000, -1.000000000000035749 ) ) ;
#26 = CARTESIAN_POINT ( 'NONE',  ( 4.999999999999668709, 0.0000000000000000000, -48.00000000000004263 ) ) ;
#27 = DATE_TIME_ROLE ( 'classification_date' ) ;
#28 = DIRECTION ( 'NONE',  ( 6.982962677686266711E-15, 0.0000000000000000000, 1.000000000000000000 ) ) ;
#29 = AXIS2_PLACEMENT_3D ( 'NONE', #191, #24, #90 ) ;
#30 = ADVANCED_FACE ( 'NONE', ( #154 ), #110, .T. ) ;
#31 = FACE_OUTER_BOUND ( 'NONE', #159, .T. ) ;
#32 = DATE_AND_TIME ( #117, #85 ) ;
#33 = PERSON_AND_ORGANIZATION_ROLE ( 'design_owner' ) ;
#34 = CC_DESIGN_APPROVAL ( #169, ( #197 ) ) ;
#35 = CIRCLE ( 'NONE', #73, 4.900000000000000355 ) ;
#36 = ORIENTED_EDGE ( 'NONE', *, *, #223, .F. ) ;
#37 = EDGE_LOOP ( 'NONE', ( #125 ) ) ;
#38 = ADVANCED_FACE ( 'NONE', ( #195 ), #108, .F. ) ;
#39 = ORIENTED_EDGE ( 'NONE', *, *, #87, .T. ) ;
#40 = DIRECTION ( 'NONE',  ( 6.982962677686266711E-15, 0.0000000000000000000, 1.000000000000000000 ) ) ;
#41 = DIRECTION ( 'NONE',  ( -6.982962677686266711E-15, 0.0000000000000000000, -1.000000000000000000 ) ) ;
#42 = DIRECTION ( 'NONE',  ( 6.982962677686266711E-15, 0.0000000000000000000, 1.000000000000000000 ) ) ;
#43 = AXIS2_PLACEMENT_3D ( 'NONE', #215, #42, #13 ) ;
#44 = DIRECTION ( 'NONE',  ( 1.000000000000000000, 0.0000000000000000000, 0.0000000000000000000 ) ) ;
#45 = FACE_BOUND ( 'NONE', #170, .T. ) ;
#46 = CC_DESIGN_DATE_AND_TIME_ASSIGNMENT ( #115, #103, ( #106 ) ) ;
#47 = COORDINATED_UNIVERSAL_TIME_OFFSET ( 1, 0, .AHEAD. ) ;
#48 = DIRECTION ( 'NONE',  ( 0.0000000000000000000, 0.0000000000000000000, 1.000000000000000000 ) ) ;
#49 = APPROVAL_DATE_TIME ( #141, #129 ) ;
#50 = MECHANICAL_CONTEXT ( 'NONE', #183, 'mechanical' ) ;
#51 = SECURITY_CLASSIFICATION_LEVEL ( 'unclassified' ) ;
#52 = CALENDAR_DATE ( 2019, 9, 1 ) ;
#53 = COORDINATED_UNIVERSAL_TIME_OFFSET ( 1, 0, .AHEAD. ) ;
#54 = AXIS2_PLACEMENT_3D ( 'NONE', #63, #165, #181 ) ;
#55 = AXIS2_PLACEMENT_3D ( 'NONE', #4, #41, #74 ) ;
#56 = ADVANCED_FACE ( 'NONE', ( #209 ), #57, .F. ) ;
#57 = PLANE ( 'NONE',  #71 ) ;
#58 = UNCERTAINTY_MEASURE_WITH_UNIT (LENGTH_MEASURE( 1.000000000000000082E-05 ), #97, 'distance_accuracy_value', 'NONE');
#59 = PRODUCT ( '595.100.10', '595.100.10', '', ( #50 ) ) ;
#60 = PERSON ( 'UNSPECIFIED', 'UNSPECIFIED', 'UNSPECIFIED', ('UNSPECIFIED'), ('UNSPECIFIED'), ('UNSPECIFIED') ) ;
#61 = CARTESIAN_POINT ( 'NONE',  ( 0.0000000000000000000, 0.0000000000000000000, 0.0000000000000000000 ) ) ;
#62 = DIRECTION ( 'NONE',  ( -6.982962677686266711E-15, 0.0000000000000000000, -1.000000000000000000 ) ) ;
#63 = CARTESIAN_POINT ( 'NONE',  ( -4.888073874380387202E-13, 0.0000000000000000000, -70.00000000000000000 ) ) ;
#64 = CARTESIAN_POINT ( 'NONE',  ( -5.022384888828852574E-13, 0.0000000000000000000, -70.00000000000000000 ) ) ;
#65 = CC_DESIGN_APPROVAL ( #198, ( #216 ) ) ;
#66 = CC_DESIGN_PERSON_AND_ORGANIZATION_ASSIGNMENT ( #218, #217, ( #106 ) ) ;
#67 = APPLICATION_PROTOCOL_DEFINITION ( 'international standard', 'config_control_design', 1994, #183 ) ;
#68 = VERTEX_POINT ( 'NONE', #11 ) ;
#69 = CLOSED_SHELL ( 'NONE', ( #16, #207, #123, #30 ) ) ;
#70 = APPLICATION_PROTOCOL_DEFINITION ( 'international standard', 'config_control_design', 1994, #94 ) ;
#71 = AXIS2_PLACEMENT_3D ( 'NONE', #171, #127, #173 ) ;
#72 = EDGE_CURVE ( 'NONE', #68, #68, #187, .T. ) ;
#73 = AXIS2_PLACEMENT_3D ( 'NONE', #64, #177, #82 ) ;
#74 = DIRECTION ( 'NONE',  ( -1.000000000000000000, 0.0000000000000000000, 6.982962677686266711E-15 ) ) ;
#75 = DIRECTION ( 'NONE',  ( 1.000000000000000000, 0.0000000000000000000, -6.938893903907223644E-15 ) ) ;
#76 = APPROVAL_PERSON_ORGANIZATION ( #167, #198, #153 ) ;
#77 = CYLINDRICAL_SURFACE ( 'NONE', #18, 5.000000000000003553 ) ;
#78 = DIRECTION ( 'NONE',  ( 1.000000000000000000, 0.0000000000000000000, -6.982261990806648555E-15 ) ) ;
#79 =( NAMED_UNIT ( * ) PLANE_ANGLE_UNIT ( ) SI_UNIT ( $, .RADIAN. ) );
#80 = VERTEX_POINT ( 'NONE', #160 ) ;
#81 = CALENDAR_DATE ( 2019, 9, 1 ) ;
#82 = DIRECTION ( 'NONE',  ( -1.000000000000000000, 0.0000000000000000000, 8.496604780294564588E-15 ) ) ;
#83 = APPROVAL_DATE_TIME ( #120, #169 ) ;
#84 = CARTESIAN_POINT ( 'NONE',  ( 0.0000000000000000000, 0.0000000000000000000, 0.0000000000000000000 ) ) ;
#85 = LOCAL_TIME ( 0, 44, 0.0000000000000000000, #47 ) ;
#86 = APPROVAL_DATE_TIME ( #32, #198 ) ;
#87 = EDGE_CURVE ( 'NONE', #178, #178, #193, .T. ) ;
#88 =( GEOMETRIC_REPRESENTATION_CONTEXT ( 3 ) GLOBAL_UNCERTAINTY_ASSIGNED_CONTEXT ( ( #58 ) ) GLOBAL_UNIT_ASSIGNED_CONTEXT ( ( #97, #79, #137 ) ) REPRESENTATION_CONTEXT ( 'NONE', 'WORKASPACE' ) );
#89 = DIRECTION ( 'NONE',  ( 1.000000000000000000, 0.0000000000000000000, -8.326672684688667742E-15 ) ) ;
#90 = DIRECTION ( 'NONE',  ( -1.000000000000000000, 0.0000000000000000000, 8.326672684688661431E-15 ) ) ;
#91 = ORIENTED_EDGE ( 'NONE', *, *, #111, .T. ) ;
#92 = CONICAL_SURFACE ( 'NONE', #182, 4.900000000000000355, 0.7853981633975394283 ) ;
#93 = DIRECTION ( 'NONE',  ( -1.000000000000000000, 0.0000000000000000000, 6.982962677686266711E-15 ) ) ;
#94 = APPLICATION_CONTEXT ( 'configuration controlled 3d designs of mechanical parts and assemblies' ) ;
#95 = VERTEX_POINT ( 'NONE', #201 ) ;
#96 = CC_DESIGN_PERSON_AND_ORGANIZATION_ASSIGNMENT ( #135, #33, ( #59 ) ) ;
#97 =( LENGTH_UNIT ( ) NAMED_UNIT ( * ) SI_UNIT ( .MILLI., .METRE. ) );
#98 = APPROVAL_STATUS ( 'not_yet_approved' ) ;
#99 = DIRECTION ( 'NONE',  ( 1.000000000000000000, 0.0000000000000000000, -6.982962677686266711E-15 ) ) ;
#100 = AXIS2_PLACEMENT_3D ( 'NONE', #220, #149, #164 ) ;
#101 = COORDINATED_UNIVERSAL_TIME_OFFSET ( 1, 0, .AHEAD. ) ;
#102 = FACE_OUTER_BOUND ( 'NONE', #192, .T. ) ;
#103 = DATE_TIME_ROLE ( 'creation_date' ) ;
#104 = CARTESIAN_POINT ( 'NONE',  ( -4.900000000000503064, 0.0000000000000000000, -69.99999999999997158 ) ) ;
#105 = LOCAL_TIME ( 0, 44, 0.0000000000000000000, #101 ) ;
#106 = PRODUCT_DEFINITION ( 'UNKNOWN', '', #216, #186 ) ;
#107 = ORIENTED_EDGE ( 'NONE', *, *, #111, .F. ) ;
#108 = PLANE ( 'NONE',  #55 ) ;
#109 = LOCAL_TIME ( 0, 44, 0.0000000000000000000, #53 ) ;
#110 = PLANE ( 'NONE',  #176 ) ;
#111 = EDGE_CURVE ( 'NONE', #8, #8, #155, .T. ) ;
#112 = DIRECTION ( 'NONE',  ( 6.982962677686266711E-15, 0.0000000000000000000, 1.000000000000000000 ) ) ;
#113 = EDGE_LOOP ( 'NONE', ( #19 ) ) ;
#114 = DIRECTION ( 'NONE',  ( 7.595712195908133638E-15, 0.0000000000000000000, 1.000000000000000000 ) ) ;
#115 = DATE_AND_TIME ( #136, #109 ) ;
#116 = DIRECTION ( 'NONE',  ( 1.000000000000000000, 0.0000000000000000000, -8.496604780294564588E-15 ) ) ;
#117 = CALENDAR_DATE ( 2019, 9, 1 ) ;
#118 = CC_DESIGN_SECURITY_CLASSIFICATION ( #197, ( #216 ) ) ;
#119 = PERSON_AND_ORGANIZATION ( #60, #213 ) ;
#120 = DATE_AND_TIME ( #14, #133 ) ;
#121 = APPROVAL_STATUS ( 'not_yet_approved' ) ;
#122 = SHAPE_DEFINITION_REPRESENTATION ( #126, #5 ) ;
#123 = ADVANCED_FACE ( 'NONE', ( #146, #211 ), #139, .T. ) ;
#124 = APPROVAL_PERSON_ORGANIZATION ( #219, #169, #10 ) ;
#125 = ORIENTED_EDGE ( 'NONE', *, *, #72, .T. ) ;
#126 = PRODUCT_DEFINITION_SHAPE ( 'NONE', 'NONE',  #106 ) ;
#127 = DIRECTION ( 'NONE',  ( 7.153682695900398170E-15, -0.0000000000000000000, 1.000000000000000000 ) ) ;
#128 = ORIENTED_EDGE ( 'NONE', *, *, #212, .F. ) ;
#129 = APPROVAL ( #121, 'UNSPECIFIED' ) ;
#130 = CIRCLE ( 'NONE', #168, 3.999999999999996447 ) ;
#131 = EDGE_LOOP ( 'NONE', ( #210 ) ) ;
#132 = CARTESIAN_POINT ( 'NONE',  ( -3.351822085289408526E-13, 0.0000000000000000000, -48.00000000000000711 ) ) ;
#133 = LOCAL_TIME ( 0, 44, 0.0000000000000000000, #166 ) ;
#134 = CLOSED_SHELL ( 'NONE', ( #38, #163, #150, #56 ) ) ;
#135 = PERSON_AND_ORGANIZATION ( #60, #213 ) ;
#136 = CALENDAR_DATE ( 2019, 9, 1 ) ;
#137 =( NAMED_UNIT ( * ) SI_UNIT ( $, .STERADIAN. ) SOLID_ANGLE_UNIT ( ) );
#138 = CC_DESIGN_PERSON_AND_ORGANIZATION_ASSIGNMENT ( #221, #202, ( #216 ) ) ;
#139 = CONICAL_SURFACE ( 'NONE', #208, 3.999999999999996447, 0.7853981633974496113 ) ;
#140 = COORDINATED_UNIVERSAL_TIME_OFFSET ( 1, 0, .AHEAD. ) ;
#141 = DATE_AND_TIME ( #52, #9 ) ;
#142 = APPROVAL_PERSON_ORGANIZATION ( #205, #129, #222 ) ;
#143 = FACE_OUTER_BOUND ( 'NONE', #147, .T. ) ;
#144 = EDGE_CURVE ( 'NONE', #95, #95, #1, .T. ) ;
#145 = DIRECTION ( 'NONE',  ( -6.982962677686266711E-15, -0.0000000000000000000, -1.000000000000000000 ) ) ;
#146 = FACE_OUTER_BOUND ( 'NONE', #20, .T. ) ;
#147 = EDGE_LOOP ( 'NONE', ( #107 ) ) ;
#148 = ORIENTED_EDGE ( 'NONE', *, *, #87, .F. ) ;
#149 = DIRECTION ( 'NONE',  ( -6.982962677686266711E-15, -0.0000000000000000000, -1.000000000000000000 ) ) ;
#150 = ADVANCED_FACE ( 'NONE', ( #199, #45 ), #92, .T. ) ;
#151 = VERTEX_POINT ( 'NONE', #104 ) ;
#152 = CARTESIAN_POINT ( 'NONE',  ( 0.0000000000000000000, 0.0000000000000000000, 0.0000000000000000000 ) ) ;
#153 = APPROVAL_ROLE ( '' ) ;
#154 = FACE_OUTER_BOUND ( 'NONE', #156, .T. ) ;
#155 = CIRCLE ( 'NONE', #189, 5.000000000000003553 ) ;
#156 = EDGE_LOOP ( 'NONE', ( #91 ) ) ;
#157 = EDGE_LOOP ( 'NONE', ( #128 ) ) ;
#158 = FACE_OUTER_BOUND ( 'NONE', #194, .T. ) ;
#159 = EDGE_LOOP ( 'NONE', ( #6 ) ) ;
#160 = CARTESIAN_POINT ( 'NONE',  ( 3.999999999999996447, 0.0000000000000000000, -2.793185071074504160E-14 ) ) ;
#161 = DIRECTION ( 'NONE',  ( -1.000000000000000000, 0.0000000000000000000, 6.982962677686266711E-15 ) ) ;
#162 = APPROVAL_STATUS ( 'not_yet_approved' ) ;
#163 = ADVANCED_FACE ( 'NONE', ( #31, #102 ), #204, .T. ) ;
#164 = DIRECTION ( 'NONE',  ( 1.000000000000000000, 0.0000000000000000000, -6.938893903907223644E-15 ) ) ;
#165 = DIRECTION ( 'NONE',  ( 6.982962677686266711E-15, 0.0000000000000000000, 1.000000000000000000 ) ) ;
#166 = COORDINATED_UNIVERSAL_TIME_OFFSET ( 1, 0, .AHEAD. ) ;
#167 = PERSON_AND_ORGANIZATION ( #60, #213 ) ;
#168 = AXIS2_PLACEMENT_3D ( 'NONE', #84, #28, #99 ) ;
#169 = APPROVAL ( #162, 'UNSPECIFIED' ) ;
#170 = EDGE_LOOP ( 'NONE', ( #36 ) ) ;
#171 = CARTESIAN_POINT ( 'NONE',  ( -5.022384888828852574E-13, 0.0000000000000000000, -70.00000000000000000 ) ) ;
#172 = AXIS2_PLACEMENT_3D ( 'NONE', #152, #48, #44 ) ;
#173 = DIRECTION ( 'NONE',  ( 1.000000000000000000, 0.0000000000000000000, -7.153682695900398170E-15 ) ) ;
#174 = CARTESIAN_POINT ( 'NONE',  ( -3.351822085289408526E-13, 0.0000000000000000000, -48.00000000000000711 ) ) ;
#175 = AXIS2_PLACEMENT_3D ( 'NONE', #22, #112, #78 ) ;
#176 = AXIS2_PLACEMENT_3D ( 'NONE', #132, #62, #93 ) ;
#177 = DIRECTION ( 'NONE',  ( -7.595712195908133638E-15, 0.0000000000000000000, -1.000000000000000000 ) ) ;
#178 = VERTEX_POINT ( 'NONE', #25 ) ;
#179 = CC_DESIGN_PERSON_AND_ORGANIZATION_ASSIGNMENT ( #184, #180, ( #216 ) ) ;
#180 = PERSON_AND_ORGANIZATION_ROLE ( 'design_supplier' ) ;
#181 = DIRECTION ( 'NONE',  ( 1.000000000000000000, 0.0000000000000000000, -8.326672684688667742E-15 ) ) ;
#182 = AXIS2_PLACEMENT_3D ( 'NONE', #15, #114, #116 ) ;
#183 = APPLICATION_CONTEXT ( 'configuration controlled 3d designs of mechanical parts and assemblies' ) ;
#184 = PERSON_AND_ORGANIZATION ( #60, #213 ) ;
#185 = DATE_AND_TIME ( #81, #105 ) ;
#186 = DESIGN_CONTEXT ( 'detailed design', #94, 'design' ) ;
#187 = CIRCLE ( 'NONE', #29, 5.000000000000007994 ) ;
#188 = CC_DESIGN_DATE_AND_TIME_ASSIGNMENT ( #185, #27, ( #197 ) ) ;
#189 = AXIS2_PLACEMENT_3D ( 'NONE', #174, #145, #75 ) ;
#190 = ORIENTED_EDGE ( 'NONE', *, *, #144, .T. ) ;
#191 = CARTESIAN_POINT ( 'NONE',  ( -5.014789176632943800E-13, 0.0000000000000000000, -69.90000000000001990 ) ) ;
#192 = EDGE_LOOP ( 'NONE', ( #190 ) ) ;
#193 = CIRCLE ( 'NONE', #175, 5.000000000000000000 ) ;
#194 = EDGE_LOOP ( 'NONE', ( #148 ) ) ;
#195 = FACE_OUTER_BOUND ( 'NONE', #113, .T. ) ;
#196 = PLANE ( 'NONE',  #43 ) ;
#197 = SECURITY_CLASSIFICATION ( '', '', #51 ) ;
#198 = APPROVAL ( #98, 'UNSPECIFIED' ) ;
#199 = FACE_OUTER_BOUND ( 'NONE', #37, .T. ) ;
#200 = FACE_OUTER_BOUND ( 'NONE', #131, .T. ) ;
#201 = CARTESIAN_POINT ( 'NONE',  ( 4.999999999999668709, 0.0000000000000000000, -48.00000000000004263 ) ) ;
#202 = PERSON_AND_ORGANIZATION_ROLE ( 'creator' ) ;
#203 = CC_DESIGN_APPROVAL ( #129, ( #106 ) ) ;
#204 = CYLINDRICAL_SURFACE ( 'NONE', #54, 5.000000000000003553 ) ;
#205 = PERSON_AND_ORGANIZATION ( #60, #213 ) ;
#206 = PERSON_AND_ORGANIZATION_ROLE ( 'classification_officer' ) ;
#207 = ADVANCED_FACE ( 'NONE', ( #200 ), #196, .T. ) ;
#208 = AXIS2_PLACEMENT_3D ( 'NONE', #61, #23, #161 ) ;
#209 = FACE_OUTER_BOUND ( 'NONE', #214, .T. ) ;
#210 = ORIENTED_EDGE ( 'NONE', *, *, #212, .T. ) ;
#211 = FACE_BOUND ( 'NONE', #157, .T. ) ;
#212 = EDGE_CURVE ( 'NONE', #80, #80, #130, .T. ) ;
#213 = ORGANIZATION ( 'UNSPECIFIED', 'UNSPECIFIED', '' ) ;
#214 = EDGE_LOOP ( 'NONE', ( #7 ) ) ;
#215 = CARTESIAN_POINT ( 'NONE',  ( -1.433752967011041189E-30, 0.0000000000000000000, -2.053215852910874426E-16 ) ) ;
#216 = PRODUCT_DEFINITION_FORMATION_WITH_SPECIFIED_SOURCE ( 'ANY', '', #59, .NOT_KNOWN. ) ;
#217 = PERSON_AND_ORGANIZATION_ROLE ( 'creator' ) ;
#218 = PERSON_AND_ORGANIZATION ( #60, #213 ) ;
#219 = PERSON_AND_ORGANIZATION ( #60, #213 ) ;
#220 = CARTESIAN_POINT ( 'NONE',  ( -3.351822085289408526E-13, 0.0000000000000000000, -48.00000000000000711 ) ) ;
#221 = PERSON_AND_ORGANIZATION ( #60, #213 ) ;
#222 = APPROVAL_ROLE ( '' ) ;
#223 = EDGE_CURVE ( 'NONE', #151, #151, #35, .T. ) ;
ENDSEC;
END-ISO-10303-21;
15448