ISO-10303-21;
HEADER;
FILE_DESCRIPTION (( 'STEP AP214' ),
    '1' );
FILE_NAME ('95-1-75455-1030.STEP',
    '2021-01-11T15:44:37',
    ( '' ),
    ( '' ),
    'SwSTEP 2.0',
    'SolidWorks 2020',
    '' );
FILE_SCHEMA (( 'AUTOMOTIVE_DESIGN' ));
ENDSEC;

DATA;
#1 = UNCERTAINTY_MEASURE_WITH_UNIT (LENGTH_MEASURE( 1.000000000000000082E-05 ), #18, 'distance_accuracy_value', 'NONE');
#2 = ADVANCED_FACE ( 'NONE', ( #152 ), #203, .T. ) ;
#3 = CARTESIAN_POINT ( 'NONE',  ( 0.0000000000000000000, 0.0000000000000000000, 0.0000000000000000000 ) ) ;
#4 = DIRECTION ( 'NONE',  ( 0.7071067811865476838, 0.7071067811865474617, 0.0000000000000000000 ) ) ;
#5 = AXIS2_PLACEMENT_3D ( 'NONE', #130, #109, #181 ) ;
#6 = CARTESIAN_POINT ( 'NONE',  ( -5.510910596163066876E-16, -4.499999999999981348, 5.817072295949904746E-16 ) ) ;
#7 = EDGE_CURVE ( 'NONE', #86, #197, #129, .T. ) ;
#8 = LINE ( 'NONE', #167, #188 ) ;
#9 = CYLINDRICAL_SURFACE ( 'NONE', #142, 4.999999999999986677 ) ;
#10 = CONICAL_SURFACE ( 'NONE', #112, 4.999999999999982236, 0.7853981633974482790 ) ;
#11 = AXIS2_PLACEMENT_3D ( 'NONE', #32, #210, #159 ) ;
#12 = DIRECTION ( 'NONE',  ( 1.000000000000000000, -1.224646799147353207E-16, -0.0000000000000000000 ) ) ;
#13 = EDGE_CURVE ( 'NONE', #197, #90, #74, .T. ) ;
#14 = DIRECTION ( 'NONE',  ( 0.0000000000000000000, 1.000000000000000000, 0.0000000000000000000 ) ) ;
#15 = CIRCLE ( 'NONE', #198, 4.499999999999981348 ) ;
#16 = VERTEX_POINT ( 'NONE', #121 ) ;
#17 = ORIENTED_EDGE ( 'NONE', *, *, #103, .F. ) ;
#18 =( LENGTH_UNIT ( ) NAMED_UNIT ( * ) SI_UNIT ( .MILLI., .METRE. ) );
#19 = EDGE_CURVE ( 'NONE', #108, #116, #193, .T. ) ;
#20 =( GEOMETRIC_REPRESENTATION_CONTEXT ( 3 ) GLOBAL_UNCERTAINTY_ASSIGNED_CONTEXT ( ( #50 ) ) GLOBAL_UNIT_ASSIGNED_CONTEXT ( ( #234, #91, #55 ) ) REPRESENTATION_CONTEXT ( 'NONE', 'WORKASPACE' ) );
#21 = ADVANCED_FACE ( 'NONE', ( #196 ), #141, .T. ) ;
#22 = PRODUCT_RELATED_PRODUCT_CATEGORY ( 'part', '', ( #180 ) ) ;
#23 = APPLICATION_CONTEXT ( 'automotive_design' ) ;
#24 = DIRECTION ( 'NONE',  ( 1.000000000000000000, -1.224646799147353207E-16, -0.0000000000000000000 ) ) ;
#25 = LINE ( 'NONE', #42, #162 ) ;
#26 = CARTESIAN_POINT ( 'NONE',  ( 0.5000000000000011102, 4.999999999999982236, 0.0000000000000000000 ) ) ;
#27 = EDGE_LOOP ( 'NONE', ( #68, #133 ) ) ;
#28 = VECTOR ( 'NONE', #38, 1000.000000000000114 ) ;
#29 = DIRECTION ( 'NONE',  ( -0.7071067811865415775, -0.7071067811865535679, 0.0000000000000000000 ) ) ;
#30 = CARTESIAN_POINT ( 'NONE',  ( 74.84999999999999432, -9.166481291617939092E-15, 0.0000000000000000000 ) ) ;
#31 = CARTESIAN_POINT ( 'NONE',  ( 75.00000000000000000, -9.184850993605148733E-15, 0.0000000000000000000 ) ) ;
#32 = CARTESIAN_POINT ( 'NONE',  ( 0.0000000000000000000, 0.0000000000000000000, 0.0000000000000000000 ) ) ;
#33 = ORIENTED_EDGE ( 'NONE', *, *, #225, .T. ) ;
#34 = FILL_AREA_STYLE_COLOUR ( '', #64 ) ;
#35 = CONICAL_SURFACE ( 'NONE', #212, 4.849999999999991651, 0.7853981633974569387 ) ;
#36 = EDGE_LOOP ( 'NONE', ( #140, #117, #17, #57 ) ) ;
#37 = ADVANCED_FACE ( 'NONE', ( #195 ), #178, .T. ) ;
#38 = DIRECTION ( 'NONE',  ( -0.7071067811865413555, 0.7071067811865536790, 8.659560562355008046E-17 ) ) ;
#39 = AXIS2_PLACEMENT_3D ( 'NONE', #150, #136, #14 ) ;
#40 = EDGE_CURVE ( 'NONE', #237, #16, #202, .T. ) ;
#41 = COLOUR_RGB ( '',0.7921568627450980005, 0.8196078431372548767, 0.9333333333333333481 ) ;
#42 = CARTESIAN_POINT ( 'NONE',  ( 75.00000000000000000, -4.999999999999996447, 6.123233995736750505E-16 ) ) ;
#43 = CARTESIAN_POINT ( 'NONE',  ( 75.00000000000000000, 4.849999999999981881, 6.031385485800704272E-16 ) ) ;
#44 = DIRECTION ( 'NONE',  ( 0.0000000000000000000, 1.000000000000000000, 0.0000000000000000000 ) ) ;
#45 = ORIENTED_EDGE ( 'NONE', *, *, #190, .F. ) ;
#46 = CARTESIAN_POINT ( 'NONE',  ( 75.00000000000000000, -9.184850993605148733E-15, 0.0000000000000000000 ) ) ;
#47 = AXIS2_PLACEMENT_3D ( 'NONE', #182, #161, #228 ) ;
#48 = CARTESIAN_POINT ( 'NONE',  ( 0.5000000000000004441, -6.123233995736752477E-17, 0.0000000000000000000 ) ) ;
#49 = CARTESIAN_POINT ( 'NONE',  ( 0.5000000000000011102, 4.999999999999982236, 0.0000000000000000000 ) ) ;
#50 = UNCERTAINTY_MEASURE_WITH_UNIT (LENGTH_MEASURE( 1.000000000000000082E-05 ), #234, 'distance_accuracy_value', 'NONE');
#51 = PRODUCT_DEFINITION_SHAPE ( 'NONE', 'NONE',  #177 ) ;
#52 = EDGE_LOOP ( 'NONE', ( #189, #138, #76, #206 ) ) ;
#53 = AXIS2_PLACEMENT_3D ( 'NONE', #233, #175, #72 ) ;
#54 = ORIENTED_EDGE ( 'NONE', *, *, #190, .T. ) ;
#55 =( NAMED_UNIT ( * ) SI_UNIT ( $, .STERADIAN. ) SOLID_ANGLE_UNIT ( ) );
#56 = EDGE_CURVE ( 'NONE', #116, #108, #15, .T. ) ;
#57 = ORIENTED_EDGE ( 'NONE', *, *, #71, .F. ) ;
#58 = EDGE_LOOP ( 'NONE', ( #154, #119 ) ) ;
#59 = SURFACE_STYLE_USAGE ( .BOTH. , #134 ) ;
#60 = PRESENTATION_LAYER_ASSIGNMENT (  '', '', ( #113 ) ) ;
#61 = DIRECTION ( 'NONE',  ( 1.000000000000000000, -1.224646799147353207E-16, -0.0000000000000000000 ) ) ;
#62 = EDGE_CURVE ( 'NONE', #86, #219, #8, .T. ) ;
#63 = SHAPE_DEFINITION_REPRESENTATION ( #51, #98 ) ;
#64 = COLOUR_RGB ( '',0.7921568627450980005, 0.8196078431372548767, 0.9333333333333333481 ) ;
#65 = DIRECTION ( 'NONE',  ( 1.224646799147353207E-16, 1.000000000000000000, 0.0000000000000000000 ) ) ;
#66 = DIRECTION ( 'NONE',  ( 1.000000000000000000, -1.224646799147353207E-16, -0.0000000000000000000 ) ) ;
#67 = DIRECTION ( 'NONE',  ( -1.000000000000000000, 1.224646799147353207E-16, 0.0000000000000000000 ) ) ;
#68 = ORIENTED_EDGE ( 'NONE', *, *, #7, .T. ) ;
#69 = CARTESIAN_POINT ( 'NONE',  ( 74.84999999999999432, -5.000000000000000888, 6.123233995736761352E-16 ) ) ;
#70 = MECHANICAL_DESIGN_GEOMETRIC_PRESENTATION_REPRESENTATION (  '', ( #172 ), #20 ) ;
#71 = EDGE_CURVE ( 'NONE', #237, #90, #104, .T. ) ;
#72 = DIRECTION ( 'NONE',  ( 1.301042606982610005E-16, 1.000000000000000000, 0.0000000000000000000 ) ) ;
#73 = DIRECTION ( 'NONE',  ( 1.224646799147353207E-16, 1.000000000000000000, 0.0000000000000000000 ) ) ;
#74 = LINE ( 'NONE', #186, #28 ) ;
#75 = CARTESIAN_POINT ( 'NONE',  ( 0.5000000000000004441, -6.123233995736752477E-17, 0.0000000000000000000 ) ) ;
#76 = ORIENTED_EDGE ( 'NONE', *, *, #103, .T. ) ;
#77 =( NAMED_UNIT ( * ) PLANE_ANGLE_UNIT ( ) SI_UNIT ( $, .RADIAN. ) );
#78 = ORIENTED_EDGE ( 'NONE', *, *, #56, .T. ) ;
#79 = CLOSED_SHELL ( 'NONE', ( #21, #148, #209, #37, #164, #191, #222, #2 ) ) ;
#80 =( GEOMETRIC_REPRESENTATION_CONTEXT ( 3 ) GLOBAL_UNCERTAINTY_ASSIGNED_CONTEXT ( ( #1 ) ) GLOBAL_UNIT_ASSIGNED_CONTEXT ( ( #18, #120, #201 ) ) REPRESENTATION_CONTEXT ( 'NONE', 'WORKASPACE' ) );
#81 = CIRCLE ( 'NONE', #176, 4.849999999999991651 ) ;
#82 = CYLINDRICAL_SURFACE ( 'NONE', #183, 4.999999999999986677 ) ;
#83 = VECTOR ( 'NONE', #4, 1000.000000000000000 ) ;
#84 = LINE ( 'NONE', #163, #118 ) ;
#85 = FACE_OUTER_BOUND ( 'NONE', #169, .T. ) ;
#86 = VERTEX_POINT ( 'NONE', #126 ) ;
#87 = DIRECTION ( 'NONE',  ( 1.000000000000000000, -1.224646799147353207E-16, -0.0000000000000000000 ) ) ;
#88 = CARTESIAN_POINT ( 'NONE',  ( 5.510910596163066876E-16, 4.499999999999981348, 0.0000000000000000000 ) ) ;
#89 = MECHANICAL_DESIGN_GEOMETRIC_PRESENTATION_REPRESENTATION (  '', ( #113 ), #80 ) ;
#90 = VERTEX_POINT ( 'NONE', #144 ) ;
#91 =( NAMED_UNIT ( * ) PLANE_ANGLE_UNIT ( ) SI_UNIT ( $, .RADIAN. ) );
#92 = ORIENTED_EDGE ( 'NONE', *, *, #13, .F. ) ;
#93 = DIRECTION ( 'NONE',  ( 0.0000000000000000000, -1.000000000000000000, 0.0000000000000000000 ) ) ;
#94 = CIRCLE ( 'NONE', #100, 4.999999999999991118 ) ;
#95 = ORIENTED_EDGE ( 'NONE', *, *, #205, .T. ) ;
#96 = ORIENTED_EDGE ( 'NONE', *, *, #71, .T. ) ;
#97 = DIRECTION ( 'NONE',  ( -1.000000000000000000, 1.224646799147353207E-16, 0.0000000000000000000 ) ) ;
#98 = ADVANCED_BREP_SHAPE_REPRESENTATION ( '95-1-75455-1030', ( #240, #11 ), #213 ) ;
#99 = CARTESIAN_POINT ( 'NONE',  ( 0.0000000000000000000, 0.0000000000000000000, 0.0000000000000000000 ) ) ;
#100 = AXIS2_PLACEMENT_3D ( 'NONE', #216, #87, #127 ) ;
#101 = AXIS2_PLACEMENT_3D ( 'NONE', #75, #218, #204 ) ;
#102 = APPLICATION_PROTOCOL_DEFINITION ( 'draft international standard', 'automotive_design', 1998, #105 ) ;
#103 = EDGE_CURVE ( 'NONE', #90, #219, #94, .T. ) ;
#104 = LINE ( 'NONE', #110, #192 ) ;
#105 = APPLICATION_CONTEXT ( 'automotive_design' ) ;
#106 = DIRECTION ( 'NONE',  ( 1.301042606982610005E-16, 1.000000000000000000, 0.0000000000000000000 ) ) ;
#107 = FACE_OUTER_BOUND ( 'NONE', #168, .T. ) ;
#108 = VERTEX_POINT ( 'NONE', #6 ) ;
#109 = DIRECTION ( 'NONE',  ( 1.000000000000000000, -1.224646799147353207E-16, -0.0000000000000000000 ) ) ;
#110 = CARTESIAN_POINT ( 'NONE',  ( 75.00000000000000000, 4.999999999999977796, 0.0000000000000000000 ) ) ;
#111 =( NAMED_UNIT ( * ) SI_UNIT ( $, .STERADIAN. ) SOLID_ANGLE_UNIT ( ) );
#112 = AXIS2_PLACEMENT_3D ( 'NONE', #48, #131, #106 ) ;
#113 = STYLED_ITEM ( 'NONE', ( #139 ), #98 ) ;
#114 = ORIENTED_EDGE ( 'NONE', *, *, #171, .F. ) ;
#115 = SURFACE_STYLE_FILL_AREA ( #149 ) ;
#116 = VERTEX_POINT ( 'NONE', #88 ) ;
#117 = ORIENTED_EDGE ( 'NONE', *, *, #171, .T. ) ;
#118 = VECTOR ( 'NONE', #165, 1000.000000000000000 ) ;
#119 = ORIENTED_EDGE ( 'NONE', *, *, #19, .F. ) ;
#120 =( NAMED_UNIT ( * ) PLANE_ANGLE_UNIT ( ) SI_UNIT ( $, .RADIAN. ) );
#121 = CARTESIAN_POINT ( 'NONE',  ( 0.4999999999999997780, -4.999999999999982236, 6.123233995736743603E-16 ) ) ;
#122 = CIRCLE ( 'NONE', #227, 4.999999999999991118 ) ;
#123 = EDGE_CURVE ( 'NONE', #197, #86, #81, .T. ) ;
#124 = AXIS2_PLACEMENT_3D ( 'NONE', #214, #67, #199 ) ;
#125 = CARTESIAN_POINT ( 'NONE',  ( 75.00000000000000000, -9.184850993605148733E-15, 0.0000000000000000000 ) ) ;
#126 = CARTESIAN_POINT ( 'NONE',  ( 75.00000000000000000, -4.850000000000001421, 0.0000000000000000000 ) ) ;
#127 = DIRECTION ( 'NONE',  ( 0.0000000000000000000, 1.000000000000000000, 0.0000000000000000000 ) ) ;
#128 = ORIENTED_EDGE ( 'NONE', *, *, #40, .F. ) ;
#129 = CIRCLE ( 'NONE', #39, 4.849999999999991651 ) ;
#130 = CARTESIAN_POINT ( 'NONE',  ( 0.5000000000000004441, -6.123233995736752477E-17, 0.0000000000000000000 ) ) ;
#131 = DIRECTION ( 'NONE',  ( 1.000000000000000000, -1.224646799147353207E-16, -0.0000000000000000000 ) ) ;
#132 = UNCERTAINTY_MEASURE_WITH_UNIT (LENGTH_MEASURE( 1.000000000000000082E-05 ), #236, 'distance_accuracy_value', 'NONE');
#133 = ORIENTED_EDGE ( 'NONE', *, *, #123, .T. ) ;
#134 = SURFACE_SIDE_STYLE ('',( #147 ) ) ;
#135 = CONICAL_SURFACE ( 'NONE', #5, 4.999999999999982236, 0.7853981633974482790 ) ;
#136 = DIRECTION ( 'NONE',  ( 1.000000000000000000, -1.224646799147353207E-16, -0.0000000000000000000 ) ) ;
#137 = CARTESIAN_POINT ( 'NONE',  ( 75.00000000000000000, -9.184850993605148733E-15, 0.0000000000000000000 ) ) ;
#138 = ORIENTED_EDGE ( 'NONE', *, *, #13, .T. ) ;
#139 = PRESENTATION_STYLE_ASSIGNMENT (( #59 ) ) ;
#140 = ORIENTED_EDGE ( 'NONE', *, *, #40, .T. ) ;
#141 = CONICAL_SURFACE ( 'NONE', #124, 4.849999999999991651, 0.7853981633974569387 ) ;
#142 = AXIS2_PLACEMENT_3D ( 'NONE', #46, #173, #44 ) ;
#143 = DIRECTION ( 'NONE',  ( 1.000000000000000000, -1.224646799147353207E-16, -0.0000000000000000000 ) ) ;
#144 = CARTESIAN_POINT ( 'NONE',  ( 74.84999999999999432, 4.999999999999982236, 0.0000000000000000000 ) ) ;
#145 = DIRECTION ( 'NONE',  ( 1.224646799147353207E-16, 1.000000000000000000, 0.0000000000000000000 ) ) ;
#146 = DIRECTION ( 'NONE',  ( 1.000000000000000000, -1.224646799147353207E-16, -0.0000000000000000000 ) ) ;
#147 = SURFACE_STYLE_FILL_AREA ( #155 ) ;
#148 = ADVANCED_FACE ( 'NONE', ( #215 ), #9, .T. ) ;
#149 = FILL_AREA_STYLE ('',( #34 ) ) ;
#150 = CARTESIAN_POINT ( 'NONE',  ( 75.00000000000000000, -9.184850993605148733E-15, 0.0000000000000000000 ) ) ;
#151 = PRESENTATION_LAYER_ASSIGNMENT (  '', '', ( #172 ) ) ;
#152 = FACE_OUTER_BOUND ( 'NONE', #27, .T. ) ;
#153 = SURFACE_SIDE_STYLE ('',( #115 ) ) ;
#154 = ORIENTED_EDGE ( 'NONE', *, *, #56, .F. ) ;
#155 = FILL_AREA_STYLE ('',( #239 ) ) ;
#156 = ORIENTED_EDGE ( 'NONE', *, *, #19, .T. ) ;
#157 = AXIS2_PLACEMENT_3D ( 'NONE', #31, #12, #73 ) ;
#158 = PRODUCT_DEFINITION_FORMATION_WITH_SPECIFIED_SOURCE ( 'ANY', '', #180, .NOT_KNOWN. ) ;
#159 = DIRECTION ( 'NONE',  ( 1.000000000000000000, 0.0000000000000000000, 0.0000000000000000000 ) ) ;
#160 = EDGE_CURVE ( 'NONE', #116, #237, #217, .T. ) ;
#161 = DIRECTION ( 'NONE',  ( -1.000000000000000000, 1.224646799147353207E-16, 0.0000000000000000000 ) ) ;
#162 = VECTOR ( 'NONE', #66, 1000.000000000000000 ) ;
#163 = CARTESIAN_POINT ( 'NONE',  ( 0.4999999999999997780, -4.999999999999982236, 6.123233995736743603E-16 ) ) ;
#164 = ADVANCED_FACE ( 'NONE', ( #85 ), #10, .T. ) ;
#165 = DIRECTION ( 'NONE',  ( 0.7071067811865474617, -0.7071067811865476838, 8.659560562354934091E-17 ) ) ;
#166 = CARTESIAN_POINT ( 'NONE',  ( 75.00000000000000000, -9.184850993605148733E-15, 0.0000000000000000000 ) ) ;
#167 = CARTESIAN_POINT ( 'NONE',  ( 75.00000000000000000, -4.850000000000001421, 0.0000000000000000000 ) ) ;
#168 = EDGE_LOOP ( 'NONE', ( #114, #33, #96, #45 ) ) ;
#169 = EDGE_LOOP ( 'NONE', ( #230, #156, #207, #185 ) ) ;
#170 = APPLICATION_PROTOCOL_DEFINITION ( 'draft international standard', 'automotive_design', 1998, #23 ) ;
#171 = EDGE_CURVE ( 'NONE', #16, #219, #25, .T. ) ;
#172 = STYLED_ITEM ( 'NONE', ( #187 ), #240 ) ;
#173 = DIRECTION ( 'NONE',  ( 1.000000000000000000, -1.224646799147353207E-16, -0.0000000000000000000 ) ) ;
#174 = PRODUCT_DEFINITION_CONTEXT ( 'detailed design', #105, 'design' ) ;
#175 = DIRECTION ( 'NONE',  ( 1.000000000000000000, -1.224646799147353207E-16, -0.0000000000000000000 ) ) ;
#176 = AXIS2_PLACEMENT_3D ( 'NONE', #166, #226, #200 ) ;
#177 = PRODUCT_DEFINITION ( 'UNKNOWN', '', #158, #174 ) ;
#178 = PLANE ( 'NONE',  #47 ) ;
#179 = ORIENTED_EDGE ( 'NONE', *, *, #62, .T. ) ;
#180 = PRODUCT ( '95-1-75455-1030', '95-1-75455-1030', '', ( #223 ) ) ;
#181 = DIRECTION ( 'NONE',  ( 1.301042606982610005E-16, 1.000000000000000000, 0.0000000000000000000 ) ) ;
#182 = CARTESIAN_POINT ( 'NONE',  ( -2.755455298081533438E-16, 3.374459510989165933E-32, 0.0000000000000000000 ) ) ;
#183 = AXIS2_PLACEMENT_3D ( 'NONE', #125, #143, #194 ) ;
#184 = EDGE_LOOP ( 'NONE', ( #92, #238, #179, #54 ) ) ;
#185 = ORIENTED_EDGE ( 'NONE', *, *, #225, .F. ) ;
#186 = CARTESIAN_POINT ( 'NONE',  ( 75.00000000000000000, 4.849999999999981881, 5.939536975864652122E-16 ) ) ;
#187 = PRESENTATION_STYLE_ASSIGNMENT (( #221 ) ) ;
#188 = VECTOR ( 'NONE', #29, 1000.000000000000000 ) ;
#189 = ORIENTED_EDGE ( 'NONE', *, *, #123, .F. ) ;
#190 = EDGE_CURVE ( 'NONE', #219, #90, #122, .T. ) ;
#191 = ADVANCED_FACE ( 'NONE', ( #107 ), #82, .T. ) ;
#192 = VECTOR ( 'NONE', #146, 1000.000000000000000 ) ;
#193 = CIRCLE ( 'NONE', #224, 4.499999999999981348 ) ;
#194 = DIRECTION ( 'NONE',  ( 0.0000000000000000000, 1.000000000000000000, 0.0000000000000000000 ) ) ;
#195 = FACE_OUTER_BOUND ( 'NONE', #58, .T. ) ;
#196 = FACE_OUTER_BOUND ( 'NONE', #52, .T. ) ;
#197 = VERTEX_POINT ( 'NONE', #43 ) ;
#198 = AXIS2_PLACEMENT_3D ( 'NONE', #3, #24, #65 ) ;
#199 = DIRECTION ( 'NONE',  ( 0.0000000000000000000, -1.000000000000000000, 0.0000000000000000000 ) ) ;
#200 = DIRECTION ( 'NONE',  ( 0.0000000000000000000, 1.000000000000000000, 0.0000000000000000000 ) ) ;
#201 =( NAMED_UNIT ( * ) SI_UNIT ( $, .STERADIAN. ) SOLID_ANGLE_UNIT ( ) );
#202 = CIRCLE ( 'NONE', #53, 4.999999999999982236 ) ;
#203 = PLANE ( 'NONE',  #157 ) ;
#204 = DIRECTION ( 'NONE',  ( 1.301042606982610005E-16, 1.000000000000000000, 0.0000000000000000000 ) ) ;
#205 = EDGE_CURVE ( 'NONE', #108, #16, #84, .T. ) ;
#206 = ORIENTED_EDGE ( 'NONE', *, *, #62, .F. ) ;
#207 = ORIENTED_EDGE ( 'NONE', *, *, #160, .T. ) ;
#208 = FACE_OUTER_BOUND ( 'NONE', #184, .T. ) ;
#209 = ADVANCED_FACE ( 'NONE', ( #229 ), #135, .T. ) ;
#210 = DIRECTION ( 'NONE',  ( 0.0000000000000000000, 0.0000000000000000000, 1.000000000000000000 ) ) ;
#211 = DIRECTION ( 'NONE',  ( 1.000000000000000000, -1.224646799147353207E-16, -0.0000000000000000000 ) ) ;
#212 = AXIS2_PLACEMENT_3D ( 'NONE', #137, #97, #93 ) ;
#213 =( GEOMETRIC_REPRESENTATION_CONTEXT ( 3 ) GLOBAL_UNCERTAINTY_ASSIGNED_CONTEXT ( ( #132 ) ) GLOBAL_UNIT_ASSIGNED_CONTEXT ( ( #236, #77, #111 ) ) REPRESENTATION_CONTEXT ( 'NONE', 'WORKASPACE' ) );
#214 = CARTESIAN_POINT ( 'NONE',  ( 75.00000000000000000, -9.184850993605148733E-15, 0.0000000000000000000 ) ) ;
#215 = FACE_OUTER_BOUND ( 'NONE', #36, .T. ) ;
#216 = CARTESIAN_POINT ( 'NONE',  ( 74.84999999999999432, -9.166481291617939092E-15, 0.0000000000000000000 ) ) ;
#217 = LINE ( 'NONE', #26, #83 ) ;
#218 = DIRECTION ( 'NONE',  ( 1.000000000000000000, -1.224646799147353207E-16, -0.0000000000000000000 ) ) ;
#219 = VERTEX_POINT ( 'NONE', #69 ) ;
#220 = EDGE_LOOP ( 'NONE', ( #78, #95, #128, #235 ) ) ;
#221 = SURFACE_STYLE_USAGE ( .BOTH. , #153 ) ;
#222 = ADVANCED_FACE ( 'NONE', ( #208 ), #35, .T. ) ;
#223 = PRODUCT_CONTEXT ( 'NONE', #23, 'mechanical' ) ;
#224 = AXIS2_PLACEMENT_3D ( 'NONE', #99, #61, #145 ) ;
#225 = EDGE_CURVE ( 'NONE', #16, #237, #232, .T. ) ;
#226 = DIRECTION ( 'NONE',  ( 1.000000000000000000, -1.224646799147353207E-16, -0.0000000000000000000 ) ) ;
#227 = AXIS2_PLACEMENT_3D ( 'NONE', #30, #211, #231 ) ;
#228 = DIRECTION ( 'NONE',  ( -1.224646799147353207E-16, -1.000000000000000000, 0.0000000000000000000 ) ) ;
#229 = FACE_OUTER_BOUND ( 'NONE', #220, .T. ) ;
#230 = ORIENTED_EDGE ( 'NONE', *, *, #205, .F. ) ;
#231 = DIRECTION ( 'NONE',  ( 0.0000000000000000000, 1.000000000000000000, 0.0000000000000000000 ) ) ;
#232 = CIRCLE ( 'NONE', #101, 4.999999999999982236 ) ;
#233 = CARTESIAN_POINT ( 'NONE',  ( 0.5000000000000004441, -6.123233995736752477E-17, 0.0000000000000000000 ) ) ;
#234 =( LENGTH_UNIT ( ) NAMED_UNIT ( * ) SI_UNIT ( .MILLI., .METRE. ) );
#235 = ORIENTED_EDGE ( 'NONE', *, *, #160, .F. ) ;
#236 =( LENGTH_UNIT ( ) NAMED_UNIT ( * ) SI_UNIT ( .MILLI., .METRE. ) );
#237 = VERTEX_POINT ( 'NONE', #49 ) ;
#238 = ORIENTED_EDGE ( 'NONE', *, *, #7, .F. ) ;
#239 = FILL_AREA_STYLE_COLOUR ( '', #41 ) ;
#240 = MANIFOLD_SOLID_BREP ( 'Rotation1', #79 ) ;
ENDSEC;
END-ISO-10303-21;
