ISO-10303-21;
HEADER;
FILE_DESCRIPTION (( 'STEP AP214' ),
    '1' );
FILE_NAME ('95-1-75450-1030.STEP',
    '2021-01-11T14:25:45',
    ( '' ),
    ( '' ),
    'SwSTEP 2.0',
    'SolidWorks 2020',
    '' );
FILE_SCHEMA (( 'AUTOMOTIVE_DESIGN' ));
ENDSEC;

DATA;
#1 = FILL_AREA_STYLE ('',( #137 ) ) ;
#2 = VECTOR ( 'NONE', #92, 1000.000000000000000 ) ;
#3 = DIRECTION ( 'NONE',  ( 1.000000000000000000, -1.224646799147353207E-16, -0.0000000000000000000 ) ) ;
#4 = ORIENTED_EDGE ( 'NONE', *, *, #108, .F. ) ;
#5 = UNCERTAINTY_MEASURE_WITH_UNIT (LENGTH_MEASURE( 1.000000000000000082E-05 ), #199, 'distance_accuracy_value', 'NONE');
#6 =( LENGTH_UNIT ( ) NAMED_UNIT ( * ) SI_UNIT ( .MILLI., .METRE. ) );
#7 = STYLED_ITEM ( 'NONE', ( #188 ), #141 ) ;
#8 = DIRECTION ( 'NONE',  ( 1.000000000000000000, -1.224646799147353207E-16, -0.0000000000000000000 ) ) ;
#9 = VERTEX_POINT ( 'NONE', #182 ) ;
#10 = FILL_AREA_STYLE ('',( #211 ) ) ;
#11 = VERTEX_POINT ( 'NONE', #236 ) ;
#12 = MECHANICAL_DESIGN_GEOMETRIC_PRESENTATION_REPRESENTATION (  '', ( #168 ), #181 ) ;
#13 = CARTESIAN_POINT ( 'NONE',  ( 0.5000000000000011102, 4.999999999999982236, 0.0000000000000000000 ) ) ;
#14 = CARTESIAN_POINT ( 'NONE',  ( 75.00000000000000000, 4.849999999999981881, 6.031385485800704272E-16 ) ) ;
#15 = APPLICATION_CONTEXT ( 'automotive_design' ) ;
#16 = FACE_OUTER_BOUND ( 'NONE', #114, .T. ) ;
#17 = VERTEX_POINT ( 'NONE', #14 ) ;
#18 = DIRECTION ( 'NONE',  ( 1.000000000000000000, -1.224646799147353207E-16, -0.0000000000000000000 ) ) ;
#19 = VECTOR ( 'NONE', #130, 1000.000000000000000 ) ;
#20 = CARTESIAN_POINT ( 'NONE',  ( 74.84999999999999432, 4.999999999999982236, 0.0000000000000000000 ) ) ;
#21 = ADVANCED_FACE ( 'NONE', ( #149 ), #160, .T. ) ;
#22 = DIRECTION ( 'NONE',  ( 1.000000000000000000, 0.0000000000000000000, 0.0000000000000000000 ) ) ;
#23 = APPLICATION_CONTEXT ( 'automotive_design' ) ;
#24 = PRODUCT_DEFINITION_SHAPE ( 'NONE', 'NONE',  #122 ) ;
#25 = AXIS2_PLACEMENT_3D ( 'NONE', #200, #233, #197 ) ;
#26 = CARTESIAN_POINT ( 'NONE',  ( 75.00000000000000000, -4.999999999999996447, 6.123233995736750505E-16 ) ) ;
#27 = EDGE_CURVE ( 'NONE', #226, #9, #93, .T. ) ;
#28 = DIRECTION ( 'NONE',  ( 1.301042606982610005E-16, 1.000000000000000000, 0.0000000000000000000 ) ) ;
#29 = MECHANICAL_DESIGN_GEOMETRIC_PRESENTATION_REPRESENTATION (  '', ( #7 ), #74 ) ;
#30 = DIRECTION ( 'NONE',  ( 1.000000000000000000, -1.224646799147353207E-16, -0.0000000000000000000 ) ) ;
#31 = CARTESIAN_POINT ( 'NONE',  ( 75.00000000000000000, -4.850000000000001421, 0.0000000000000000000 ) ) ;
#32 = ORIENTED_EDGE ( 'NONE', *, *, #68, .F. ) ;
#33 = VERTEX_POINT ( 'NONE', #127 ) ;
#34 = AXIS2_PLACEMENT_3D ( 'NONE', #173, #8, #123 ) ;
#35 = DIRECTION ( 'NONE',  ( -1.224646799147353207E-16, -1.000000000000000000, 0.0000000000000000000 ) ) ;
#36 = EDGE_CURVE ( 'NONE', #216, #33, #227, .T. ) ;
#37 = EDGE_LOOP ( 'NONE', ( #228, #82, #151, #4 ) ) ;
#38 =( NAMED_UNIT ( * ) PLANE_ANGLE_UNIT ( ) SI_UNIT ( $, .RADIAN. ) );
#39 = ORIENTED_EDGE ( 'NONE', *, *, #204, .T. ) ;
#40 = FACE_OUTER_BOUND ( 'NONE', #96, .T. ) ;
#41 = EDGE_CURVE ( 'NONE', #216, #9, #177, .T. ) ;
#42 = DIRECTION ( 'NONE',  ( 1.224646799147353207E-16, 1.000000000000000000, 0.0000000000000000000 ) ) ;
#43 = SURFACE_STYLE_USAGE ( .BOTH. , #44 ) ;
#44 = SURFACE_SIDE_STYLE ('',( #189 ) ) ;
#45 = EDGE_CURVE ( 'NONE', #11, #17, #154, .T. ) ;
#46 = EDGE_CURVE ( 'NONE', #33, #226, #102, .T. ) ;
#47 = EDGE_LOOP ( 'NONE', ( #60, #88, #77, #165 ) ) ;
#48 = ADVANCED_FACE ( 'NONE', ( #196 ), #111, .T. ) ;
#49 = CIRCLE ( 'NONE', #118, 4.999999999999991118 ) ;
#50 = ORIENTED_EDGE ( 'NONE', *, *, #81, .F. ) ;
#51 = DIRECTION ( 'NONE',  ( 1.000000000000000000, -1.224646799147353207E-16, -0.0000000000000000000 ) ) ;
#52 = DIRECTION ( 'NONE',  ( 1.000000000000000000, -1.224646799147353207E-16, -0.0000000000000000000 ) ) ;
#53 = DIRECTION ( 'NONE',  ( 1.301042606982610005E-16, 1.000000000000000000, 0.0000000000000000000 ) ) ;
#54 = AXIS2_PLACEMENT_3D ( 'NONE', #148, #144, #203 ) ;
#55 = FACE_OUTER_BOUND ( 'NONE', #47, .T. ) ;
#56 = DIRECTION ( 'NONE',  ( -0.7071067811865413555, 0.7071067811865536790, 8.659560562355008046E-17 ) ) ;
#57 = DIRECTION ( 'NONE',  ( 1.224646799147353207E-16, 1.000000000000000000, 0.0000000000000000000 ) ) ;
#58 = CARTESIAN_POINT ( 'NONE',  ( -2.755455298081533438E-16, 3.374459510989165933E-32, 0.0000000000000000000 ) ) ;
#59 = COLOUR_RGB ( '',0.7921568627450980005, 0.8196078431372548767, 0.9333333333333333481 ) ;
#60 = ORIENTED_EDGE ( 'NONE', *, *, #190, .T. ) ;
#61 = PRODUCT_CONTEXT ( 'NONE', #23, 'mechanical' ) ;
#62 = AXIS2_PLACEMENT_3D ( 'NONE', #234, #51, #75 ) ;
#63 = ORIENTED_EDGE ( 'NONE', *, *, #45, .T. ) ;
#64 = PRODUCT_RELATED_PRODUCT_CATEGORY ( 'part', '', ( #84 ) ) ;
#65 = DIRECTION ( 'NONE',  ( 0.0000000000000000000, 1.000000000000000000, 0.0000000000000000000 ) ) ;
#66 = PRESENTATION_LAYER_ASSIGNMENT (  '', '', ( #168 ) ) ;
#67 = UNCERTAINTY_MEASURE_WITH_UNIT (LENGTH_MEASURE( 1.000000000000000082E-05 ), #222, 'distance_accuracy_value', 'NONE');
#68 = EDGE_CURVE ( 'NONE', #17, #11, #121, .T. ) ;
#69 = CARTESIAN_POINT ( 'NONE',  ( 0.5000000000000004441, -6.123233995736752477E-17, 0.0000000000000000000 ) ) ;
#70 = EDGE_CURVE ( 'NONE', #9, #97, #142, .T. ) ;
#71 = CARTESIAN_POINT ( 'NONE',  ( 74.84999999999999432, -9.166481291617939092E-15, 0.0000000000000000000 ) ) ;
#72 = DIRECTION ( 'NONE',  ( 1.000000000000000000, -1.224646799147353207E-16, -0.0000000000000000000 ) ) ;
#73 = AXIS2_PLACEMENT_3D ( 'NONE', #193, #212, #209 ) ;
#74 =( GEOMETRIC_REPRESENTATION_CONTEXT ( 3 ) GLOBAL_UNCERTAINTY_ASSIGNED_CONTEXT ( ( #67 ) ) GLOBAL_UNIT_ASSIGNED_CONTEXT ( ( #222, #119, #131 ) ) REPRESENTATION_CONTEXT ( 'NONE', 'WORKASPACE' ) );
#75 = DIRECTION ( 'NONE',  ( 1.301042606982610005E-16, 1.000000000000000000, 0.0000000000000000000 ) ) ;
#76 = CYLINDRICAL_SURFACE ( 'NONE', #101, 4.999999999999986677 ) ;
#77 = ORIENTED_EDGE ( 'NONE', *, *, #27, .F. ) ;
#78 = CONICAL_SURFACE ( 'NONE', #128, 4.999999999999982236, 0.7853981633974482790 ) ;
#79 = ORIENTED_EDGE ( 'NONE', *, *, #204, .F. ) ;
#80 = AXIS2_PLACEMENT_3D ( 'NONE', #71, #145, #215 ) ;
#81 = EDGE_CURVE ( 'NONE', #9, #226, #176, .T. ) ;
#82 = ORIENTED_EDGE ( 'NONE', *, *, #70, .T. ) ;
#83 = DIRECTION ( 'NONE',  ( 1.000000000000000000, -1.224646799147353207E-16, -0.0000000000000000000 ) ) ;
#84 = PRODUCT ( '95-1-75450-1030', '95-1-75450-1030', '', ( #61 ) ) ;
#85 = ORIENTED_EDGE ( 'NONE', *, *, #108, .T. ) ;
#86 = AXIS2_PLACEMENT_3D ( 'NONE', #99, #72, #53 ) ;
#87 = COLOUR_RGB ( '',0.7921568627450980005, 0.8196078431372548767, 0.9333333333333333481 ) ;
#88 = ORIENTED_EDGE ( 'NONE', *, *, #41, .T. ) ;
#89 = SURFACE_SIDE_STYLE ('',( #107 ) ) ;
#90 = MANIFOLD_SOLID_BREP ( 'Rotation1', #191 ) ;
#91 = EDGE_LOOP ( 'NONE', ( #169, #164, #85, #214 ) ) ;
#92 = DIRECTION ( 'NONE',  ( 0.7071067811865474617, -0.7071067811865476838, 8.659560562354934091E-17 ) ) ;
#93 = CIRCLE ( 'NONE', #86, 4.999999999999982236 ) ;
#94 = EDGE_LOOP ( 'NONE', ( #63, #112 ) ) ;
#95 = CYLINDRICAL_SURFACE ( 'NONE', #54, 4.999999999999986677 ) ;
#96 = EDGE_LOOP ( 'NONE', ( #116, #201, #240, #50 ) ) ;
#97 = VERTEX_POINT ( 'NONE', #104 ) ;
#98 = AXIS2_PLACEMENT_3D ( 'NONE', #152, #120, #22 ) ;
#99 = CARTESIAN_POINT ( 'NONE',  ( 0.5000000000000004441, -6.123233995736752477E-17, 0.0000000000000000000 ) ) ;
#100 = FACE_OUTER_BOUND ( 'NONE', #161, .T. ) ;
#101 = AXIS2_PLACEMENT_3D ( 'NONE', #230, #126, #198 ) ;
#102 = LINE ( 'NONE', #192, #221 ) ;
#103 = ORIENTED_EDGE ( 'NONE', *, *, #184, .T. ) ;
#104 = CARTESIAN_POINT ( 'NONE',  ( 74.84999999999999432, -5.000000000000000888, 6.123233995736761352E-16 ) ) ;
#105 = AXIS2_PLACEMENT_3D ( 'NONE', #58, #113, #35 ) ;
#106 = ADVANCED_FACE ( 'NONE', ( #55 ), #78, .T. ) ;
#107 = SURFACE_STYLE_FILL_AREA ( #10 ) ;
#108 = EDGE_CURVE ( 'NONE', #226, #132, #163, .T. ) ;
#109 = DIRECTION ( 'NONE',  ( 1.301042606982610005E-16, 1.000000000000000000, 0.0000000000000000000 ) ) ;
#110 = ADVANCED_FACE ( 'NONE', ( #220 ), #95, .T. ) ;
#111 = CONICAL_SURFACE ( 'NONE', #73, 4.849999999999991651, 0.7853981633974569387 ) ;
#112 = ORIENTED_EDGE ( 'NONE', *, *, #68, .T. ) ;
#113 = DIRECTION ( 'NONE',  ( -1.000000000000000000, 1.224646799147353207E-16, 0.0000000000000000000 ) ) ;
#114 = EDGE_LOOP ( 'NONE', ( #238, #213 ) ) ;
#115 = DIRECTION ( 'NONE',  ( -1.000000000000000000, 1.224646799147353207E-16, 0.0000000000000000000 ) ) ;
#116 = ORIENTED_EDGE ( 'NONE', *, *, #41, .F. ) ;
#117 = DIRECTION ( 'NONE',  ( -0.7071067811865415775, -0.7071067811865535679, 0.0000000000000000000 ) ) ;
#118 = AXIS2_PLACEMENT_3D ( 'NONE', #129, #52, #218 ) ;
#119 =( NAMED_UNIT ( * ) PLANE_ANGLE_UNIT ( ) SI_UNIT ( $, .RADIAN. ) );
#120 = DIRECTION ( 'NONE',  ( 0.0000000000000000000, 0.0000000000000000000, 1.000000000000000000 ) ) ;
#121 = CIRCLE ( 'NONE', #207, 4.849999999999991651 ) ;
#122 = PRODUCT_DEFINITION ( 'UNKNOWN', '', #235, #224 ) ;
#123 = DIRECTION ( 'NONE',  ( 0.0000000000000000000, 1.000000000000000000, 0.0000000000000000000 ) ) ;
#124 = EDGE_LOOP ( 'NONE', ( #175, #179, #39, #153 ) ) ;
#125 = ADVANCED_FACE ( 'NONE', ( #16 ), #180, .T. ) ;
#126 = DIRECTION ( 'NONE',  ( 1.000000000000000000, -1.224646799147353207E-16, -0.0000000000000000000 ) ) ;
#127 = CARTESIAN_POINT ( 'NONE',  ( 5.510910596163066876E-16, 4.499999999999981348, 0.0000000000000000000 ) ) ;
#128 = AXIS2_PLACEMENT_3D ( 'NONE', #156, #166, #109 ) ;
#129 = CARTESIAN_POINT ( 'NONE',  ( 74.84999999999999432, -9.166481291617939092E-15, 0.0000000000000000000 ) ) ;
#130 = DIRECTION ( 'NONE',  ( 1.000000000000000000, -1.224646799147353207E-16, -0.0000000000000000000 ) ) ;
#131 =( NAMED_UNIT ( * ) SI_UNIT ( $, .STERADIAN. ) SOLID_ANGLE_UNIT ( ) );
#132 = VERTEX_POINT ( 'NONE', #20 ) ;
#133 = SHAPE_DEFINITION_REPRESENTATION ( #24, #141 ) ;
#134 = AXIS2_PLACEMENT_3D ( 'NONE', #237, #115, #159 ) ;
#135 = APPLICATION_PROTOCOL_DEFINITION ( 'draft international standard', 'automotive_design', 1998, #23 ) ;
#136 =( GEOMETRIC_REPRESENTATION_CONTEXT ( 3 ) GLOBAL_UNCERTAINTY_ASSIGNED_CONTEXT ( ( #5 ) ) GLOBAL_UNIT_ASSIGNED_CONTEXT ( ( #199, #38, #217 ) ) REPRESENTATION_CONTEXT ( 'NONE', 'WORKASPACE' ) );
#137 = FILL_AREA_STYLE_COLOUR ( '', #87 ) ;
#138 = ADVANCED_FACE ( 'NONE', ( #40 ), #155, .T. ) ;
#139 = UNCERTAINTY_MEASURE_WITH_UNIT (LENGTH_MEASURE( 1.000000000000000082E-05 ), #6, 'distance_accuracy_value', 'NONE');
#140 = AXIS2_PLACEMENT_3D ( 'NONE', #219, #231, #57 ) ;
#141 = ADVANCED_BREP_SHAPE_REPRESENTATION ( '95-1-75450-1030', ( #90, #98 ), #136 ) ;
#142 = LINE ( 'NONE', #26, #143 ) ;
#143 = VECTOR ( 'NONE', #3, 1000.000000000000000 ) ;
#144 = DIRECTION ( 'NONE',  ( 1.000000000000000000, -1.224646799147353207E-16, -0.0000000000000000000 ) ) ;
#145 = DIRECTION ( 'NONE',  ( 1.000000000000000000, -1.224646799147353207E-16, -0.0000000000000000000 ) ) ;
#146 = EDGE_CURVE ( 'NONE', #132, #97, #49, .T. ) ;
#147 = CONICAL_SURFACE ( 'NONE', #134, 4.849999999999991651, 0.7853981633974569387 ) ;
#148 = CARTESIAN_POINT ( 'NONE',  ( 75.00000000000000000, -9.184850993605148733E-15, 0.0000000000000000000 ) ) ;
#149 = FACE_OUTER_BOUND ( 'NONE', #94, .T. ) ;
#150 = LINE ( 'NONE', #31, #223 ) ;
#151 = ORIENTED_EDGE ( 'NONE', *, *, #146, .F. ) ;
#152 = CARTESIAN_POINT ( 'NONE',  ( 0.0000000000000000000, 0.0000000000000000000, 0.0000000000000000000 ) ) ;
#153 = ORIENTED_EDGE ( 'NONE', *, *, #232, .T. ) ;
#154 = CIRCLE ( 'NONE', #34, 4.849999999999991651 ) ;
#155 = CONICAL_SURFACE ( 'NONE', #62, 4.999999999999982236, 0.7853981633974482790 ) ;
#156 = CARTESIAN_POINT ( 'NONE',  ( 0.5000000000000004441, -6.123233995736752477E-17, 0.0000000000000000000 ) ) ;
#157 = CARTESIAN_POINT ( 'NONE',  ( 75.00000000000000000, -9.184850993605148733E-15, 0.0000000000000000000 ) ) ;
#158 = PRESENTATION_STYLE_ASSIGNMENT (( #178 ) ) ;
#159 = DIRECTION ( 'NONE',  ( 0.0000000000000000000, -1.000000000000000000, 0.0000000000000000000 ) ) ;
#160 = PLANE ( 'NONE',  #140 ) ;
#161 = EDGE_LOOP ( 'NONE', ( #32, #103, #162, #79 ) ) ;
#162 = ORIENTED_EDGE ( 'NONE', *, *, #146, .T. ) ;
#163 = LINE ( 'NONE', #239, #19 ) ;
#164 = ORIENTED_EDGE ( 'NONE', *, *, #81, .T. ) ;
#165 = ORIENTED_EDGE ( 'NONE', *, *, #46, .F. ) ;
#166 = DIRECTION ( 'NONE',  ( 1.000000000000000000, -1.224646799147353207E-16, -0.0000000000000000000 ) ) ;
#167 = CARTESIAN_POINT ( 'NONE',  ( 75.00000000000000000, 4.849999999999981881, 5.939536975864652122E-16 ) ) ;
#168 = STYLED_ITEM ( 'NONE', ( #158 ), #90 ) ;
#169 = ORIENTED_EDGE ( 'NONE', *, *, #70, .F. ) ;
#170 = AXIS2_PLACEMENT_3D ( 'NONE', #69, #83, #28 ) ;
#171 = APPLICATION_PROTOCOL_DEFINITION ( 'draft international standard', 'automotive_design', 1998, #15 ) ;
#172 = ADVANCED_FACE ( 'NONE', ( #100 ), #147, .T. ) ;
#173 = CARTESIAN_POINT ( 'NONE',  ( 75.00000000000000000, -9.184850993605148733E-15, 0.0000000000000000000 ) ) ;
#174 = DIRECTION ( 'NONE',  ( 0.7071067811865476838, 0.7071067811865474617, 0.0000000000000000000 ) ) ;
#175 = ORIENTED_EDGE ( 'NONE', *, *, #184, .F. ) ;
#176 = CIRCLE ( 'NONE', #170, 4.999999999999982236 ) ;
#177 = LINE ( 'NONE', #225, #2 ) ;
#178 = SURFACE_STYLE_USAGE ( .BOTH. , #89 ) ;
#179 = ORIENTED_EDGE ( 'NONE', *, *, #45, .F. ) ;
#180 = PLANE ( 'NONE',  #105 ) ;
#181 =( GEOMETRIC_REPRESENTATION_CONTEXT ( 3 ) GLOBAL_UNCERTAINTY_ASSIGNED_CONTEXT ( ( #139 ) ) GLOBAL_UNIT_ASSIGNED_CONTEXT ( ( #6, #194, #210 ) ) REPRESENTATION_CONTEXT ( 'NONE', 'WORKASPACE' ) );
#182 = CARTESIAN_POINT ( 'NONE',  ( 0.4999999999999997780, -4.999999999999982236, 6.123233995736743603E-16 ) ) ;
#183 = CARTESIAN_POINT ( 'NONE',  ( -5.510910596163066876E-16, -4.499999999999981348, 5.817072295949904746E-16 ) ) ;
#184 = EDGE_CURVE ( 'NONE', #17, #132, #205, .T. ) ;
#185 = CARTESIAN_POINT ( 'NONE',  ( 0.0000000000000000000, 0.0000000000000000000, 0.0000000000000000000 ) ) ;
#186 = CIRCLE ( 'NONE', #80, 4.999999999999991118 ) ;
#187 = ADVANCED_FACE ( 'NONE', ( #202 ), #76, .T. ) ;
#188 = PRESENTATION_STYLE_ASSIGNMENT (( #43 ) ) ;
#189 = SURFACE_STYLE_FILL_AREA ( #1 ) ;
#190 = EDGE_CURVE ( 'NONE', #33, #216, #229, .T. ) ;
#191 = CLOSED_SHELL ( 'NONE', ( #172, #110, #106, #125, #138, #187, #48, #21 ) ) ;
#192 = CARTESIAN_POINT ( 'NONE',  ( 0.5000000000000011102, 4.999999999999982236, 0.0000000000000000000 ) ) ;
#193 = CARTESIAN_POINT ( 'NONE',  ( 75.00000000000000000, -9.184850993605148733E-15, 0.0000000000000000000 ) ) ;
#194 =( NAMED_UNIT ( * ) PLANE_ANGLE_UNIT ( ) SI_UNIT ( $, .RADIAN. ) );
#195 = AXIS2_PLACEMENT_3D ( 'NONE', #185, #18, #42 ) ;
#196 = FACE_OUTER_BOUND ( 'NONE', #124, .T. ) ;
#197 = DIRECTION ( 'NONE',  ( 1.224646799147353207E-16, 1.000000000000000000, 0.0000000000000000000 ) ) ;
#198 = DIRECTION ( 'NONE',  ( 0.0000000000000000000, 1.000000000000000000, 0.0000000000000000000 ) ) ;
#199 =( LENGTH_UNIT ( ) NAMED_UNIT ( * ) SI_UNIT ( .MILLI., .METRE. ) );
#200 = CARTESIAN_POINT ( 'NONE',  ( 0.0000000000000000000, 0.0000000000000000000, 0.0000000000000000000 ) ) ;
#201 = ORIENTED_EDGE ( 'NONE', *, *, #36, .T. ) ;
#202 = FACE_OUTER_BOUND ( 'NONE', #91, .T. ) ;
#203 = DIRECTION ( 'NONE',  ( 0.0000000000000000000, 1.000000000000000000, 0.0000000000000000000 ) ) ;
#204 = EDGE_CURVE ( 'NONE', #11, #97, #150, .T. ) ;
#205 = LINE ( 'NONE', #167, #206 ) ;
#206 = VECTOR ( 'NONE', #56, 1000.000000000000114 ) ;
#207 = AXIS2_PLACEMENT_3D ( 'NONE', #157, #30, #65 ) ;
#208 = PRESENTATION_LAYER_ASSIGNMENT (  '', '', ( #7 ) ) ;
#209 = DIRECTION ( 'NONE',  ( 0.0000000000000000000, -1.000000000000000000, 0.0000000000000000000 ) ) ;
#210 =( NAMED_UNIT ( * ) SI_UNIT ( $, .STERADIAN. ) SOLID_ANGLE_UNIT ( ) );
#211 = FILL_AREA_STYLE_COLOUR ( '', #59 ) ;
#212 = DIRECTION ( 'NONE',  ( -1.000000000000000000, 1.224646799147353207E-16, 0.0000000000000000000 ) ) ;
#213 = ORIENTED_EDGE ( 'NONE', *, *, #36, .F. ) ;
#214 = ORIENTED_EDGE ( 'NONE', *, *, #232, .F. ) ;
#215 = DIRECTION ( 'NONE',  ( 0.0000000000000000000, 1.000000000000000000, 0.0000000000000000000 ) ) ;
#216 = VERTEX_POINT ( 'NONE', #183 ) ;
#217 =( NAMED_UNIT ( * ) SI_UNIT ( $, .STERADIAN. ) SOLID_ANGLE_UNIT ( ) );
#218 = DIRECTION ( 'NONE',  ( 0.0000000000000000000, 1.000000000000000000, 0.0000000000000000000 ) ) ;
#219 = CARTESIAN_POINT ( 'NONE',  ( 75.00000000000000000, -9.184850993605148733E-15, 0.0000000000000000000 ) ) ;
#220 = FACE_OUTER_BOUND ( 'NONE', #37, .T. ) ;
#221 = VECTOR ( 'NONE', #174, 1000.000000000000000 ) ;
#222 =( LENGTH_UNIT ( ) NAMED_UNIT ( * ) SI_UNIT ( .MILLI., .METRE. ) );
#223 = VECTOR ( 'NONE', #117, 1000.000000000000000 ) ;
#224 = PRODUCT_DEFINITION_CONTEXT ( 'detailed design', #15, 'design' ) ;
#225 = CARTESIAN_POINT ( 'NONE',  ( 0.4999999999999997780, -4.999999999999982236, 6.123233995736743603E-16 ) ) ;
#226 = VERTEX_POINT ( 'NONE', #13 ) ;
#227 = CIRCLE ( 'NONE', #25, 4.499999999999981348 ) ;
#228 = ORIENTED_EDGE ( 'NONE', *, *, #27, .T. ) ;
#229 = CIRCLE ( 'NONE', #195, 4.499999999999981348 ) ;
#230 = CARTESIAN_POINT ( 'NONE',  ( 75.00000000000000000, -9.184850993605148733E-15, 0.0000000000000000000 ) ) ;
#231 = DIRECTION ( 'NONE',  ( 1.000000000000000000, -1.224646799147353207E-16, -0.0000000000000000000 ) ) ;
#232 = EDGE_CURVE ( 'NONE', #97, #132, #186, .T. ) ;
#233 = DIRECTION ( 'NONE',  ( 1.000000000000000000, -1.224646799147353207E-16, -0.0000000000000000000 ) ) ;
#234 = CARTESIAN_POINT ( 'NONE',  ( 0.5000000000000004441, -6.123233995736752477E-17, 0.0000000000000000000 ) ) ;
#235 = PRODUCT_DEFINITION_FORMATION_WITH_SPECIFIED_SOURCE ( 'ANY', '', #84, .NOT_KNOWN. ) ;
#236 = CARTESIAN_POINT ( 'NONE',  ( 75.00000000000000000, -4.850000000000001421, 0.0000000000000000000 ) ) ;
#237 = CARTESIAN_POINT ( 'NONE',  ( 75.00000000000000000, -9.184850993605148733E-15, 0.0000000000000000000 ) ) ;
#238 = ORIENTED_EDGE ( 'NONE', *, *, #190, .F. ) ;
#239 = CARTESIAN_POINT ( 'NONE',  ( 75.00000000000000000, 4.999999999999977796, 0.0000000000000000000 ) ) ;
#240 = ORIENTED_EDGE ( 'NONE', *, *, #46, .T. ) ;
ENDSEC;
END-ISO-10303-21;
