ISO-10303-21;
HEADER;
FILE_DESCRIPTION (( 'STEP AP203' ),
    '1' );
FILE_NAME ('132.020.09.STEP',
    '2019-01-09T00:21:44',
    ( '' ),
    ( '' ),
    'SwSTEP 2.0',
    'SolidWorks 2019',
    '' );
FILE_SCHEMA (( 'CONFIG_CONTROL_DESIGN' ));
ENDSEC;

DATA;
#1 = PERSON_AND_ORGANIZATION_ROLE ( 'creator' ) ;
#2 = DIRECTION ( 'NONE',  ( 7.113708077600358224E-15, -0.0000000000000000000, 1.000000000000000000 ) ) ;
#3 = EDGE_CURVE ( 'NONE', #165, #165, #41, .T. ) ;
#4 = PERSON_AND_ORGANIZATION ( #106, #193 ) ;
#5 = DIRECTION ( 'NONE',  ( 1.000000000000000000, 0.0000000000000000000, -6.982962677686266711E-15 ) ) ;
#6 = CALENDAR_DATE ( 2019, 9, 1 ) ;
#7 = EDGE_LOOP ( 'NONE', ( #170 ) ) ;
#8 = FACE_BOUND ( 'NONE', #222, .T. ) ;
#9 = FACE_OUTER_BOUND ( 'NONE', #34, .T. ) ;
#10 = DIRECTION ( 'NONE',  ( 1.000000000000000000, 0.0000000000000000000, -6.982962677686266711E-15 ) ) ;
#11 = PERSON_AND_ORGANIZATION_ROLE ( 'creator' ) ;
#12 = AXIS2_PLACEMENT_3D ( 'NONE', #230, #79, #43 ) ;
#13 = CONICAL_SURFACE ( 'NONE', #109, 0.1303844939755830490, 0.1745329251994260367 ) ;
#14 =( NAMED_UNIT ( * ) PLANE_ANGLE_UNIT ( ) SI_UNIT ( $, .RADIAN. ) );
#15 = CC_DESIGN_PERSON_AND_ORGANIZATION_ASSIGNMENT ( #208, #167, ( #150 ) ) ;
#16 = EDGE_LOOP ( 'NONE', ( #96 ) ) ;
#17 = PLANE ( 'NONE',  #227 ) ;
#18 = CARTESIAN_POINT ( 'NONE',  ( -2.667640529100134500E-13, 0.0000000000000000000, -37.50000000000000711 ) ) ;
#19 = FACE_OUTER_BOUND ( 'NONE', #191, .T. ) ;
#20 = FACE_OUTER_BOUND ( 'NONE', #77, .T. ) ;
#21 = DATE_TIME_ROLE ( 'creation_date' ) ;
#22 = FACE_OUTER_BOUND ( 'NONE', #64, .T. ) ;
#23 = DIRECTION ( 'NONE',  ( -6.982962677686266711E-15, 0.0000000000000000000, -1.000000000000000000 ) ) ;
#24 = PERSON_AND_ORGANIZATION ( #106, #193 ) ;
#25 = CC_DESIGN_PERSON_AND_ORGANIZATION_ASSIGNMENT ( #233, #11, ( #202 ) ) ;
#26 = FACE_OUTER_BOUND ( 'NONE', #73, .T. ) ;
#27 = VERTEX_POINT ( 'NONE', #145 ) ;
#28 =( GEOMETRIC_REPRESENTATION_CONTEXT ( 3 ) GLOBAL_UNCERTAINTY_ASSIGNED_CONTEXT ( ( #69 ) ) GLOBAL_UNIT_ASSIGNED_CONTEXT ( ( #35, #14, #241 ) ) REPRESENTATION_CONTEXT ( 'NONE', 'WORKASPACE' ) );
#29 = CC_DESIGN_APPROVAL ( #55, ( #52 ) ) ;
#30 = DATE_AND_TIME ( #51, #190 ) ;
#31 = DATE_TIME_ROLE ( 'classification_date' ) ;
#32 = ORIENTED_EDGE ( 'NONE', *, *, #132, .T. ) ;
#33 = APPLICATION_PROTOCOL_DEFINITION ( 'international standard', 'config_control_design', 1994, #45 ) ;
#34 = EDGE_LOOP ( 'NONE', ( #226 ) ) ;
#35 =( LENGTH_UNIT ( ) NAMED_UNIT ( * ) SI_UNIT ( .MILLI., .METRE. ) );
#36 = APPROVAL_ROLE ( '' ) ;
#37 = PRODUCT_DEFINITION ( 'UNKNOWN', '', #202, #221 ) ;
#38 = DIRECTION ( 'NONE',  ( 1.000000000000000000, 0.0000000000000000000, -7.113708077600358224E-15 ) ) ;
#39 = CARTESIAN_POINT ( 'NONE',  ( -2.618611004132350143E-13, 0.0000000000000000000, -37.50000000000000000 ) ) ;
#40 = CC_DESIGN_PERSON_AND_ORGANIZATION_ASSIGNMENT ( #203, #217, ( #52 ) ) ;
#41 = CIRCLE ( 'NONE', #130, 0.1303844939755830490 ) ;
#42 = CALENDAR_DATE ( 2019, 9, 1 ) ;
#43 = DIRECTION ( 'NONE',  ( 1.000000000000000000, 0.0000000000000000000, -6.975033976323412122E-15 ) ) ;
#44 = ADVANCED_FACE ( 'NONE', ( #22, #162 ), #53, .F. ) ;
#45 = APPLICATION_CONTEXT ( 'configuration controlled 3d designs of mechanical parts and assemblies' ) ;
#46 = FACE_OUTER_BOUND ( 'NONE', #16, .T. ) ;
#47 = APPROVAL_DATE_TIME ( #105, #71 ) ;
#48 = FACE_OUTER_BOUND ( 'NONE', #140, .T. ) ;
#49 = APPLICATION_PROTOCOL_DEFINITION ( 'international standard', 'config_control_design', 1994, #122 ) ;
#50 = VERTEX_POINT ( 'NONE', #152 ) ;
#51 = CALENDAR_DATE ( 2019, 9, 1 ) ;
#52 = SECURITY_CLASSIFICATION ( '', '', #164 ) ;
#53 = TOROIDAL_SURFACE ( 'NONE', #83, 2.099999999999999201, 1.999999999999999112 ) ;
#54 = DATE_AND_TIME ( #171, #148 ) ;
#55 = APPROVAL ( #141, 'UNSPECIFIED' ) ;
#56 = ORIENTED_EDGE ( 'NONE', *, *, #88, .T. ) ;
#57 = ORIENTED_EDGE ( 'NONE', *, *, #3, .T. ) ;
#58 = CIRCLE ( 'NONE', #200, 1.199999999999998845 ) ;
#59 = EDGE_LOOP ( 'NONE', ( #207 ) ) ;
#60 = ORIENTED_EDGE ( 'NONE', *, *, #82, .F. ) ;
#61 = CYLINDRICAL_SURFACE ( 'NONE', #223, 1.500000000000009992 ) ;
#62 = DIRECTION ( 'NONE',  ( 1.000000000000000000, 0.0000000000000000000, 0.0000000000000000000 ) ) ;
#63 = CARTESIAN_POINT ( 'NONE',  ( -2.653525817520781350E-13, 0.0000000000000000000, -38.00000000000000711 ) ) ;
#64 = EDGE_LOOP ( 'NONE', ( #239 ) ) ;
#65 = DIRECTION ( 'NONE',  ( 6.982962677686266711E-15, 0.0000000000000000000, 1.000000000000000000 ) ) ;
#66 = CLOSED_SHELL ( 'NONE', ( #117, #211, #198 ) ) ;
#67 = DIRECTION ( 'NONE',  ( 1.000000000000000000, 0.0000000000000000000, 0.0000000000000000000 ) ) ;
#68 = DIRECTION ( 'NONE',  ( 7.323208739804588466E-15, -0.0000000000000000000, 1.000000000000000000 ) ) ;
#69 = UNCERTAINTY_MEASURE_WITH_UNIT (LENGTH_MEASURE( 1.000000000000000082E-05 ), #35, 'distance_accuracy_value', 'NONE');
#70 = CIRCLE ( 'NONE', #209, 0.09999999999999996392 ) ;
#71 = APPROVAL ( #119, 'UNSPECIFIED' ) ;
#72 = COORDINATED_UNIVERSAL_TIME_OFFSET ( 1, 0, .AHEAD. ) ;
#73 = EDGE_LOOP ( 'NONE', ( #60 ) ) ;
#74 = VERTEX_POINT ( 'NONE', #155 ) ;
#75 = ORIENTED_EDGE ( 'NONE', *, *, #88, .F. ) ;
#76 = CARTESIAN_POINT ( 'NONE',  ( -2.812329767952192742E-13, 0.0000000000000000000, -38.00000000000000711 ) ) ;
#77 = EDGE_LOOP ( 'NONE', ( #157 ) ) ;
#78 = APPROVAL ( #224, 'UNSPECIFIED' ) ;
#79 = DIRECTION ( 'NONE',  ( 6.982962677686266711E-15, 0.0000000000000000000, 1.000000000000000000 ) ) ;
#80 = ORIENTED_EDGE ( 'NONE', *, *, #132, .F. ) ;
#81 = CARTESIAN_POINT ( 'NONE',  ( -2.666315899721712843E-13, 0.0000000000000000000, -37.50000000000000711 ) ) ;
#82 = EDGE_CURVE ( 'NONE', #27, #27, #70, .T. ) ;
#83 = AXIS2_PLACEMENT_3D ( 'NONE', #81, #116, #38 ) ;
#84 = CIRCLE ( 'NONE', #12, 1.500000000000000000 ) ;
#85 = CONICAL_SURFACE ( 'NONE', #183, 1.199999999999998845, 0.7853981633974476129 ) ;
#86 = CARTESIAN_POINT ( 'NONE',  ( 0.0000000000000000000, 0.0000000000000000000, 0.0000000000000000000 ) ) ;
#87 = DIRECTION ( 'NONE',  ( 7.323208739804588466E-15, -0.0000000000000000000, 1.000000000000000000 ) ) ;
#88 = EDGE_CURVE ( 'NONE', #50, #50, #58, .T. ) ;
#89 = CARTESIAN_POINT ( 'NONE',  ( 6.056509442254067229E-14, 0.0000000000000000000, 8.673266236417621400 ) ) ;
#90 = PLANE ( 'NONE',  #237 ) ;
#91 = APPROVAL_PERSON_ORGANIZATION ( #4, #71, #179 ) ;
#92 = CARTESIAN_POINT ( 'NONE',  ( 1.499999999999801048, 0.0000000000000000000, -29.38522812548301033 ) ) ;
#93 = COORDINATED_UNIVERSAL_TIME_OFFSET ( 1, 0, .AHEAD. ) ;
#94 = EDGE_CURVE ( 'NONE', #188, #188, #84, .T. ) ;
#95 = DIRECTION ( 'NONE',  ( -1.000000000000000000, 0.0000000000000000000, 6.982962677686266711E-15 ) ) ;
#96 = ORIENTED_EDGE ( 'NONE', *, *, #125, .F. ) ;
#97 = MANIFOLD_SOLID_BREP ( 'Körper in Z minus drehen[1]', #206 ) ;
#98 = DIRECTION ( 'NONE',  ( -6.982962677686266711E-15, 0.0000000000000000000, -1.000000000000000000 ) ) ;
#99 = DIRECTION ( 'NONE',  ( 1.000000000000000000, 0.0000000000000000000, 0.0000000000000000000 ) ) ;
#100 = FACE_BOUND ( 'NONE', #168, .T. ) ;
#101 = PLANE ( 'NONE',  #243 ) ;
#102 = CARTESIAN_POINT ( 'NONE',  ( 0.0000000000000000000, 0.0000000000000000000, 0.0000000000000000000 ) ) ;
#103 = FACE_OUTER_BOUND ( 'NONE', #174, .T. ) ;
#104 = DIRECTION ( 'NONE',  ( 0.0000000000000000000, 0.0000000000000000000, 1.000000000000000000 ) ) ;
#105 = DATE_AND_TIME ( #6, #123 ) ;
#106 = PERSON ( 'UNSPECIFIED', 'UNSPECIFIED', 'UNSPECIFIED', ('UNSPECIFIED'), ('UNSPECIFIED'), ('UNSPECIFIED') ) ;
#107 = CIRCLE ( 'NONE', #147, 1.500000000000009992 ) ;
#108 = LOCAL_TIME ( 1, 21, 44.00000000000000000, #72 ) ;
#109 = AXIS2_PLACEMENT_3D ( 'NONE', #139, #120, #62 ) ;
#110 = CARTESIAN_POINT ( 'NONE',  ( 1.499999999999997780, 0.0000000000000000000, -0.3000000000000120903 ) ) ;
#111 = AXIS2_PLACEMENT_3D ( 'NONE', #219, #127, #215 ) ;
#112 = ORIENTED_EDGE ( 'NONE', *, *, #205, .T. ) ;
#113 = ADVANCED_FACE ( 'NONE', ( #182, #8 ), #13, .T. ) ;
#114 = EDGE_LOOP ( 'NONE', ( #128 ) ) ;
#115 = DIRECTION ( 'NONE',  ( 1.000000000000000000, 0.0000000000000000000, 0.0000000000000000000 ) ) ;
#116 = DIRECTION ( 'NONE',  ( 7.113708077600358224E-15, -0.0000000000000000000, 1.000000000000000000 ) ) ;
#117 = ADVANCED_FACE ( 'NONE', ( #142 ), #17, .F. ) ;
#118 = APPROVAL_DATE_TIME ( #234, #55 ) ;
#119 = APPROVAL_STATUS ( 'not_yet_approved' ) ;
#120 = DIRECTION ( 'NONE',  ( 7.113708077600358224E-15, -0.0000000000000000000, 1.000000000000000000 ) ) ;
#121 = AXIS2_PLACEMENT_3D ( 'NONE', #89, #68, #67 ) ;
#122 = APPLICATION_CONTEXT ( 'configuration controlled 3d designs of mechanical parts and assemblies' ) ;
#123 = LOCAL_TIME ( 1, 21, 44.00000000000000000, #134 ) ;
#124 = COORDINATED_UNIVERSAL_TIME_OFFSET ( 1, 0, .AHEAD. ) ;
#125 = EDGE_CURVE ( 'NONE', #149, #149, #143, .T. ) ;
#126 = CARTESIAN_POINT ( 'NONE',  ( 0.1303844939753187604, 0.0000000000000000000, -37.15270364466615405 ) ) ;
#127 = DIRECTION ( 'NONE',  ( 7.323208739804588466E-15, -0.0000000000000000000, 1.000000000000000000 ) ) ;
#128 = ORIENTED_EDGE ( 'NONE', *, *, #94, .F. ) ;
#129 = LOCAL_TIME ( 1, 21, 44.00000000000000000, #124 ) ;
#130 = AXIS2_PLACEMENT_3D ( 'NONE', #131, #2, #210 ) ;
#131 = CARTESIAN_POINT ( 'NONE',  ( -2.642934880217538866E-13, 0.0000000000000000000, -37.15270364466615405 ) ) ;
#132 = EDGE_CURVE ( 'NONE', #192, #192, #107, .T. ) ;
#133 = AXIS2_PLACEMENT_3D ( 'NONE', #39, #98, #199 ) ;
#134 = COORDINATED_UNIVERSAL_TIME_OFFSET ( 1, 0, .AHEAD. ) ;
#135 = PRODUCT_DEFINITION_SHAPE ( 'NONE', 'NONE',  #37 ) ;
#136 = PLANE ( 'NONE',  #133 ) ;
#137 = SHAPE_DEFINITION_REPRESENTATION ( #135, #138 ) ;
#138 = ADVANCED_BREP_SHAPE_REPRESENTATION ( '132.020.09', ( #97, #187, #204 ), #28 ) ;
#139 = CARTESIAN_POINT ( 'NONE',  ( -2.642934880217538866E-13, 0.0000000000000000000, -37.15270364466615405 ) ) ;
#140 = EDGE_LOOP ( 'NONE', ( #112 ) ) ;
#141 = APPROVAL_STATUS ( 'not_yet_approved' ) ;
#142 = FACE_OUTER_BOUND ( 'NONE', #59, .T. ) ;
#143 = CIRCLE ( 'NONE', #153, 0.09999999999999996392 ) ;
#144 = PERSON_AND_ORGANIZATION_ROLE ( 'design_supplier' ) ;
#145 = CARTESIAN_POINT ( 'NONE',  ( 0.09999999999973319120, 0.0000000000000000000, -37.50000000000000711 ) ) ;
#146 = CC_DESIGN_PERSON_AND_ORGANIZATION_ASSIGNMENT ( #24, #144, ( #202 ) ) ;
#147 = AXIS2_PLACEMENT_3D ( 'NONE', #197, #212, #232 ) ;
#148 = LOCAL_TIME ( 1, 21, 44.00000000000000000, #93 ) ;
#149 = VERTEX_POINT ( 'NONE', #189 ) ;
#150 = PRODUCT ( '132.020.09', '132.020.09', '', ( #180 ) ) ;
#151 = ADVANCED_FACE ( 'NONE', ( #19, #178 ), #61, .T. ) ;
#152 = CARTESIAN_POINT ( 'NONE',  ( 1.199999999999998845, 0.0000000000000000000, -8.379555213223512164E-15 ) ) ;
#153 = AXIS2_PLACEMENT_3D ( 'NONE', #159, #161, #158 ) ;
#154 = CIRCLE ( 'NONE', #111, 0.1000000000000100808 ) ;
#155 = CARTESIAN_POINT ( 'NONE',  ( 0.09999999999972884746, 0.0000000000000000000, -38.00000000000000711 ) ) ;
#156 = PERSON_AND_ORGANIZATION ( #106, #193 ) ;
#157 = ORIENTED_EDGE ( 'NONE', *, *, #94, .T. ) ;
#158 = DIRECTION ( 'NONE',  ( 1.000000000000000000, 0.0000000000000000000, 0.0000000000000000000 ) ) ;
#159 = CARTESIAN_POINT ( 'NONE',  ( -2.667640529100134500E-13, 0.0000000000000000000, -37.50000000000000711 ) ) ;
#160 = DIRECTION ( 'NONE',  ( 7.113708077600358224E-15, -0.0000000000000000000, 1.000000000000000000 ) ) ;
#161 = DIRECTION ( 'NONE',  ( 7.113708077600358224E-15, -0.0000000000000000000, 1.000000000000000000 ) ) ;
#162 = FACE_OUTER_BOUND ( 'NONE', #7, .T. ) ;
#163 = ADVANCED_FACE ( 'NONE', ( #46 ), #136, .T. ) ;
#164 = SECURITY_CLASSIFICATION_LEVEL ( 'unclassified' ) ;
#165 = VERTEX_POINT ( 'NONE', #126 ) ;
#166 = ADVANCED_FACE ( 'NONE', ( #20, #100 ), #85, .T. ) ;
#167 = PERSON_AND_ORGANIZATION_ROLE ( 'design_owner' ) ;
#168 = EDGE_LOOP ( 'NONE', ( #75 ) ) ;
#169 = APPROVAL_DATE_TIME ( #54, #78 ) ;
#170 = ORIENTED_EDGE ( 'NONE', *, *, #125, .T. ) ;
#171 = CALENDAR_DATE ( 2019, 9, 1 ) ;
#172 = PRODUCT_RELATED_PRODUCT_CATEGORY ( 'detail', '', ( #150 ) ) ;
#173 = PERSON_AND_ORGANIZATION ( #106, #193 ) ;
#174 = EDGE_LOOP ( 'NONE', ( #56 ) ) ;
#175 = CC_DESIGN_SECURITY_CLASSIFICATION ( #52, ( #202 ) ) ;
#176 = CARTESIAN_POINT ( 'NONE',  ( -2.618611004132350143E-13, 0.0000000000000000000, -37.50000000000000000 ) ) ;
#177 = EDGE_LOOP ( 'NONE', ( #32 ) ) ;
#178 = FACE_OUTER_BOUND ( 'NONE', #114, .T. ) ;
#179 = APPROVAL_ROLE ( '' ) ;
#180 = MECHANICAL_CONTEXT ( 'NONE', #122, 'mechanical' ) ;
#181 = DATE_AND_TIME ( #195, #108 ) ;
#182 = FACE_OUTER_BOUND ( 'NONE', #177, .T. ) ;
#183 = AXIS2_PLACEMENT_3D ( 'NONE', #86, #196, #95 ) ;
#184 = DIRECTION ( 'NONE',  ( 6.982962677686266711E-15, 0.0000000000000000000, 1.000000000000000000 ) ) ;
#185 = CYLINDRICAL_SURFACE ( 'NONE', #121, 0.1000000000000099976 ) ;
#186 = CC_DESIGN_APPROVAL ( #71, ( #202 ) ) ;
#187 = MANIFOLD_SOLID_BREP ( 'Körper in Z minus drehen[2]', #66 ) ;
#188 = VERTEX_POINT ( 'NONE', #110 ) ;
#189 = CARTESIAN_POINT ( 'NONE',  ( 0.09999999999973319120, 0.0000000000000000000, -37.50000000000000711 ) ) ;
#190 = LOCAL_TIME ( 1, 21, 44.00000000000000000, #216 ) ;
#191 = EDGE_LOOP ( 'NONE', ( #80 ) ) ;
#192 = VERTEX_POINT ( 'NONE', #92 ) ;
#193 = ORGANIZATION ( 'UNSPECIFIED', 'UNSPECIFIED', '' ) ;
#194 = CARTESIAN_POINT ( 'NONE',  ( 0.0000000000000000000, 0.0000000000000000000, 0.0000000000000000000 ) ) ;
#195 = CALENDAR_DATE ( 2019, 9, 1 ) ;
#196 = DIRECTION ( 'NONE',  ( -6.982962677686266711E-15, 0.0000000000000000000, -1.000000000000000000 ) ) ;
#197 = CARTESIAN_POINT ( 'NONE',  ( -2.090379346783776076E-13, 0.0000000000000000000, -29.38522812548299967 ) ) ;
#198 = ADVANCED_FACE ( 'NONE', ( #9 ), #101, .F. ) ;
#199 = DIRECTION ( 'NONE',  ( -1.000000000000000000, 0.0000000000000000000, 6.982962677686266711E-15 ) ) ;
#200 = AXIS2_PLACEMENT_3D ( 'NONE', #194, #65, #5 ) ;
#201 = DIRECTION ( 'NONE',  ( 1.000000000000000000, 0.0000000000000000000, -9.251858538542909113E-15 ) ) ;
#202 = PRODUCT_DEFINITION_FORMATION_WITH_SPECIFIED_SOURCE ( 'ANY', '', #150, .NOT_KNOWN. ) ;
#203 = PERSON_AND_ORGANIZATION ( #106, #193 ) ;
#204 = AXIS2_PLACEMENT_3D ( 'NONE', #102, #104, #99 ) ;
#205 = EDGE_CURVE ( 'NONE', #74, #74, #154, .T. ) ;
#206 = CLOSED_SHELL ( 'NONE', ( #225, #166, #151, #113, #44, #163 ) ) ;
#207 = ORIENTED_EDGE ( 'NONE', *, *, #82, .T. ) ;
#208 = PERSON_AND_ORGANIZATION ( #106, #193 ) ;
#209 = AXIS2_PLACEMENT_3D ( 'NONE', #18, #160, #115 ) ;
#210 = DIRECTION ( 'NONE',  ( 1.000000000000000000, 0.0000000000000000000, 0.0000000000000000000 ) ) ;
#211 = ADVANCED_FACE ( 'NONE', ( #26, #48 ), #185, .T. ) ;
#212 = DIRECTION ( 'NONE',  ( -7.113708077600358224E-15, 0.0000000000000000000, -1.000000000000000000 ) ) ;
#213 = DIRECTION ( 'NONE',  ( 6.982962677686266711E-15, 0.0000000000000000000, 1.000000000000000000 ) ) ;
#214 = CC_DESIGN_APPROVAL ( #78, ( #37 ) ) ;
#215 = DIRECTION ( 'NONE',  ( 1.000000000000000000, 0.0000000000000000000, 0.0000000000000000000 ) ) ;
#216 = COORDINATED_UNIVERSAL_TIME_OFFSET ( 1, 0, .AHEAD. ) ;
#217 = PERSON_AND_ORGANIZATION_ROLE ( 'classification_officer' ) ;
#218 = PERSON_AND_ORGANIZATION ( #106, #193 ) ;
#219 = CARTESIAN_POINT ( 'NONE',  ( -2.812329767952192742E-13, 0.0000000000000000000, -38.00000000000000711 ) ) ;
#220 = APPROVAL_PERSON_ORGANIZATION ( #156, #78, #36 ) ;
#221 = DESIGN_CONTEXT ( 'detailed design', #45, 'design' ) ;
#222 = EDGE_LOOP ( 'NONE', ( #57 ) ) ;
#223 = AXIS2_PLACEMENT_3D ( 'NONE', #63, #213, #201 ) ;
#224 = APPROVAL_STATUS ( 'not_yet_approved' ) ;
#225 = ADVANCED_FACE ( 'NONE', ( #103 ), #90, .T. ) ;
#226 = ORIENTED_EDGE ( 'NONE', *, *, #205, .F. ) ;
#227 = AXIS2_PLACEMENT_3D ( 'NONE', #176, #23, #229 ) ;
#228 = CC_DESIGN_DATE_AND_TIME_ASSIGNMENT ( #30, #31, ( #52 ) ) ;
#229 = DIRECTION ( 'NONE',  ( -1.000000000000000000, 0.0000000000000000000, 6.982962677686266711E-15 ) ) ;
#230 = CARTESIAN_POINT ( 'NONE',  ( -2.094888803305891846E-15, 0.0000000000000000000, -0.3000000000000016542 ) ) ;
#231 = APPROVAL_ROLE ( '' ) ;
#232 = DIRECTION ( 'NONE',  ( 1.000000000000000000, 0.0000000000000000000, -6.938893903907181835E-15 ) ) ;
#233 = PERSON_AND_ORGANIZATION ( #106, #193 ) ;
#234 = DATE_AND_TIME ( #42, #129 ) ;
#235 = DIRECTION ( 'NONE',  ( 1.000000000000000000, 0.0000000000000000000, -7.323208739804588466E-15 ) ) ;
#236 = CC_DESIGN_PERSON_AND_ORGANIZATION_ASSIGNMENT ( #173, #1, ( #37 ) ) ;
#237 = AXIS2_PLACEMENT_3D ( 'NONE', #238, #184, #10 ) ;
#238 = CARTESIAN_POINT ( 'NONE',  ( -3.978219802582578933E-31, 0.0000000000000000000, -5.697037183507789322E-17 ) ) ;
#239 = ORIENTED_EDGE ( 'NONE', *, *, #3, .F. ) ;
#240 = CC_DESIGN_DATE_AND_TIME_ASSIGNMENT ( #181, #21, ( #37 ) ) ;
#241 =( NAMED_UNIT ( * ) SI_UNIT ( $, .STERADIAN. ) SOLID_ANGLE_UNIT ( ) );
#242 = APPROVAL_PERSON_ORGANIZATION ( #218, #55, #231 ) ;
#243 = AXIS2_PLACEMENT_3D ( 'NONE', #76, #87, #235 ) ;
ENDSEC;
END-ISO-10303-21;
16898