ISO-10303-21;
HEADER;
FILE_DESCRIPTION (( 'STEP AP214' ),
    '1' );
FILE_NAME ('004.000.33.step',
    '2019-05-20T14:00:35',
    ( '' ),
    ( '' ),
    'SwSTEP 2.0',
    'SolidWorks 2019',
    '' );
FILE_SCHEMA (( 'AUTOMOTIVE_DESIGN' ));
ENDSEC;

DATA;
#1 = CARTESIAN_POINT ( 'NONE',  ( -1.650000000000244382, 0.0000000000000000000, -34.99999999999999289 ) ) ;
#2 = ORIENTED_EDGE ( 'NONE', *, *, #59, .F. ) ;
#3 = UNCERTAINTY_MEASURE_WITH_UNIT (LENGTH_MEASURE( 1.000000000000000082E-05 ), #127, 'distance_accuracy_value', 'NONE');
#4 = MECHANICAL_DESIGN_GEOMETRIC_PRESENTATION_REPRESENTATION (  '', ( #243 ), #242 ) ;
#5 = EDGE_LOOP ( 'NONE', ( #221 ) ) ;
#6 = CARTESIAN_POINT ( 'NONE',  ( 0.0000000000000000000, 0.0000000000000000000, 0.0000000000000000000 ) ) ;
#7 = ADVANCED_FACE ( 'NONE', ( #120 ), #72, .T. ) ;
#8 = FACE_OUTER_BOUND ( 'NONE', #94, .T. ) ;
#9 = DIRECTION ( 'NONE',  ( 1.000000000000000000, 0.0000000000000000000, -7.359432928386459981E-15 ) ) ;
#10 = FILL_AREA_STYLE_COLOUR ( '', #108 ) ;
#11 = FILL_AREA_STYLE ('',( #10 ) ) ;
#12 = DIRECTION ( 'NONE',  ( -7.086642275570772321E-15, 0.0000000000000000000, -1.000000000000000000 ) ) ;
#13 = CIRCLE ( 'NONE', #255, 1.649999999999998579 ) ;
#14 =( NAMED_UNIT ( * ) SI_UNIT ( $, .STERADIAN. ) SOLID_ANGLE_UNIT ( ) );
#15 = VERTEX_POINT ( 'NONE', #287 ) ;
#16 =( NAMED_UNIT ( * ) PLANE_ANGLE_UNIT ( ) SI_UNIT ( $, .RADIAN. ) );
#17 = DIRECTION ( 'NONE',  ( -1.000000000000000000, 0.0000000000000000000, 8.410780489584520058E-15 ) ) ;
#18 = DIRECTION ( 'NONE',  ( 6.982962677686266711E-15, 0.0000000000000000000, 1.000000000000000000 ) ) ;
#19 = EDGE_LOOP ( 'NONE', ( #48 ) ) ;
#20 = CIRCLE ( 'NONE', #133, 1.649999999999998579 ) ;
#21 = CARTESIAN_POINT ( 'NONE',  ( 1.649999999999714584, 0.0000000000000000000, -39.95000000000000995 ) ) ;
#22 = STYLED_ITEM ( 'NONE', ( #147 ), #220 ) ;
#23 = DIRECTION ( 'NONE',  ( -6.982962677686266711E-15, 0.0000000000000000000, -1.000000000000000000 ) ) ;
#24 = PRESENTATION_STYLE_ASSIGNMENT (( #219 ) ) ;
#25 = EDGE_CURVE ( 'NONE', #269, #269, #20, .T. ) ;
#26 = PRODUCT_CONTEXT ( 'NONE', #251, 'mechanical' ) ;
#27 = DIRECTION ( 'NONE',  ( 1.000000000000000000, 0.0000000000000000000, 0.0000000000000000000 ) ) ;
#28 = DIRECTION ( 'NONE',  ( 7.086642275570772321E-15, -0.0000000000000000000, 1.000000000000000000 ) ) ;
#29 = EDGE_LOOP ( 'NONE', ( #288 ) ) ;
#30 =( NAMED_UNIT ( * ) PLANE_ANGLE_UNIT ( ) SI_UNIT ( $, .RADIAN. ) );
#31 = DIRECTION ( 'NONE',  ( 7.086642275570772321E-15, 0.0000000000000000000, 1.000000000000000000 ) ) ;
#32 = DIRECTION ( 'NONE',  ( -6.982962677686266711E-15, 0.0000000000000000000, -1.000000000000000000 ) ) ;
#33 = SURFACE_STYLE_USAGE ( .BOTH. , #279 ) ;
#34 = DIRECTION ( 'NONE',  ( -6.982962677686266711E-15, 0.0000000000000000000, -1.000000000000000000 ) ) ;
#35 =( NAMED_UNIT ( * ) PLANE_ANGLE_UNIT ( ) SI_UNIT ( $, .RADIAN. ) );
#36 =( LENGTH_UNIT ( ) NAMED_UNIT ( * ) SI_UNIT ( .MILLI., .METRE. ) );
#37 = SURFACE_SIDE_STYLE ('',( #238 ) ) ;
#38 = STYLED_ITEM ( 'NONE', ( #284 ), #160 ) ;
#39 = UNCERTAINTY_MEASURE_WITH_UNIT (LENGTH_MEASURE( 1.000000000000000082E-05 ), #208, 'distance_accuracy_value', 'NONE');
#40 = APPLICATION_CONTEXT ( 'automotive_design' ) ;
#41 = CARTESIAN_POINT ( 'NONE',  ( 0.0000000000000000000, 0.0000000000000000000, 0.0000000000000000000 ) ) ;
#42 = CIRCLE ( 'NONE', #76, 2.399999999999998135 ) ;
#43 = UNCERTAINTY_MEASURE_WITH_UNIT (LENGTH_MEASURE( 1.000000000000000082E-05 ), #229, 'distance_accuracy_value', 'NONE');
#44 = CARTESIAN_POINT ( 'NONE',  ( -2.394659934568548428E-13, 0.0000000000000000000, -34.29289321881346098 ) ) ;
#45 = EDGE_LOOP ( 'NONE', ( #113 ) ) ;
#46 = FACE_OUTER_BOUND ( 'NONE', #19, .T. ) ;
#47 = EDGE_CURVE ( 'NONE', #105, #105, #144, .T. ) ;
#48 = ORIENTED_EDGE ( 'NONE', *, *, #195, .F. ) ;
#49 = EDGE_LOOP ( 'NONE', ( #150 ) ) ;
#50 =( LENGTH_UNIT ( ) NAMED_UNIT ( * ) SI_UNIT ( .MILLI., .METRE. ) );
#51 = PRESENTATION_LAYER_ASSIGNMENT (  '', '', ( #22 ) ) ;
#52 = ADVANCED_FACE ( 'NONE', ( #85 ), #146, .F. ) ;
#53 = MANIFOLD_SOLID_BREP ( 'Körper in Z minus drehen[1]', #56 ) ;
#54 = CONICAL_SURFACE ( 'NONE', #202, 1.942893218813452894, 0.7853981633974498333 ) ;
#55 = DIRECTION ( 'NONE',  ( 1.000000000000000000, 0.0000000000000000000, -7.099234647280170045E-15 ) ) ;
#56 = CLOSED_SHELL ( 'NONE', ( #275, #207, #84, #93, #106, #211, #7 ) ) ;
#57 = PRODUCT_DEFINITION_FORMATION_WITH_SPECIFIED_SOURCE ( 'ANY', '', #166, .NOT_KNOWN. ) ;
#58 = VERTEX_POINT ( 'NONE', #79 ) ;
#59 = EDGE_CURVE ( 'NONE', #285, #285, #165, .T. ) ;
#60 = SURFACE_SIDE_STYLE ('',( #266 ) ) ;
#61 = EDGE_LOOP ( 'NONE', ( #64 ) ) ;
#62 = TOROIDAL_SURFACE ( 'NONE', #114, 2.650000000000000355, 0.9999999999999986677 ) ;
#63 =( GEOMETRIC_REPRESENTATION_CONTEXT ( 3 ) GLOBAL_UNCERTAINTY_ASSIGNED_CONTEXT ( ( #43 ) ) GLOBAL_UNIT_ASSIGNED_CONTEXT ( ( #229, #186, #233 ) ) REPRESENTATION_CONTEXT ( 'NONE', 'WORKASPACE' ) );
#64 = ORIENTED_EDGE ( 'NONE', *, *, #131, .F. ) ;
#65 = CARTESIAN_POINT ( 'NONE',  ( -1.942893218813692258, 0.0000000000000000000, -34.29289321881344677 ) ) ;
#66 = UNCERTAINTY_MEASURE_WITH_UNIT (LENGTH_MEASURE( 1.000000000000000082E-05 ), #36, 'distance_accuracy_value', 'NONE');
#67 = PRESENTATION_LAYER_ASSIGNMENT (  '', '', ( #243 ) ) ;
#68 = ORIENTED_EDGE ( 'NONE', *, *, #137, .T. ) ;
#69 = DIRECTION ( 'NONE',  ( 0.0000000000000000000, 0.0000000000000000000, 1.000000000000000000 ) ) ;
#70 = DIRECTION ( 'NONE',  ( -6.982962677686266711E-15, 0.0000000000000000000, -1.000000000000000000 ) ) ;
#71 = AXIS2_PLACEMENT_3D ( 'NONE', #256, #32, #136 ) ;
#72 = PLANE ( 'NONE',  #232 ) ;
#73 = ORIENTED_EDGE ( 'NONE', *, *, #25, .F. ) ;
#74 =( GEOMETRIC_REPRESENTATION_CONTEXT ( 3 ) GLOBAL_UNCERTAINTY_ASSIGNED_CONTEXT ( ( #66 ) ) GLOBAL_UNIT_ASSIGNED_CONTEXT ( ( #36, #175, #89 ) ) REPRESENTATION_CONTEXT ( 'NONE', 'WORKASPACE' ) );
#75 = CARTESIAN_POINT ( 'NONE',  ( -3.518784522787543756E-13, 0.0000000000000000000, -49.52687011349797785 ) ) ;
#76 = AXIS2_PLACEMENT_3D ( 'NONE', #41, #193, #197 ) ;
#77 = FACE_OUTER_BOUND ( 'NONE', #173, .T. ) ;
#78 = STYLED_ITEM ( 'NONE', ( #226 ), #141 ) ;
#79 = CARTESIAN_POINT ( 'NONE',  ( 2.999999999999766853, 0.0000000000000000000, -33.23578643762693474 ) ) ;
#80 = DIRECTION ( 'NONE',  ( -1.000000000000000000, 0.0000000000000000000, 7.142846386735438333E-15 ) ) ;
#81 = DIRECTION ( 'NONE',  ( -6.982962677686266711E-15, 0.0000000000000000000, -1.000000000000000000 ) ) ;
#82 =( NAMED_UNIT ( * ) SI_UNIT ( $, .STERADIAN. ) SOLID_ANGLE_UNIT ( ) );
#83 = FILL_AREA_STYLE_COLOUR ( '', #234 ) ;
#84 = ADVANCED_FACE ( 'NONE', ( #225, #278 ), #117, .T. ) ;
#85 = FACE_OUTER_BOUND ( 'NONE', #29, .T. ) ;
#86 = PRESENTATION_LAYER_ASSIGNMENT (  '', '', ( #78 ) ) ;
#87 = CARTESIAN_POINT ( 'NONE',  ( 2.399999999999998135, 0.0000000000000000000, -1.675911042644702748E-14 ) ) ;
#88 = ORIENTED_EDGE ( 'NONE', *, *, #195, .T. ) ;
#89 =( NAMED_UNIT ( * ) SI_UNIT ( $, .STERADIAN. ) SOLID_ANGLE_UNIT ( ) );
#90 = CARTESIAN_POINT ( 'NONE',  ( -2.444036937190193601E-13, 0.0000000000000000000, -35.00000000000000000 ) ) ;
#91 =( GEOMETRIC_REPRESENTATION_CONTEXT ( 3 ) GLOBAL_UNCERTAINTY_ASSIGNED_CONTEXT ( ( #3 ) ) GLOBAL_UNIT_ASSIGNED_CONTEXT ( ( #127, #35, #154 ) ) REPRESENTATION_CONTEXT ( 'NONE', 'WORKASPACE' ) );
#92 = FACE_BOUND ( 'NONE', #115, .T. ) ;
#93 = ADVANCED_FACE ( 'NONE', ( #181, #92 ), #54, .T. ) ;
#94 = EDGE_LOOP ( 'NONE', ( #132 ) ) ;
#95 = FACE_OUTER_BOUND ( 'NONE', #49, .T. ) ;
#96 =( GEOMETRIC_REPRESENTATION_CONTEXT ( 3 ) GLOBAL_UNCERTAINTY_ASSIGNED_CONTEXT ( ( #259 ) ) GLOBAL_UNIT_ASSIGNED_CONTEXT ( ( #97, #30, #14 ) ) REPRESENTATION_CONTEXT ( 'NONE', 'WORKASPACE' ) );
#97 =( LENGTH_UNIT ( ) NAMED_UNIT ( * ) SI_UNIT ( .MILLI., .METRE. ) );
#98 = FACE_BOUND ( 'NONE', #45, .T. ) ;
#99 = AXIS2_PLACEMENT_3D ( 'NONE', #283, #28, #9 ) ;
#100 = FILL_AREA_STYLE ('',( #156 ) ) ;
#101 = MECHANICAL_DESIGN_GEOMETRIC_PRESENTATION_REPRESENTATION (  '', ( #189 ), #74 ) ;
#102 = ADVANCED_FACE ( 'NONE', ( #46, #119 ), #188, .T. ) ;
#103 = CARTESIAN_POINT ( 'NONE',  ( 2.999999999999995559, 0.0000000000000000000, -0.6000000000000241807 ) ) ;
#104 = COLOUR_RGB ( '',0.4980392156862745168, 0.4980392156862745168, 0.4980392156862745168 ) ;
#105 = VERTEX_POINT ( 'NONE', #1 ) ;
#106 = ADVANCED_FACE ( 'NONE', ( #95, #8 ), #62, .F. ) ;
#107 = DIRECTION ( 'NONE',  ( -1.000000000000000000, 0.0000000000000000000, 6.982962677686266711E-15 ) ) ;
#108 = COLOUR_RGB ( '',0.8000000000000000444, 0.8000000000000000444, 0.8000000000000000444 ) ;
#109 = MECHANICAL_DESIGN_GEOMETRIC_PRESENTATION_REPRESENTATION (  '', ( #22 ), #91 ) ;
#110 = DIRECTION ( 'NONE',  ( 6.982962677686266711E-15, 0.0000000000000000000, 1.000000000000000000 ) ) ;
#111 = DIRECTION ( 'NONE',  ( -1.000000000000000000, 0.0000000000000000000, 6.982962677686266711E-15 ) ) ;
#112 = EDGE_LOOP ( 'NONE', ( #271 ) ) ;
#113 = ORIENTED_EDGE ( 'NONE', *, *, #262, .F. ) ;
#114 = AXIS2_PLACEMENT_3D ( 'NONE', #237, #34, #107 ) ;
#115 = EDGE_LOOP ( 'NONE', ( #2 ) ) ;
#116 = AXIS2_PLACEMENT_3D ( 'NONE', #75, #12, #161 ) ;
#117 = CYLINDRICAL_SURFACE ( 'NONE', #177, 2.999999999999998668 ) ;
#118 = DIRECTION ( 'NONE',  ( 6.982962677686266711E-15, 0.0000000000000000000, 1.000000000000000000 ) ) ;
#119 = FACE_OUTER_BOUND ( 'NONE', #61, .T. ) ;
#120 = FACE_OUTER_BOUND ( 'NONE', #179, .T. ) ;
#121 = SURFACE_STYLE_FILL_AREA ( #206 ) ;
#122 = PRESENTATION_LAYER_ASSIGNMENT (  '', '', ( #38 ) ) ;
#123 = FILL_AREA_STYLE_COLOUR ( '', #216 ) ;
#124 = CARTESIAN_POINT ( 'NONE',  ( 6.056509442254067229E-14, 0.0000000000000000000, 8.673266236417621400 ) ) ;
#125 = AXIS2_PLACEMENT_3D ( 'NONE', #215, #260, #111 ) ;
#126 = CONICAL_SURFACE ( 'NONE', #71, 2.399999999999998135, 0.7853981633974472798 ) ;
#127 =( LENGTH_UNIT ( ) NAMED_UNIT ( * ) SI_UNIT ( .MILLI., .METRE. ) );
#128 = CARTESIAN_POINT ( 'NONE',  ( -2.394659934568548428E-13, 0.0000000000000000000, -34.29289321881346098 ) ) ;
#129 = VERTEX_POINT ( 'NONE', #209 ) ;
#130 = ORIENTED_EDGE ( 'NONE', *, *, #25, .T. ) ;
#131 = EDGE_CURVE ( 'NONE', #129, #129, #13, .T. ) ;
#132 = ORIENTED_EDGE ( 'NONE', *, *, #47, .F. ) ;
#133 = AXIS2_PLACEMENT_3D ( 'NONE', #228, #190, #263 ) ;
#134 = CARTESIAN_POINT ( 'NONE',  ( 6.731410921036497068E-12, 0.0000000000000000000, 950.0000000000000000 ) ) ;
#135 = FILL_AREA_STYLE_COLOUR ( '', #104 ) ;
#136 = DIRECTION ( 'NONE',  ( -1.000000000000000000, 0.0000000000000000000, 6.982962677686266711E-15 ) ) ;
#137 = EDGE_CURVE ( 'NONE', #58, #58, #163, .T. ) ;
#138 = FACE_OUTER_BOUND ( 'NONE', #268, .T. ) ;
#139 = AXIS2_PLACEMENT_3D ( 'NONE', #6, #69, #27 ) ;
#140 = FILL_AREA_STYLE ('',( #135 ) ) ;
#141 = MANIFOLD_SOLID_BREP ( 'Körper in Z minus drehen[2]', #270 ) ;
#142 = DIRECTION ( 'NONE',  ( 1.000000000000000000, 0.0000000000000000000, -8.410780489584526369E-15 ) ) ;
#143 = FILL_AREA_STYLE ('',( #83 ) ) ;
#144 = CIRCLE ( 'NONE', #252, 1.649999999999999911 ) ;
#145 = STYLED_ITEM ( 'NONE', ( #254 ), #211 ) ;
#146 = PLANE ( 'NONE',  #125 ) ;
#147 = PRESENTATION_STYLE_ASSIGNMENT (( #167 ) ) ;
#148 = EDGE_LOOP ( 'NONE', ( #214 ) ) ;
#149 = AXIS2_PLACEMENT_3D ( 'NONE', #134, #31, #55 ) ;
#150 = ORIENTED_EDGE ( 'NONE', *, *, #59, .T. ) ;
#151 = UNCERTAINTY_MEASURE_WITH_UNIT (LENGTH_MEASURE( 1.000000000000000082E-05 ), #236, 'distance_accuracy_value', 'NONE');
#152 = UNCERTAINTY_MEASURE_WITH_UNIT (LENGTH_MEASURE( 1.000000000000000082E-05 ), #50, 'distance_accuracy_value', 'NONE');
#153 = CIRCLE ( 'NONE', #116, 1.650000000000000133 ) ;
#154 =( NAMED_UNIT ( * ) SI_UNIT ( $, .STERADIAN. ) SOLID_ANGLE_UNIT ( ) );
#155 = DIRECTION ( 'NONE',  ( 6.982962677686266711E-15, 0.0000000000000000000, 1.000000000000000000 ) ) ;
#156 = FILL_AREA_STYLE_COLOUR ( '', #265 ) ;
#157 = SURFACE_STYLE_USAGE ( .BOTH. , #204 ) ;
#158 = MECHANICAL_DESIGN_GEOMETRIC_PRESENTATION_REPRESENTATION (  '', ( #78 ), #63 ) ;
#159 = SURFACE_STYLE_FILL_AREA ( #100 ) ;
#160 = ADVANCED_FACE ( 'NONE', ( #191 ), #241, .T. ) ;
#161 = DIRECTION ( 'NONE',  ( -1.000000000000000000, 0.0000000000000000000, 8.410780489584518481E-15 ) ) ;
#162 =( NAMED_UNIT ( * ) PLANE_ANGLE_UNIT ( ) SI_UNIT ( $, .RADIAN. ) );
#163 = CIRCLE ( 'NONE', #282, 2.999999999999998668 ) ;
#164 = DIRECTION ( 'NONE',  ( 1.000000000000000000, 0.0000000000000000000, -6.975033976323412122E-15 ) ) ;
#165 = CIRCLE ( 'NONE', #183, 1.942893218813452894 ) ;
#166 = PRODUCT ( '004.000.33', '004.000.33', '', ( #26 ) ) ;
#167 = SURFACE_STYLE_USAGE ( .BOTH. , #37 ) ;
#168 = ORIENTED_EDGE ( 'NONE', *, *, #248, .T. ) ;
#169 = PRESENTATION_LAYER_ASSIGNMENT (  '', '', ( #145 ) ) ;
#170 = PRODUCT_DEFINITION_SHAPE ( 'NONE', 'NONE',  #224 ) ;
#171 = PRODUCT_RELATED_PRODUCT_CATEGORY ( 'part', '', ( #166 ) ) ;
#172 = FACE_OUTER_BOUND ( 'NONE', #176, .T. ) ;
#173 = EDGE_LOOP ( 'NONE', ( #168 ) ) ;
#174 = PRODUCT_DEFINITION_CONTEXT ( 'detailed design', #40, 'design' ) ;
#175 =( NAMED_UNIT ( * ) PLANE_ANGLE_UNIT ( ) SI_UNIT ( $, .RADIAN. ) );
#176 = EDGE_LOOP ( 'NONE', ( #201 ) ) ;
#177 = AXIS2_PLACEMENT_3D ( 'NONE', #178, #118, #246 ) ;
#178 = CARTESIAN_POINT ( 'NONE',  ( -3.491481338843133355E-13, 0.0000000000000000000, -50.00000000000000000 ) ) ;
#179 = EDGE_LOOP ( 'NONE', ( #73 ) ) ;
#180 = APPLICATION_PROTOCOL_DEFINITION ( 'draft international standard', 'automotive_design', 1998, #40 ) ;
#181 = FACE_OUTER_BOUND ( 'NONE', #112, .T. ) ;
#182 = AXIS2_PLACEMENT_3D ( 'NONE', #213, #110, #244 ) ;
#183 = AXIS2_PLACEMENT_3D ( 'NONE', #128, #23, #80 ) ;
#184 = CARTESIAN_POINT ( 'NONE',  ( -2.789693589735663362E-13, 0.0000000000000000000, -39.95000000000000284 ) ) ;
#185 = CYLINDRICAL_SURFACE ( 'NONE', #196, 1.649999999999998579 ) ;
#186 =( NAMED_UNIT ( * ) PLANE_ANGLE_UNIT ( ) SI_UNIT ( $, .RADIAN. ) );
#187 = AXIS2_PLACEMENT_3D ( 'NONE', #267, #18, #164 ) ;
#188 = CYLINDRICAL_SURFACE ( 'NONE', #99, 1.649999999999998579 ) ;
#189 = STYLED_ITEM ( 'NONE', ( #239 ), #53 ) ;
#190 = DIRECTION ( 'NONE',  ( 6.982962677686266711E-15, 0.0000000000000000000, 1.000000000000000000 ) ) ;
#191 = FACE_OUTER_BOUND ( 'NONE', #218, .T. ) ;
#192 = APPLICATION_PROTOCOL_DEFINITION ( 'draft international standard', 'automotive_design', 1998, #251 ) ;
#193 = DIRECTION ( 'NONE',  ( 6.982962677686266711E-15, 0.0000000000000000000, 1.000000000000000000 ) ) ;
#194 = SURFACE_STYLE_USAGE ( .BOTH. , #60 ) ;
#195 = EDGE_CURVE ( 'NONE', #15, #15, #153, .T. ) ;
#196 = AXIS2_PLACEMENT_3D ( 'NONE', #124, #264, #261 ) ;
#197 = DIRECTION ( 'NONE',  ( 1.000000000000000000, 0.0000000000000000000, -6.982962677686266711E-15 ) ) ;
#198 = FILL_AREA_STYLE_COLOUR ( '', #222 ) ;
#199 =( GEOMETRIC_REPRESENTATION_CONTEXT ( 3 ) GLOBAL_UNCERTAINTY_ASSIGNED_CONTEXT ( ( #152 ) ) GLOBAL_UNIT_ASSIGNED_CONTEXT ( ( #50, #257, #258 ) ) REPRESENTATION_CONTEXT ( 'NONE', 'WORKASPACE' ) );
#200 = CIRCLE ( 'NONE', #187, 3.000000000000000000 ) ;
#201 = ORIENTED_EDGE ( 'NONE', *, *, #262, .T. ) ;
#202 = AXIS2_PLACEMENT_3D ( 'NONE', #44, #223, #250 ) ;
#203 = SURFACE_STYLE_FILL_AREA ( #140 ) ;
#204 = SURFACE_SIDE_STYLE ('',( #121 ) ) ;
#205 =( GEOMETRIC_REPRESENTATION_CONTEXT ( 3 ) GLOBAL_UNCERTAINTY_ASSIGNED_CONTEXT ( ( #39 ) ) GLOBAL_UNIT_ASSIGNED_CONTEXT ( ( #208, #16, #82 ) ) REPRESENTATION_CONTEXT ( 'NONE', 'WORKASPACE' ) );
#206 = FILL_AREA_STYLE ('',( #123 ) ) ;
#207 = ADVANCED_FACE ( 'NONE', ( #77, #98 ), #126, .T. ) ;
#208 =( LENGTH_UNIT ( ) NAMED_UNIT ( * ) SI_UNIT ( .MILLI., .METRE. ) );
#209 = CARTESIAN_POINT ( 'NONE',  ( 1.649999999999714584, 0.0000000000000000000, -39.95000000000000995 ) ) ;
#210 = FILL_AREA_STYLE ('',( #198 ) ) ;
#211 = ADVANCED_FACE ( 'NONE', ( #138, #235 ), #185, .T. ) ;
#212 = PLANE ( 'NONE',  #182 ) ;
#213 = CARTESIAN_POINT ( 'NONE',  ( -6.959334514394136105E-31, 0.0000000000000000000, -9.966163125334131004E-17 ) ) ;
#214 = ORIENTED_EDGE ( 'NONE', *, *, #47, .T. ) ;
#215 = CARTESIAN_POINT ( 'NONE',  ( -2.789693589735663362E-13, 0.0000000000000000000, -39.95000000000000284 ) ) ;
#216 = COLOUR_RGB ( '',0.5019607843137254832, 0.5019607843137254832, 0.5019607843137254832 ) ;
#217 = CARTESIAN_POINT ( 'NONE',  ( -2.320842562575002016E-13, 0.0000000000000000000, -33.23578643762692053 ) ) ;
#218 = EDGE_LOOP ( 'NONE', ( #88 ) ) ;
#219 = SURFACE_STYLE_USAGE ( .BOTH. , #245 ) ;
#220 = ADVANCED_BREP_SHAPE_REPRESENTATION ( '004.000.33', ( #53, #141, #139 ), #205 ) ;
#221 = ORIENTED_EDGE ( 'NONE', *, *, #248, .F. ) ;
#222 = COLOUR_RGB ( '',0.4980392156862745168, 0.4980392156862745168, 0.4980392156862745168 ) ;
#223 = DIRECTION ( 'NONE',  ( 6.982962677686266711E-15, 0.0000000000000000000, 1.000000000000000000 ) ) ;
#224 = PRODUCT_DEFINITION ( 'UNKNOWN', '', #57, #174 ) ;
#225 = FACE_OUTER_BOUND ( 'NONE', #5, .T. ) ;
#226 = PRESENTATION_STYLE_ASSIGNMENT (( #281 ) ) ;
#227 = SURFACE_SIDE_STYLE ('',( #203 ) ) ;
#228 = CARTESIAN_POINT ( 'NONE',  ( -2.840105996647893598E-13, 0.0000000000000000000, -39.95000000000000284 ) ) ;
#229 =( LENGTH_UNIT ( ) NAMED_UNIT ( * ) SI_UNIT ( .MILLI., .METRE. ) );
#230 =( NAMED_UNIT ( * ) SI_UNIT ( $, .STERADIAN. ) SOLID_ANGLE_UNIT ( ) );
#231 = DIRECTION ( 'NONE',  ( 6.982962677686266711E-15, 0.0000000000000000000, 1.000000000000000000 ) ) ;
#232 = AXIS2_PLACEMENT_3D ( 'NONE', #184, #70, #277 ) ;
#233 =( NAMED_UNIT ( * ) SI_UNIT ( $, .STERADIAN. ) SOLID_ANGLE_UNIT ( ) );
#234 = COLOUR_RGB ( '',0.4980392156862745168, 0.4980392156862745168, 0.4980392156862745168 ) ;
#235 = FACE_OUTER_BOUND ( 'NONE', #148, .T. ) ;
#236 =( LENGTH_UNIT ( ) NAMED_UNIT ( * ) SI_UNIT ( .MILLI., .METRE. ) );
#237 = CARTESIAN_POINT ( 'NONE',  ( -2.444036937190193601E-13, 0.0000000000000000000, -35.00000000000000000 ) ) ;
#238 = SURFACE_STYLE_FILL_AREA ( #143 ) ;
#239 = PRESENTATION_STYLE_ASSIGNMENT (( #194 ) ) ;
#240 = VERTEX_POINT ( 'NONE', #87 ) ;
#241 = CONICAL_SURFACE ( 'NONE', #149, 3487.414443840952117, 1.291543646475807217 ) ;
#242 =( GEOMETRIC_REPRESENTATION_CONTEXT ( 3 ) GLOBAL_UNCERTAINTY_ASSIGNED_CONTEXT ( ( #151 ) ) GLOBAL_UNIT_ASSIGNED_CONTEXT ( ( #236, #162, #230 ) ) REPRESENTATION_CONTEXT ( 'NONE', 'WORKASPACE' ) );
#243 = STYLED_ITEM ( 'NONE', ( #24 ), #102 ) ;
#244 = DIRECTION ( 'NONE',  ( 1.000000000000000000, 0.0000000000000000000, -6.982962677686266711E-15 ) ) ;
#245 = SURFACE_SIDE_STYLE ('',( #272 ) ) ;
#246 = DIRECTION ( 'NONE',  ( 1.000000000000000000, 0.0000000000000000000, -6.938893903907231533E-15 ) ) ;
#247 = EDGE_LOOP ( 'NONE', ( #68 ) ) ;
#248 = EDGE_CURVE ( 'NONE', #286, #286, #200, .T. ) ;
#249 = DIRECTION ( 'NONE',  ( 1.000000000000000000, 0.0000000000000000000, -6.938893903907231533E-15 ) ) ;
#250 = DIRECTION ( 'NONE',  ( 1.000000000000000000, 0.0000000000000000000, -7.142846386735438333E-15 ) ) ;
#251 = APPLICATION_CONTEXT ( 'automotive_design' ) ;
#252 = AXIS2_PLACEMENT_3D ( 'NONE', #90, #81, #17 ) ;
#253 = CARTESIAN_POINT ( 'NONE',  ( -2.840105996647893598E-13, 0.0000000000000000000, -39.95000000000000284 ) ) ;
#254 = PRESENTATION_STYLE_ASSIGNMENT (( #157 ) ) ;
#255 = AXIS2_PLACEMENT_3D ( 'NONE', #253, #231, #142 ) ;
#256 = CARTESIAN_POINT ( 'NONE',  ( 0.0000000000000000000, 0.0000000000000000000, 0.0000000000000000000 ) ) ;
#257 =( NAMED_UNIT ( * ) PLANE_ANGLE_UNIT ( ) SI_UNIT ( $, .RADIAN. ) );
#258 =( NAMED_UNIT ( * ) SI_UNIT ( $, .STERADIAN. ) SOLID_ANGLE_UNIT ( ) );
#259 = UNCERTAINTY_MEASURE_WITH_UNIT (LENGTH_MEASURE( 1.000000000000000082E-05 ), #97, 'distance_accuracy_value', 'NONE');
#260 = DIRECTION ( 'NONE',  ( -6.982962677686266711E-15, 0.0000000000000000000, -1.000000000000000000 ) ) ;
#261 = DIRECTION ( 'NONE',  ( 1.000000000000000000, 0.0000000000000000000, -7.359432928386459981E-15 ) ) ;
#262 = EDGE_CURVE ( 'NONE', #240, #240, #42, .T. ) ;
#263 = DIRECTION ( 'NONE',  ( 1.000000000000000000, 0.0000000000000000000, -8.410780489584526369E-15 ) ) ;
#264 = DIRECTION ( 'NONE',  ( 7.086642275570772321E-15, -0.0000000000000000000, 1.000000000000000000 ) ) ;
#265 = COLOUR_RGB ( '',0.8000000000000000444, 0.8000000000000000444, 0.8000000000000000444 ) ;
#266 = SURFACE_STYLE_FILL_AREA ( #210 ) ;
#267 = CARTESIAN_POINT ( 'NONE',  ( -4.189777606611783692E-15, 0.0000000000000000000, -0.6000000000000033085 ) ) ;
#268 = EDGE_LOOP ( 'NONE', ( #130 ) ) ;
#269 = VERTEX_POINT ( 'NONE', #21 ) ;
#270 = CLOSED_SHELL ( 'NONE', ( #52, #160, #102 ) ) ;
#271 = ORIENTED_EDGE ( 'NONE', *, *, #137, .F. ) ;
#272 = SURFACE_STYLE_FILL_AREA ( #11 ) ;
#273 = MECHANICAL_DESIGN_GEOMETRIC_PRESENTATION_REPRESENTATION (  '', ( #38 ), #199 ) ;
#274 = PRESENTATION_LAYER_ASSIGNMENT (  '', '', ( #189 ) ) ;
#275 = ADVANCED_FACE ( 'NONE', ( #172 ), #212, .T. ) ;
#276 = SHAPE_DEFINITION_REPRESENTATION ( #170, #220 ) ;
#277 = DIRECTION ( 'NONE',  ( -1.000000000000000000, 0.0000000000000000000, 6.982962677686266711E-15 ) ) ;
#278 = FACE_OUTER_BOUND ( 'NONE', #247, .T. ) ;
#279 = SURFACE_SIDE_STYLE ('',( #159 ) ) ;
#280 = MECHANICAL_DESIGN_GEOMETRIC_PRESENTATION_REPRESENTATION (  '', ( #145 ), #96 ) ;
#281 = SURFACE_STYLE_USAGE ( .BOTH. , #227 ) ;
#282 = AXIS2_PLACEMENT_3D ( 'NONE', #217, #155, #249 ) ;
#283 = CARTESIAN_POINT ( 'NONE',  ( 6.056509442254067229E-14, 0.0000000000000000000, 8.673266236417621400 ) ) ;
#284 = PRESENTATION_STYLE_ASSIGNMENT (( #33 ) ) ;
#285 = VERTEX_POINT ( 'NONE', #65 ) ;
#286 = VERTEX_POINT ( 'NONE', #103 ) ;
#287 = CARTESIAN_POINT ( 'NONE',  ( -1.650000000000352074, 0.0000000000000000000, -49.52687011349796364 ) ) ;
#288 = ORIENTED_EDGE ( 'NONE', *, *, #131, .T. ) ;
ENDSEC;
END-ISO-10303-21;
21573