ISO-10303-21;
HEADER;
FILE_DESCRIPTION (( 'STEP AP214' ),
    '1' );
FILE_NAME ('004.000.25.step',
    '2019-05-20T14:00:31',
    ( '' ),
    ( '' ),
    'SwSTEP 2.0',
    'SolidWorks 2019',
    '' );
FILE_SCHEMA (( 'AUTOMOTIVE_DESIGN' ));
ENDSEC;

DATA;
#1 = MECHANICAL_DESIGN_GEOMETRIC_PRESENTATION_REPRESENTATION (  '', ( #68 ), #90 ) ;
#2 = AXIS2_PLACEMENT_3D ( 'NONE', #60, #128, #34 ) ;
#3 = SURFACE_STYLE_FILL_AREA ( #130 ) ;
#4 = PRODUCT_DEFINITION_FORMATION_WITH_SPECIFIED_SOURCE ( 'ANY', '', #10, .NOT_KNOWN. ) ;
#5 = CARTESIAN_POINT ( 'NONE',  ( -2.394659934568547923E-13, 0.0000000000000000000, -34.29289321881345387 ) ) ;
#6 = ORIENTED_EDGE ( 'NONE', *, *, #264, .F. ) ;
#7 = ADVANCED_BREP_SHAPE_REPRESENTATION ( '004.000.25', ( #42, #143, #20 ), #93 ) ;
#8 = EDGE_LOOP ( 'NONE', ( #119 ) ) ;
#9 = FILL_AREA_STYLE_COLOUR ( '', #116 ) ;
#10 = PRODUCT ( '004.000.25', '004.000.25', '', ( #45 ) ) ;
#11 = VERTEX_POINT ( 'NONE', #103 ) ;
#12 = SURFACE_STYLE_FILL_AREA ( #201 ) ;
#13 = CIRCLE ( 'NONE', #202, 1.542893218813451872 ) ;
#14 = CARTESIAN_POINT ( 'NONE',  ( -2.755066289341044914E-13, 0.0000000000000000000, -38.75000000000000711 ) ) ;
#15 = DIRECTION ( 'NONE',  ( 1.000000000000000000, 0.0000000000000000000, -5.551115123125787435E-15 ) ) ;
#16 = ADVANCED_FACE ( 'NONE', ( #254 ), #125, .T. ) ;
#17 = PRESENTATION_STYLE_ASSIGNMENT (( #196 ) ) ;
#18 = AXIS2_PLACEMENT_3D ( 'NONE', #104, #154, #72 ) ;
#19 = CARTESIAN_POINT ( 'NONE',  ( 2.999999999999995559, 0.0000000000000000000, -0.6000000000000241807 ) ) ;
#20 = AXIS2_PLACEMENT_3D ( 'NONE', #187, #70, #228 ) ;
#21 = CARTESIAN_POINT ( 'NONE',  ( 1.249999999999723332, 0.0000000000000000000, -38.75000000000001421 ) ) ;
#22 = AXIS2_PLACEMENT_3D ( 'NONE', #158, #231, #217 ) ;
#23 = CLOSED_SHELL ( 'NONE', ( #41, #115, #268 ) ) ;
#24 = PRODUCT_DEFINITION ( 'UNKNOWN', '', #4, #148 ) ;
#25 = SURFACE_SIDE_STYLE ('',( #140 ) ) ;
#26 =( NAMED_UNIT ( * ) SI_UNIT ( $, .STERADIAN. ) SOLID_ANGLE_UNIT ( ) );
#27 = CLOSED_SHELL ( 'NONE', ( #246, #214, #97, #165, #120, #203, #16 ) ) ;
#28 = PRESENTATION_STYLE_ASSIGNMENT (( #122 ) ) ;
#29 = EDGE_LOOP ( 'NONE', ( #170 ) ) ;
#30 = DIRECTION ( 'NONE',  ( 6.982962677686266711E-15, 0.0000000000000000000, 1.000000000000000000 ) ) ;
#31 = DIRECTION ( 'NONE',  ( 1.000000000000000000, 0.0000000000000000000, -6.938893903907231533E-15 ) ) ;
#32 = CARTESIAN_POINT ( 'NONE',  ( -2.292910711864256445E-13, 0.0000000000000000000, -32.83578643762691485 ) ) ;
#33 = STYLED_ITEM ( 'NONE', ( #175 ), #203 ) ;
#34 = DIRECTION ( 'NONE',  ( -1.000000000000000000, 0.0000000000000000000, 5.551115123125781124E-15 ) ) ;
#35 = DIRECTION ( 'NONE',  ( 1.000000000000000000, 0.0000000000000000000, -7.099234647280109302E-15 ) ) ;
#36 = DIRECTION ( 'NONE',  ( 1.000000000000000000, 0.0000000000000000000, -6.938893903907231533E-15 ) ) ;
#37 =( NAMED_UNIT ( * ) PLANE_ANGLE_UNIT ( ) SI_UNIT ( $, .RADIAN. ) );
#38 = DIRECTION ( 'NONE',  ( 7.086642275570772321E-15, 0.0000000000000000000, 1.000000000000000000 ) ) ;
#39 = DIRECTION ( 'NONE',  ( 1.000000000000000000, 0.0000000000000000000, -6.975033976323412122E-15 ) ) ;
#40 = DIRECTION ( 'NONE',  ( 1.000000000000000000, 0.0000000000000000000, -5.551115123125787435E-15 ) ) ;
#41 = ADVANCED_FACE ( 'NONE', ( #248 ), #142, .F. ) ;
#42 = MANIFOLD_SOLID_BREP ( 'Körper in Z minus drehen[1]', #27 ) ;
#43 = CIRCLE ( 'NONE', #209, 2.399999999999998135 ) ;
#44 = ORIENTED_EDGE ( 'NONE', *, *, #229, .T. ) ;
#45 = PRODUCT_CONTEXT ( 'NONE', #81, 'mechanical' ) ;
#46 = EDGE_CURVE ( 'NONE', #11, #11, #13, .T. ) ;
#47 = SURFACE_SIDE_STYLE ('',( #207 ) ) ;
#48 = CIRCLE ( 'NONE', #2, 1.250000000000000444 ) ;
#49 =( LENGTH_UNIT ( ) NAMED_UNIT ( * ) SI_UNIT ( .MILLI., .METRE. ) );
#50 = ORIENTED_EDGE ( 'NONE', *, *, #46, .T. ) ;
#51 = DIRECTION ( 'NONE',  ( -6.982962677686266711E-15, 0.0000000000000000000, -1.000000000000000000 ) ) ;
#52 = ORIENTED_EDGE ( 'NONE', *, *, #252, .T. ) ;
#53 = MECHANICAL_DESIGN_GEOMETRIC_PRESENTATION_REPRESENTATION (  '', ( #285 ), #173 ) ;
#54 = PLANE ( 'NONE',  #185 ) ;
#55 = FILL_AREA_STYLE_COLOUR ( '', #174 ) ;
#56 = DIRECTION ( 'NONE',  ( 6.982962677686266711E-15, 0.0000000000000000000, 1.000000000000000000 ) ) ;
#57 = COLOUR_RGB ( '',0.8000000000000000444, 0.8000000000000000444, 0.8000000000000000444 ) ;
#58 =( LENGTH_UNIT ( ) NAMED_UNIT ( * ) SI_UNIT ( .MILLI., .METRE. ) );
#59 = CARTESIAN_POINT ( 'NONE',  ( 6.731410921036497068E-12, 0.0000000000000000000, 950.0000000000000000 ) ) ;
#60 = CARTESIAN_POINT ( 'NONE',  ( -3.526912770679716895E-13, 0.0000000000000000000, -49.64156826780150311 ) ) ;
#61 =( LENGTH_UNIT ( ) NAMED_UNIT ( * ) SI_UNIT ( .MILLI., .METRE. ) );
#62 = SURFACE_SIDE_STYLE ('',( #3 ) ) ;
#63 = EDGE_CURVE ( 'NONE', #178, #178, #149, .T. ) ;
#64 =( LENGTH_UNIT ( ) NAMED_UNIT ( * ) SI_UNIT ( .MILLI., .METRE. ) );
#65 = AXIS2_PLACEMENT_3D ( 'NONE', #73, #51, #275 ) ;
#66 = CIRCLE ( 'NONE', #281, 2.999999999999998668 ) ;
#67 = EDGE_LOOP ( 'NONE', ( #74 ) ) ;
#68 = STYLED_ITEM ( 'NONE', ( #273 ), #115 ) ;
#69 = PRESENTATION_STYLE_ASSIGNMENT (( #182 ) ) ;
#70 = DIRECTION ( 'NONE',  ( 0.0000000000000000000, 0.0000000000000000000, 1.000000000000000000 ) ) ;
#71 = STYLED_ITEM ( 'NONE', ( #88 ), #42 ) ;
#72 = DIRECTION ( 'NONE',  ( -1.000000000000000000, 0.0000000000000000000, 5.551115123125781913E-15 ) ) ;
#73 = CARTESIAN_POINT ( 'NONE',  ( -2.705898037603428666E-13, 0.0000000000000000000, -38.75000000000000711 ) ) ;
#74 = ORIENTED_EDGE ( 'NONE', *, *, #163, .F. ) ;
#75 = SURFACE_STYLE_USAGE ( .BOTH. , #25 ) ;
#76 = FILL_AREA_STYLE ('',( #118 ) ) ;
#77 = EDGE_LOOP ( 'NONE', ( #247 ) ) ;
#78 = DIRECTION ( 'NONE',  ( -1.000000000000000000, 0.0000000000000000000, 6.982962677686266711E-15 ) ) ;
#79 = EDGE_LOOP ( 'NONE', ( #271 ) ) ;
#80 = ORIENTED_EDGE ( 'NONE', *, *, #163, .T. ) ;
#81 = APPLICATION_CONTEXT ( 'automotive_design' ) ;
#82 = EDGE_CURVE ( 'NONE', #92, #92, #48, .T. ) ;
#83 = AXIS2_PLACEMENT_3D ( 'NONE', #59, #38, #35 ) ;
#84 = CARTESIAN_POINT ( 'NONE',  ( -4.189777606611783692E-15, 0.0000000000000000000, -0.6000000000000033085 ) ) ;
#85 = FACE_BOUND ( 'NONE', #67, .T. ) ;
#86 = DIRECTION ( 'NONE',  ( -6.982962677686266711E-15, 0.0000000000000000000, -1.000000000000000000 ) ) ;
#87 = CARTESIAN_POINT ( 'NONE',  ( 6.056509442254067229E-14, 0.0000000000000000000, 8.673266236417621400 ) ) ;
#88 = PRESENTATION_STYLE_ASSIGNMENT (( #282 ) ) ;
#89 = CARTESIAN_POINT ( 'NONE',  ( 6.056509442254067229E-14, 0.0000000000000000000, 8.673266236417621400 ) ) ;
#90 =( GEOMETRIC_REPRESENTATION_CONTEXT ( 3 ) GLOBAL_UNCERTAINTY_ASSIGNED_CONTEXT ( ( #188 ) ) GLOBAL_UNIT_ASSIGNED_CONTEXT ( ( #49, #109, #261 ) ) REPRESENTATION_CONTEXT ( 'NONE', 'WORKASPACE' ) );
#91 =( NAMED_UNIT ( * ) SI_UNIT ( $, .STERADIAN. ) SOLID_ANGLE_UNIT ( ) );
#92 = VERTEX_POINT ( 'NONE', #141 ) ;
#93 =( GEOMETRIC_REPRESENTATION_CONTEXT ( 3 ) GLOBAL_UNCERTAINTY_ASSIGNED_CONTEXT ( ( #250 ) ) GLOBAL_UNIT_ASSIGNED_CONTEXT ( ( #135, #211, #26 ) ) REPRESENTATION_CONTEXT ( 'NONE', 'WORKASPACE' ) );
#94 = CARTESIAN_POINT ( 'NONE',  ( 2.399999999999998135, 0.0000000000000000000, -1.675911042644702748E-14 ) ) ;
#95 = CARTESIAN_POINT ( 'NONE',  ( -1.250000000000244693, 0.0000000000000000000, -34.99999999999999289 ) ) ;
#96 = STYLED_ITEM ( 'NONE', ( #17 ), #268 ) ;
#97 = ADVANCED_FACE ( 'NONE', ( #133, #155 ), #255, .T. ) ;
#98 = SURFACE_STYLE_FILL_AREA ( #76 ) ;
#99 = EDGE_LOOP ( 'NONE', ( #101 ) ) ;
#100 = UNCERTAINTY_MEASURE_WITH_UNIT (LENGTH_MEASURE( 1.000000000000000082E-05 ), #64, 'distance_accuracy_value', 'NONE');
#101 = ORIENTED_EDGE ( 'NONE', *, *, #264, .T. ) ;
#102 = AXIS2_PLACEMENT_3D ( 'NONE', #213, #139, #78 ) ;
#103 = CARTESIAN_POINT ( 'NONE',  ( -1.542893218813691236, 0.0000000000000000000, -34.29289321881343966 ) ) ;
#104 = CARTESIAN_POINT ( 'NONE',  ( -2.444036937190193601E-13, 0.0000000000000000000, -35.00000000000000000 ) ) ;
#105 = FILL_AREA_STYLE ('',( #55 ) ) ;
#106 = SURFACE_SIDE_STYLE ('',( #12 ) ) ;
#107 = DIRECTION ( 'NONE',  ( 6.982962677686266711E-15, 0.0000000000000000000, 1.000000000000000000 ) ) ;
#108 = FACE_OUTER_BOUND ( 'NONE', #29, .T. ) ;
#109 =( NAMED_UNIT ( * ) PLANE_ANGLE_UNIT ( ) SI_UNIT ( $, .RADIAN. ) );
#110 = DIRECTION ( 'NONE',  ( 6.982962677686266711E-15, 0.0000000000000000000, 1.000000000000000000 ) ) ;
#111 = DIRECTION ( 'NONE',  ( 6.982962677686266711E-15, 0.0000000000000000000, 1.000000000000000000 ) ) ;
#112 = FACE_OUTER_BOUND ( 'NONE', #277, .T. ) ;
#113 = EDGE_LOOP ( 'NONE', ( #127 ) ) ;
#114 = MECHANICAL_DESIGN_GEOMETRIC_PRESENTATION_REPRESENTATION (  '', ( #192 ), #276 ) ;
#115 = ADVANCED_FACE ( 'NONE', ( #216 ), #210, .T. ) ;
#116 = COLOUR_RGB ( '',0.4980392156862745168, 0.4980392156862745168, 0.4980392156862745168 ) ;
#117 = COLOUR_RGB ( '',0.5019607843137254832, 0.5019607843137254832, 0.5019607843137254832 ) ;
#118 = FILL_AREA_STYLE_COLOUR ( '', #242 ) ;
#119 = ORIENTED_EDGE ( 'NONE', *, *, #123, .F. ) ;
#120 = ADVANCED_FACE ( 'NONE', ( #150, #218 ), #243, .F. ) ;
#121 = SURFACE_SIDE_STYLE ('',( #98 ) ) ;
#122 = SURFACE_STYLE_USAGE ( .BOTH. , #121 ) ;
#123 = EDGE_CURVE ( 'NONE', #223, #223, #279, .T. ) ;
#124 = ORIENTED_EDGE ( 'NONE', *, *, #123, .T. ) ;
#125 = PLANE ( 'NONE',  #65 ) ;
#126 = AXIS2_PLACEMENT_3D ( 'NONE', #89, #134, #215 ) ;
#127 = ORIENTED_EDGE ( 'NONE', *, *, #63, .F. ) ;
#128 = DIRECTION ( 'NONE',  ( -7.086642275570772321E-15, 0.0000000000000000000, -1.000000000000000000 ) ) ;
#129 = FACE_OUTER_BOUND ( 'NONE', #77, .T. ) ;
#130 = FILL_AREA_STYLE ('',( #152 ) ) ;
#131 =( NAMED_UNIT ( * ) PLANE_ANGLE_UNIT ( ) SI_UNIT ( $, .RADIAN. ) );
#132 = CARTESIAN_POINT ( 'NONE',  ( -2.444036937190193601E-13, 0.0000000000000000000, -35.00000000000000000 ) ) ;
#133 = FACE_OUTER_BOUND ( 'NONE', #113, .T. ) ;
#134 = DIRECTION ( 'NONE',  ( 7.086642275570772321E-15, -0.0000000000000000000, 1.000000000000000000 ) ) ;
#135 =( LENGTH_UNIT ( ) NAMED_UNIT ( * ) SI_UNIT ( .MILLI., .METRE. ) );
#136 =( GEOMETRIC_REPRESENTATION_CONTEXT ( 3 ) GLOBAL_UNCERTAINTY_ASSIGNED_CONTEXT ( ( #181 ) ) GLOBAL_UNIT_ASSIGNED_CONTEXT ( ( #61, #153, #91 ) ) REPRESENTATION_CONTEXT ( 'NONE', 'WORKASPACE' ) );
#137 = APPLICATION_PROTOCOL_DEFINITION ( 'draft international standard', 'automotive_design', 1998, #81 ) ;
#138 = SHAPE_DEFINITION_REPRESENTATION ( #258, #7 ) ;
#139 = DIRECTION ( 'NONE',  ( -6.982962677686266711E-15, 0.0000000000000000000, -1.000000000000000000 ) ) ;
#140 = SURFACE_STYLE_FILL_AREA ( #105 ) ;
#141 = CARTESIAN_POINT ( 'NONE',  ( -1.250000000000353273, 0.0000000000000000000, -49.64156826780149601 ) ) ;
#142 = PLANE ( 'NONE',  #102 ) ;
#143 = MANIFOLD_SOLID_BREP ( 'Körper in Z minus drehen[2]', #23 ) ;
#144 = UNCERTAINTY_MEASURE_WITH_UNIT (LENGTH_MEASURE( 1.000000000000000082E-05 ), #262, 'distance_accuracy_value', 'NONE');
#145 =( GEOMETRIC_REPRESENTATION_CONTEXT ( 3 ) GLOBAL_UNCERTAINTY_ASSIGNED_CONTEXT ( ( #177 ) ) GLOBAL_UNIT_ASSIGNED_CONTEXT ( ( #58, #37, #204 ) ) REPRESENTATION_CONTEXT ( 'NONE', 'WORKASPACE' ) );
#146 = EDGE_LOOP ( 'NONE', ( #6 ) ) ;
#147 = CARTESIAN_POINT ( 'NONE',  ( -2.394659934568547923E-13, 0.0000000000000000000, -34.29289321881345387 ) ) ;
#148 = PRODUCT_DEFINITION_CONTEXT ( 'detailed design', #239, 'design' ) ;
#149 = CIRCLE ( 'NONE', #286, 3.000000000000000000 ) ;
#150 = FACE_OUTER_BOUND ( 'NONE', #244, .T. ) ;
#151 = COLOUR_RGB ( '',0.4980392156862745168, 0.4980392156862745168, 0.4980392156862745168 ) ;
#152 = FILL_AREA_STYLE_COLOUR ( '', #117 ) ;
#153 =( NAMED_UNIT ( * ) PLANE_ANGLE_UNIT ( ) SI_UNIT ( $, .RADIAN. ) );
#154 = DIRECTION ( 'NONE',  ( -6.982962677686266711E-15, 0.0000000000000000000, -1.000000000000000000 ) ) ;
#155 = FACE_OUTER_BOUND ( 'NONE', #99, .T. ) ;
#156 = FACE_BOUND ( 'NONE', #161, .T. ) ;
#157 = SURFACE_SIDE_STYLE ('',( #245 ) ) ;
#158 = CARTESIAN_POINT ( 'NONE',  ( 0.0000000000000000000, 0.0000000000000000000, 0.0000000000000000000 ) ) ;
#159 =( NAMED_UNIT ( * ) SI_UNIT ( $, .STERADIAN. ) SOLID_ANGLE_UNIT ( ) );
#160 = AXIS2_PLACEMENT_3D ( 'NONE', #260, #259, #40 ) ;
#161 = EDGE_LOOP ( 'NONE', ( #191 ) ) ;
#162 = VERTEX_POINT ( 'NONE', #263 ) ;
#163 = EDGE_CURVE ( 'NONE', #288, #288, #43, .T. ) ;
#164 = PRESENTATION_LAYER_ASSIGNMENT (  '', '', ( #71 ) ) ;
#165 = ADVANCED_FACE ( 'NONE', ( #222, #156 ), #226, .T. ) ;
#166 = ORIENTED_EDGE ( 'NONE', *, *, #82, .T. ) ;
#167 = FILL_AREA_STYLE ('',( #9 ) ) ;
#168 = AXIS2_PLACEMENT_3D ( 'NONE', #5, #189, #225 ) ;
#169 = EDGE_LOOP ( 'NONE', ( #166 ) ) ;
#170 = ORIENTED_EDGE ( 'NONE', *, *, #229, .F. ) ;
#171 = FACE_OUTER_BOUND ( 'NONE', #193, .T. ) ;
#172 = DIRECTION ( 'NONE',  ( 1.000000000000000000, 0.0000000000000000000, -6.938893903907234689E-15 ) ) ;
#173 =( GEOMETRIC_REPRESENTATION_CONTEXT ( 3 ) GLOBAL_UNCERTAINTY_ASSIGNED_CONTEXT ( ( #144 ) ) GLOBAL_UNIT_ASSIGNED_CONTEXT ( ( #262, #233, #159 ) ) REPRESENTATION_CONTEXT ( 'NONE', 'WORKASPACE' ) );
#174 = COLOUR_RGB ( '',0.8000000000000000444, 0.8000000000000000444, 0.8000000000000000444 ) ;
#175 = PRESENTATION_STYLE_ASSIGNMENT (( #287 ) ) ;
#176 = CYLINDRICAL_SURFACE ( 'NONE', #241, 1.249999999999998890 ) ;
#177 = UNCERTAINTY_MEASURE_WITH_UNIT (LENGTH_MEASURE( 1.000000000000000082E-05 ), #58, 'distance_accuracy_value', 'NONE');
#178 = VERTEX_POINT ( 'NONE', #19 ) ;
#179 = FILL_AREA_STYLE ('',( #206 ) ) ;
#180 = MECHANICAL_DESIGN_GEOMETRIC_PRESENTATION_REPRESENTATION (  '', ( #33 ), #267 ) ;
#181 = UNCERTAINTY_MEASURE_WITH_UNIT (LENGTH_MEASURE( 1.000000000000000082E-05 ), #61, 'distance_accuracy_value', 'NONE');
#182 = SURFACE_STYLE_USAGE ( .BOTH. , #47 ) ;
#183 = PRESENTATION_LAYER_ASSIGNMENT (  '', '', ( #68 ) ) ;
#184 = VERTEX_POINT ( 'NONE', #21 ) ;
#185 = AXIS2_PLACEMENT_3D ( 'NONE', #236, #232, #198 ) ;
#186 = PRESENTATION_LAYER_ASSIGNMENT (  '', '', ( #285 ) ) ;
#187 = CARTESIAN_POINT ( 'NONE',  ( 0.0000000000000000000, 0.0000000000000000000, 0.0000000000000000000 ) ) ;
#188 = UNCERTAINTY_MEASURE_WITH_UNIT (LENGTH_MEASURE( 1.000000000000000082E-05 ), #49, 'distance_accuracy_value', 'NONE');
#189 = DIRECTION ( 'NONE',  ( 6.982962677686266711E-15, 0.0000000000000000000, 1.000000000000000000 ) ) ;
#190 = PRESENTATION_LAYER_ASSIGNMENT (  '', '', ( #33 ) ) ;
#191 = ORIENTED_EDGE ( 'NONE', *, *, #46, .F. ) ;
#192 = STYLED_ITEM ( 'NONE', ( #69 ), #7 ) ;
#193 = EDGE_LOOP ( 'NONE', ( #52 ) ) ;
#194 = DIRECTION ( 'NONE',  ( -6.982962677686266711E-15, 0.0000000000000000000, -1.000000000000000000 ) ) ;
#195 = FACE_OUTER_BOUND ( 'NONE', #270, .T. ) ;
#196 = SURFACE_STYLE_USAGE ( .BOTH. , #106 ) ;
#197 = PRESENTATION_LAYER_ASSIGNMENT (  '', '', ( #96 ) ) ;
#198 = DIRECTION ( 'NONE',  ( 1.000000000000000000, 0.0000000000000000000, -6.982962677686266711E-15 ) ) ;
#199 = CONICAL_SURFACE ( 'NONE', #22, 2.399999999999998135, 0.7853981633974472798 ) ;
#200 = DIRECTION ( 'NONE',  ( 1.000000000000000000, 0.0000000000000000000, -6.982962677686266711E-15 ) ) ;
#201 = FILL_AREA_STYLE ('',( #283 ) ) ;
#202 = AXIS2_PLACEMENT_3D ( 'NONE', #147, #194, #278 ) ;
#203 = ADVANCED_FACE ( 'NONE', ( #171, #112 ), #176, .T. ) ;
#204 =( NAMED_UNIT ( * ) SI_UNIT ( $, .STERADIAN. ) SOLID_ANGLE_UNIT ( ) );
#205 = PRESENTATION_LAYER_ASSIGNMENT (  '', '', ( #192 ) ) ;
#206 = FILL_AREA_STYLE_COLOUR ( '', #151 ) ;
#207 = SURFACE_STYLE_FILL_AREA ( #179 ) ;
#208 = PRODUCT_RELATED_PRODUCT_CATEGORY ( 'part', '', ( #10 ) ) ;
#209 = AXIS2_PLACEMENT_3D ( 'NONE', #234, #110, #200 ) ;
#210 = CONICAL_SURFACE ( 'NONE', #83, 3487.414443840981676, 1.291543646475809437 ) ;
#211 =( NAMED_UNIT ( * ) PLANE_ANGLE_UNIT ( ) SI_UNIT ( $, .RADIAN. ) );
#212 = ORIENTED_EDGE ( 'NONE', *, *, #63, .T. ) ;
#213 = CARTESIAN_POINT ( 'NONE',  ( -2.705898037603428666E-13, 0.0000000000000000000, -38.75000000000000711 ) ) ;
#214 = ADVANCED_FACE ( 'NONE', ( #221, #85 ), #199, .T. ) ;
#215 = DIRECTION ( 'NONE',  ( 1.000000000000000000, 0.0000000000000000000, -6.938893903907234689E-15 ) ) ;
#216 = FACE_OUTER_BOUND ( 'NONE', #169, .T. ) ;
#217 = DIRECTION ( 'NONE',  ( -1.000000000000000000, 0.0000000000000000000, 6.982962677686266711E-15 ) ) ;
#218 = FACE_OUTER_BOUND ( 'NONE', #8, .T. ) ;
#219 = CARTESIAN_POINT ( 'NONE',  ( -3.491481338843133355E-13, 0.0000000000000000000, -50.00000000000000000 ) ) ;
#220 = DIRECTION ( 'NONE',  ( 7.086642275570772321E-15, -0.0000000000000000000, 1.000000000000000000 ) ) ;
#221 = FACE_OUTER_BOUND ( 'NONE', #274, .T. ) ;
#222 = FACE_OUTER_BOUND ( 'NONE', #146, .T. ) ;
#223 = VERTEX_POINT ( 'NONE', #95 ) ;
#224 = APPLICATION_PROTOCOL_DEFINITION ( 'draft international standard', 'automotive_design', 1998, #239 ) ;
#225 = DIRECTION ( 'NONE',  ( 1.000000000000000000, 0.0000000000000000000, -8.994652149995866308E-15 ) ) ;
#226 = CONICAL_SURFACE ( 'NONE', #168, 1.542893218813451872, 0.7853981633974507215 ) ;
#227 =( NAMED_UNIT ( * ) PLANE_ANGLE_UNIT ( ) SI_UNIT ( $, .RADIAN. ) );
#228 = DIRECTION ( 'NONE',  ( 1.000000000000000000, 0.0000000000000000000, 0.0000000000000000000 ) ) ;
#229 = EDGE_CURVE ( 'NONE', #184, #184, #272, .T. ) ;
#230 = AXIS2_PLACEMENT_3D ( 'NONE', #14, #56, #15 ) ;
#231 = DIRECTION ( 'NONE',  ( -6.982962677686266711E-15, 0.0000000000000000000, -1.000000000000000000 ) ) ;
#232 = DIRECTION ( 'NONE',  ( 6.982962677686266711E-15, 0.0000000000000000000, 1.000000000000000000 ) ) ;
#233 =( NAMED_UNIT ( * ) PLANE_ANGLE_UNIT ( ) SI_UNIT ( $, .RADIAN. ) );
#234 = CARTESIAN_POINT ( 'NONE',  ( 0.0000000000000000000, 0.0000000000000000000, 0.0000000000000000000 ) ) ;
#235 = MECHANICAL_DESIGN_GEOMETRIC_PRESENTATION_REPRESENTATION (  '', ( #96 ), #145 ) ;
#236 = CARTESIAN_POINT ( 'NONE',  ( -6.959334514394136105E-31, 0.0000000000000000000, -9.966163125334131004E-17 ) ) ;
#237 = CIRCLE ( 'NONE', #160, 1.249999999999998890 ) ;
#238 =( NAMED_UNIT ( * ) SI_UNIT ( $, .STERADIAN. ) SOLID_ANGLE_UNIT ( ) );
#239 = APPLICATION_CONTEXT ( 'automotive_design' ) ;
#240 = AXIS2_PLACEMENT_3D ( 'NONE', #132, #86, #257 ) ;
#241 = AXIS2_PLACEMENT_3D ( 'NONE', #87, #220, #172 ) ;
#242 = COLOUR_RGB ( '',0.4980392156862745168, 0.4980392156862745168, 0.4980392156862745168 ) ;
#243 = TOROIDAL_SURFACE ( 'NONE', #240, 2.250000000000000444, 1.000000000000003109 ) ;
#244 = EDGE_LOOP ( 'NONE', ( #50 ) ) ;
#245 = SURFACE_STYLE_FILL_AREA ( #167 ) ;
#246 = ADVANCED_FACE ( 'NONE', ( #195 ), #54, .T. ) ;
#247 = ORIENTED_EDGE ( 'NONE', *, *, #82, .F. ) ;
#248 = FACE_OUTER_BOUND ( 'NONE', #253, .T. ) ;
#249 = AXIS2_PLACEMENT_3D ( 'NONE', #219, #111, #36 ) ;
#250 = UNCERTAINTY_MEASURE_WITH_UNIT (LENGTH_MEASURE( 1.000000000000000082E-05 ), #135, 'distance_accuracy_value', 'NONE');
#251 = UNCERTAINTY_MEASURE_WITH_UNIT (LENGTH_MEASURE( 1.000000000000000082E-05 ), #280, 'distance_accuracy_value', 'NONE');
#252 = EDGE_CURVE ( 'NONE', #266, #266, #237, .T. ) ;
#253 = EDGE_LOOP ( 'NONE', ( #44 ) ) ;
#254 = FACE_OUTER_BOUND ( 'NONE', #79, .T. ) ;
#255 = CYLINDRICAL_SURFACE ( 'NONE', #249, 2.999999999999998668 ) ;
#256 =( NAMED_UNIT ( * ) SI_UNIT ( $, .STERADIAN. ) SOLID_ANGLE_UNIT ( ) );
#257 = DIRECTION ( 'NONE',  ( -1.000000000000000000, 0.0000000000000000000, 6.982962677686266711E-15 ) ) ;
#258 = PRODUCT_DEFINITION_SHAPE ( 'NONE', 'NONE',  #24 ) ;
#259 = DIRECTION ( 'NONE',  ( 6.982962677686266711E-15, 0.0000000000000000000, 1.000000000000000000 ) ) ;
#260 = CARTESIAN_POINT ( 'NONE',  ( -2.755066289341044914E-13, 0.0000000000000000000, -38.75000000000000711 ) ) ;
#261 =( NAMED_UNIT ( * ) SI_UNIT ( $, .STERADIAN. ) SOLID_ANGLE_UNIT ( ) );
#262 =( LENGTH_UNIT ( ) NAMED_UNIT ( * ) SI_UNIT ( .MILLI., .METRE. ) );
#263 = CARTESIAN_POINT ( 'NONE',  ( 2.999999999999769518, 0.0000000000000000000, -32.83578643762693616 ) ) ;
#264 = EDGE_CURVE ( 'NONE', #162, #162, #66, .T. ) ;
#265 = MECHANICAL_DESIGN_GEOMETRIC_PRESENTATION_REPRESENTATION (  '', ( #71 ), #136 ) ;
#266 = VERTEX_POINT ( 'NONE', #269 ) ;
#267 =( GEOMETRIC_REPRESENTATION_CONTEXT ( 3 ) GLOBAL_UNCERTAINTY_ASSIGNED_CONTEXT ( ( #251 ) ) GLOBAL_UNIT_ASSIGNED_CONTEXT ( ( #280, #131, #256 ) ) REPRESENTATION_CONTEXT ( 'NONE', 'WORKASPACE' ) );
#268 = ADVANCED_FACE ( 'NONE', ( #129, #108 ), #284, .T. ) ;
#269 = CARTESIAN_POINT ( 'NONE',  ( 1.249999999999723332, 0.0000000000000000000, -38.75000000000001421 ) ) ;
#270 = EDGE_LOOP ( 'NONE', ( #80 ) ) ;
#271 = ORIENTED_EDGE ( 'NONE', *, *, #252, .F. ) ;
#272 = CIRCLE ( 'NONE', #230, 1.249999999999998890 ) ;
#273 = PRESENTATION_STYLE_ASSIGNMENT (( #75 ) ) ;
#274 = EDGE_LOOP ( 'NONE', ( #212 ) ) ;
#275 = DIRECTION ( 'NONE',  ( -1.000000000000000000, 0.0000000000000000000, 6.982962677686266711E-15 ) ) ;
#276 =( GEOMETRIC_REPRESENTATION_CONTEXT ( 3 ) GLOBAL_UNCERTAINTY_ASSIGNED_CONTEXT ( ( #100 ) ) GLOBAL_UNIT_ASSIGNED_CONTEXT ( ( #64, #227, #238 ) ) REPRESENTATION_CONTEXT ( 'NONE', 'WORKASPACE' ) );
#277 = EDGE_LOOP ( 'NONE', ( #124 ) ) ;
#278 = DIRECTION ( 'NONE',  ( -1.000000000000000000, 0.0000000000000000000, 8.994652149995866308E-15 ) ) ;
#279 = CIRCLE ( 'NONE', #18, 1.250000000000000222 ) ;
#280 =( LENGTH_UNIT ( ) NAMED_UNIT ( * ) SI_UNIT ( .MILLI., .METRE. ) );
#281 = AXIS2_PLACEMENT_3D ( 'NONE', #32, #107, #31 ) ;
#282 = SURFACE_STYLE_USAGE ( .BOTH. , #157 ) ;
#283 = FILL_AREA_STYLE_COLOUR ( '', #57 ) ;
#284 = CYLINDRICAL_SURFACE ( 'NONE', #126, 1.249999999999998890 ) ;
#285 = STYLED_ITEM ( 'NONE', ( #28 ), #143 ) ;
#286 = AXIS2_PLACEMENT_3D ( 'NONE', #84, #30, #39 ) ;
#287 = SURFACE_STYLE_USAGE ( .BOTH. , #62 ) ;
#288 = VERTEX_POINT ( 'NONE', #94 ) ;
ENDSEC;
END-ISO-10303-21;
21565