ISO-10303-21;
HEADER;
FILE_DESCRIPTION (( 'STEP AP214' ),
    '1' );
FILE_NAME ('004.001.40.step',
    '2019-05-20T14:01:06',
    ( '' ),
    ( '' ),
    'SwSTEP 2.0',
    'SolidWorks 2019',
    '' );
FILE_SCHEMA (( 'AUTOMOTIVE_DESIGN' ));
ENDSEC;

DATA;
#1 =( LENGTH_UNIT ( ) NAMED_UNIT ( * ) SI_UNIT ( .MILLI., .METRE. ) );
#2 = MECHANICAL_DESIGN_GEOMETRIC_PRESENTATION_REPRESENTATION (  '', ( #197 ), #16 ) ;
#3 = DIRECTION ( 'NONE',  ( 1.000000000000000000, 0.0000000000000000000, -6.969871108835385309E-15 ) ) ;
#4 = FACE_OUTER_BOUND ( 'NONE', #19, .T. ) ;
#5 = CARTESIAN_POINT ( 'NONE',  ( -5.656199768925876793E-13, 0.0000000000000000000, -81.00000000000000000 ) ) ;
#6 = FACE_OUTER_BOUND ( 'NONE', #198, .T. ) ;
#7 = APPLICATION_CONTEXT ( 'automotive_design' ) ;
#8 = ORIENTED_EDGE ( 'NONE', *, *, #78, .F. ) ;
#9 = ADVANCED_FACE ( 'NONE', ( #124, #85 ), #157, .T. ) ;
#10 = PRESENTATION_STYLE_ASSIGNMENT (( #125 ) ) ;
#11 = EDGE_CURVE ( 'NONE', #195, #195, #152, .T. ) ;
#12 = CYLINDRICAL_SURFACE ( 'NONE', #33, 6.999999999999992895 ) ;
#13 = MECHANICAL_DESIGN_GEOMETRIC_PRESENTATION_REPRESENTATION (  '', ( #90 ), #116 ) ;
#14 = ORIENTED_EDGE ( 'NONE', *, *, #48, .T. ) ;
#15 =( NAMED_UNIT ( * ) SI_UNIT ( $, .STERADIAN. ) SOLID_ANGLE_UNIT ( ) );
#16 =( GEOMETRIC_REPRESENTATION_CONTEXT ( 3 ) GLOBAL_UNCERTAINTY_ASSIGNED_CONTEXT ( ( #68 ) ) GLOBAL_UNIT_ASSIGNED_CONTEXT ( ( #166, #95, #41 ) ) REPRESENTATION_CONTEXT ( 'NONE', 'WORKASPACE' ) );
#17 = COLOUR_RGB ( '',0.4980392156862745168, 0.4980392156862745168, 0.4980392156862745168 ) ;
#18 = SURFACE_SIDE_STYLE ('',( #58 ) ) ;
#19 = EDGE_LOOP ( 'NONE', ( #8 ) ) ;
#20 = MECHANICAL_DESIGN_GEOMETRIC_PRESENTATION_REPRESENTATION (  '', ( #143 ), #74 ) ;
#21 = EDGE_LOOP ( 'NONE', ( #141 ) ) ;
#22 = DIRECTION ( 'NONE',  ( 1.000000000000000000, 0.0000000000000000000, -7.930164461608269117E-15 ) ) ;
#23 = SURFACE_SIDE_STYLE ('',( #163 ) ) ;
#24 = DIRECTION ( 'NONE',  ( -7.038939836196698817E-15, 0.0000000000000000000, -1.000000000000000000 ) ) ;
#25 = CIRCLE ( 'NONE', #123, 6.999999999999992895 ) ;
#26 = STYLED_ITEM ( 'NONE', ( #89 ), #174 ) ;
#27 = ORIENTED_EDGE ( 'NONE', *, *, #179, .F. ) ;
#28 = DIRECTION ( 'NONE',  ( -1.000000000000000000, 0.0000000000000000000, 6.982962677686266711E-15 ) ) ;
#29 = ADVANCED_FACE ( 'NONE', ( #63 ), #98, .T. ) ;
#30 =( LENGTH_UNIT ( ) NAMED_UNIT ( * ) SI_UNIT ( .MILLI., .METRE. ) );
#31 = DIRECTION ( 'NONE',  ( -6.982962677686266711E-15, 0.0000000000000000000, -1.000000000000000000 ) ) ;
#32 = PRESENTATION_LAYER_ASSIGNMENT (  '', '', ( #210 ) ) ;
#33 = AXIS2_PLACEMENT_3D ( 'NONE', #71, #208, #100 ) ;
#34 = DIRECTION ( 'NONE',  ( -6.982962677686266711E-15, 0.0000000000000000000, -1.000000000000000000 ) ) ;
#35 = UNCERTAINTY_MEASURE_WITH_UNIT (LENGTH_MEASURE( 1.000000000000000082E-05 ), #51, 'distance_accuracy_value', 'NONE');
#36 = MANIFOLD_SOLID_BREP ( 'Körper in Z minus drehen[2]', #75 ) ;
#37 = AXIS2_PLACEMENT_3D ( 'NONE', #148, #54, #84 ) ;
#38 = SURFACE_STYLE_FILL_AREA ( #203 ) ;
#39 = FILL_AREA_STYLE ('',( #185 ) ) ;
#40 = ORIENTED_EDGE ( 'NONE', *, *, #78, .T. ) ;
#41 =( NAMED_UNIT ( * ) SI_UNIT ( $, .STERADIAN. ) SOLID_ANGLE_UNIT ( ) );
#42 =( GEOMETRIC_REPRESENTATION_CONTEXT ( 3 ) GLOBAL_UNCERTAINTY_ASSIGNED_CONTEXT ( ( #47 ) ) GLOBAL_UNIT_ASSIGNED_CONTEXT ( ( #30, #193, #92 ) ) REPRESENTATION_CONTEXT ( 'NONE', 'WORKASPACE' ) );
#43 = PRODUCT_RELATED_PRODUCT_CATEGORY ( 'part', '', ( #132 ) ) ;
#44 = AXIS2_PLACEMENT_3D ( 'NONE', #147, #200, #67 ) ;
#45 = VERTEX_POINT ( 'NONE', #137 ) ;
#46 =( NAMED_UNIT ( * ) SI_UNIT ( $, .STERADIAN. ) SOLID_ANGLE_UNIT ( ) );
#47 = UNCERTAINTY_MEASURE_WITH_UNIT (LENGTH_MEASURE( 1.000000000000000082E-05 ), #30, 'distance_accuracy_value', 'NONE');
#48 = EDGE_CURVE ( 'NONE', #135, #135, #25, .T. ) ;
#49 = MECHANICAL_DESIGN_GEOMETRIC_PRESENTATION_REPRESENTATION (  '', ( #26 ), #42 ) ;
#50 =( NAMED_UNIT ( * ) PLANE_ANGLE_UNIT ( ) SI_UNIT ( $, .RADIAN. ) );
#51 =( LENGTH_UNIT ( ) NAMED_UNIT ( * ) SI_UNIT ( .MILLI., .METRE. ) );
#52 = FACE_OUTER_BOUND ( 'NONE', #109, .T. ) ;
#53 =( LENGTH_UNIT ( ) NAMED_UNIT ( * ) SI_UNIT ( .MILLI., .METRE. ) );
#54 = DIRECTION ( 'NONE',  ( 6.982962677686266711E-15, 0.0000000000000000000, 1.000000000000000000 ) ) ;
#55 = SURFACE_STYLE_USAGE ( .BOTH. , #161 ) ;
#56 = AXIS2_PLACEMENT_3D ( 'NONE', #69, #130, #207 ) ;
#57 = CIRCLE ( 'NONE', #180, 6.999999999999992895 ) ;
#58 = SURFACE_STYLE_FILL_AREA ( #117 ) ;
#59 = CARTESIAN_POINT ( 'NONE',  ( 0.0000000000000000000, 0.0000000000000000000, 0.0000000000000000000 ) ) ;
#60 = CIRCLE ( 'NONE', #86, 5.599999999999996092 ) ;
#61 = VERTEX_POINT ( 'NONE', #154 ) ;
#62 = DIRECTION ( 'NONE',  ( 6.982962677686266711E-15, 0.0000000000000000000, 1.000000000000000000 ) ) ;
#63 = FACE_OUTER_BOUND ( 'NONE', #72, .T. ) ;
#64 = DIRECTION ( 'NONE',  ( 1.000000000000000000, 0.0000000000000000000, -7.930164461608269117E-15 ) ) ;
#65 = FILL_AREA_STYLE ('',( #107 ) ) ;
#66 = FILL_AREA_STYLE ('',( #189 ) ) ;
#67 = DIRECTION ( 'NONE',  ( -1.000000000000000000, 0.0000000000000000000, 6.982962677686266711E-15 ) ) ;
#68 = UNCERTAINTY_MEASURE_WITH_UNIT (LENGTH_MEASURE( 1.000000000000000082E-05 ), #166, 'distance_accuracy_value', 'NONE');
#69 = CARTESIAN_POINT ( 'NONE',  ( 6.334560347778109491E-12, 0.0000000000000000000, 900.0000000000000000 ) ) ;
#70 = PRESENTATION_LAYER_ASSIGNMENT (  '', '', ( #197 ) ) ;
#71 = CARTESIAN_POINT ( 'NONE',  ( -6.982962677686266711E-13, 0.0000000000000000000, -100.0000000000000000 ) ) ;
#72 = EDGE_LOOP ( 'NONE', ( #14 ) ) ;
#73 = ADVANCED_FACE ( 'NONE', ( #52 ), #158, .T. ) ;
#74 =( GEOMETRIC_REPRESENTATION_CONTEXT ( 3 ) GLOBAL_UNCERTAINTY_ASSIGNED_CONTEXT ( ( #79 ) ) GLOBAL_UNIT_ASSIGNED_CONTEXT ( ( #1, #50, #182 ) ) REPRESENTATION_CONTEXT ( 'NONE', 'WORKASPACE' ) );
#75 = CLOSED_SHELL ( 'NONE', ( #108, #103, #9, #29 ) ) ;
#76 = COLOUR_RGB ( '',0.4980392156862745168, 0.4980392156862745168, 0.4980392156862745168 ) ;
#77 = CARTESIAN_POINT ( 'NONE',  ( -5.656199768925876793E-13, 0.0000000000000000000, -81.00000000000000000 ) ) ;
#78 = EDGE_CURVE ( 'NONE', #194, #194, #93, .T. ) ;
#79 = UNCERTAINTY_MEASURE_WITH_UNIT (LENGTH_MEASURE( 1.000000000000000082E-05 ), #1, 'distance_accuracy_value', 'NONE');
#80 = EDGE_LOOP ( 'NONE', ( #27 ) ) ;
#81 = PRESENTATION_LAYER_ASSIGNMENT (  '', '', ( #90 ) ) ;
#82 = CARTESIAN_POINT ( 'NONE',  ( -5.656199768925877803E-13, 0.0000000000000000000, -81.00000000000001421 ) ) ;
#83 = EDGE_LOOP ( 'NONE', ( #206 ) ) ;
#84 = DIRECTION ( 'NONE',  ( 1.000000000000000000, 0.0000000000000000000, -6.982962677686266711E-15 ) ) ;
#85 = FACE_BOUND ( 'NONE', #83, .T. ) ;
#86 = AXIS2_PLACEMENT_3D ( 'NONE', #59, #138, #118 ) ;
#87 =( NAMED_UNIT ( * ) SI_UNIT ( $, .STERADIAN. ) SOLID_ANGLE_UNIT ( ) );
#88 = CARTESIAN_POINT ( 'NONE',  ( 6.999999999999428013, 0.0000000000000000000, -81.00000000000007105 ) ) ;
#89 = PRESENTATION_STYLE_ASSIGNMENT (( #176 ) ) ;
#90 = STYLED_ITEM ( 'NONE', ( #115 ), #102 ) ;
#91 = AXIS2_PLACEMENT_3D ( 'NONE', #156, #173, #153 ) ;
#92 =( NAMED_UNIT ( * ) SI_UNIT ( $, .STERADIAN. ) SOLID_ANGLE_UNIT ( ) );
#93 = CIRCLE ( 'NONE', #190, 6.999999999999993783 ) ;
#94 =( GEOMETRIC_REPRESENTATION_CONTEXT ( 3 ) GLOBAL_UNCERTAINTY_ASSIGNED_CONTEXT ( ( #196 ) ) GLOBAL_UNIT_ASSIGNED_CONTEXT ( ( #119, #177, #46 ) ) REPRESENTATION_CONTEXT ( 'NONE', 'WORKASPACE' ) );
#95 =( NAMED_UNIT ( * ) PLANE_ANGLE_UNIT ( ) SI_UNIT ( $, .RADIAN. ) );
#96 = FILL_AREA_STYLE_COLOUR ( '', #133 ) ;
#97 = FACE_OUTER_BOUND ( 'NONE', #21, .T. ) ;
#98 = PLANE ( 'NONE',  #139 ) ;
#99 = CARTESIAN_POINT ( 'NONE',  ( -6.902508037879464579E-13, 0.0000000000000000000, -97.99278229968838616 ) ) ;
#100 = DIRECTION ( 'NONE',  ( 1.000000000000000000, 0.0000000000000000000, -7.930164461608269117E-15 ) ) ;
#101 = DIRECTION ( 'NONE',  ( -1.000000000000000000, 0.0000000000000000000, 7.930164461608267539E-15 ) ) ;
#102 = MANIFOLD_SOLID_BREP ( 'Körper in Z minus drehen[1]', #149 ) ;
#103 = ADVANCED_FACE ( 'NONE', ( #97 ), #112, .T. ) ;
#104 = PLANE ( 'NONE',  #155 ) ;
#105 = CARTESIAN_POINT ( 'NONE',  ( -7.000000000000684786, 0.0000000000000000000, -97.99278229968832932 ) ) ;
#106 = MECHANICAL_DESIGN_GEOMETRIC_PRESENTATION_REPRESENTATION (  '', ( #210 ), #144 ) ;
#107 = FILL_AREA_STYLE_COLOUR ( '', #17 ) ;
#108 = ADVANCED_FACE ( 'NONE', ( #150, #184 ), #164, .T. ) ;
#109 = EDGE_LOOP ( 'NONE', ( #40 ) ) ;
#110 = SURFACE_STYLE_FILL_AREA ( #66 ) ;
#111 = CARTESIAN_POINT ( 'NONE',  ( -5.656199768925877803E-13, 0.0000000000000000000, -81.00000000000001421 ) ) ;
#112 = PLANE ( 'NONE',  #37 ) ;
#113 = ORIENTED_EDGE ( 'NONE', *, *, #11, .F. ) ;
#114 = ORIENTED_EDGE ( 'NONE', *, *, #48, .F. ) ;
#115 = PRESENTATION_STYLE_ASSIGNMENT (( #55 ) ) ;
#116 =( GEOMETRIC_REPRESENTATION_CONTEXT ( 3 ) GLOBAL_UNCERTAINTY_ASSIGNED_CONTEXT ( ( #35 ) ) GLOBAL_UNIT_ASSIGNED_CONTEXT ( ( #51, #168, #87 ) ) REPRESENTATION_CONTEXT ( 'NONE', 'WORKASPACE' ) );
#117 = FILL_AREA_STYLE ('',( #175 ) ) ;
#118 = DIRECTION ( 'NONE',  ( 1.000000000000000000, 0.0000000000000000000, -6.982962677686266711E-15 ) ) ;
#119 =( LENGTH_UNIT ( ) NAMED_UNIT ( * ) SI_UNIT ( .MILLI., .METRE. ) );
#120 = UNCERTAINTY_MEASURE_WITH_UNIT (LENGTH_MEASURE( 1.000000000000000082E-05 ), #53, 'distance_accuracy_value', 'NONE');
#121 = EDGE_LOOP ( 'NONE', ( #170 ) ) ;
#122 = EDGE_LOOP ( 'NONE', ( #114 ) ) ;
#123 = AXIS2_PLACEMENT_3D ( 'NONE', #111, #183, #127 ) ;
#124 = FACE_OUTER_BOUND ( 'NONE', #121, .T. ) ;
#125 = SURFACE_STYLE_USAGE ( .BOTH. , #23 ) ;
#126 = FACE_OUTER_BOUND ( 'NONE', #80, .T. ) ;
#127 = DIRECTION ( 'NONE',  ( 1.000000000000000000, 0.0000000000000000000, -7.930164461608269117E-15 ) ) ;
#128 = SURFACE_STYLE_FILL_AREA ( #65 ) ;
#129 = AXIS2_PLACEMENT_3D ( 'NONE', #142, #62, #3 ) ;
#130 = DIRECTION ( 'NONE',  ( 7.038939836196698817E-15, 0.0000000000000000000, 1.000000000000000000 ) ) ;
#131 = EDGE_LOOP ( 'NONE', ( #113 ) ) ;
#132 = PRODUCT ( '004.001.40', '004.001.40', '', ( #209 ) ) ;
#133 = COLOUR_RGB ( '',0.4980392156862745168, 0.4980392156862745168, 0.4980392156862745168 ) ;
#134 = PRODUCT_DEFINITION_FORMATION_WITH_SPECIFIED_SOURCE ( 'ANY', '', #132, .NOT_KNOWN. ) ;
#135 = VERTEX_POINT ( 'NONE', #88 ) ;
#136 = PRESENTATION_LAYER_ASSIGNMENT (  '', '', ( #26 ) ) ;
#137 = CARTESIAN_POINT ( 'NONE',  ( 5.599999999999996092, 0.0000000000000000000, -3.910459099504306834E-14 ) ) ;
#138 = DIRECTION ( 'NONE',  ( 6.982962677686266711E-15, 0.0000000000000000000, 1.000000000000000000 ) ) ;
#139 = AXIS2_PLACEMENT_3D ( 'NONE', #5, #34, #159 ) ;
#140 = PRODUCT_DEFINITION ( 'UNKNOWN', '', #134, #165 ) ;
#141 = ORIENTED_EDGE ( 'NONE', *, *, #192, .T. ) ;
#142 = CARTESIAN_POINT ( 'NONE',  ( -9.776147748760762351E-15, 0.0000000000000000000, -1.399999999999998579 ) ) ;
#143 = STYLED_ITEM ( 'NONE', ( #202 ), #36 ) ;
#144 =( GEOMETRIC_REPRESENTATION_CONTEXT ( 3 ) GLOBAL_UNCERTAINTY_ASSIGNED_CONTEXT ( ( #120 ) ) GLOBAL_UNIT_ASSIGNED_CONTEXT ( ( #53, #186, #15 ) ) REPRESENTATION_CONTEXT ( 'NONE', 'WORKASPACE' ) );
#145 = DIRECTION ( 'NONE',  ( -6.982962677686266711E-15, -0.0000000000000000000, -1.000000000000000000 ) ) ;
#146 = SURFACE_STYLE_USAGE ( .BOTH. , #201 ) ;
#147 = CARTESIAN_POINT ( 'NONE',  ( 0.0000000000000000000, 0.0000000000000000000, 0.0000000000000000000 ) ) ;
#148 = CARTESIAN_POINT ( 'NONE',  ( -2.399395695184258809E-30, 0.0000000000000000000, -3.436071200625797954E-16 ) ) ;
#149 = CLOSED_SHELL ( 'NONE', ( #187, #151, #73 ) ) ;
#150 = FACE_OUTER_BOUND ( 'NONE', #122, .T. ) ;
#151 = ADVANCED_FACE ( 'NONE', ( #4, #6 ), #12, .T. ) ;
#152 = CIRCLE ( 'NONE', #129, 7.000000000000000000 ) ;
#153 = DIRECTION ( 'NONE',  ( 1.000000000000000000, 0.0000000000000000000, 0.0000000000000000000 ) ) ;
#154 = CARTESIAN_POINT ( 'NONE',  ( 6.999999999999428013, 0.0000000000000000000, -81.00000000000007105 ) ) ;
#155 = AXIS2_PLACEMENT_3D ( 'NONE', #77, #31, #28 ) ;
#156 = CARTESIAN_POINT ( 'NONE',  ( 0.0000000000000000000, 0.0000000000000000000, 0.0000000000000000000 ) ) ;
#157 = CONICAL_SURFACE ( 'NONE', #44, 5.599999999999996092, 0.7853981633974501664 ) ;
#158 = CONICAL_SURFACE ( 'NONE', #56, 3487.414443840966669, 1.291543646475808327 ) ;
#159 = DIRECTION ( 'NONE',  ( -1.000000000000000000, 0.0000000000000000000, 6.982962677686266711E-15 ) ) ;
#160 = APPLICATION_CONTEXT ( 'automotive_design' ) ;
#161 = SURFACE_SIDE_STYLE ('',( #38 ) ) ;
#162 = CARTESIAN_POINT ( 'NONE',  ( -6.982962677686266711E-13, 0.0000000000000000000, -100.0000000000000000 ) ) ;
#163 = SURFACE_STYLE_FILL_AREA ( #39 ) ;
#164 = CYLINDRICAL_SURFACE ( 'NONE', #199, 6.999999999999992895 ) ;
#165 = PRODUCT_DEFINITION_CONTEXT ( 'detailed design', #7, 'design' ) ;
#166 =( LENGTH_UNIT ( ) NAMED_UNIT ( * ) SI_UNIT ( .MILLI., .METRE. ) );
#167 = SHAPE_DEFINITION_REPRESENTATION ( #191, #174 ) ;
#168 =( NAMED_UNIT ( * ) PLANE_ANGLE_UNIT ( ) SI_UNIT ( $, .RADIAN. ) );
#169 = COLOUR_RGB ( '',0.8000000000000000444, 0.8000000000000000444, 0.8000000000000000444 ) ;
#170 = ORIENTED_EDGE ( 'NONE', *, *, #11, .T. ) ;
#171 = APPLICATION_PROTOCOL_DEFINITION ( 'draft international standard', 'automotive_design', 1998, #7 ) ;
#172 = PRESENTATION_LAYER_ASSIGNMENT (  '', '', ( #143 ) ) ;
#173 = DIRECTION ( 'NONE',  ( 0.0000000000000000000, 0.0000000000000000000, 1.000000000000000000 ) ) ;
#174 = ADVANCED_BREP_SHAPE_REPRESENTATION ( '004.001.40', ( #102, #36, #91 ), #94 ) ;
#175 = FILL_AREA_STYLE_COLOUR ( '', #76 ) ;
#176 = SURFACE_STYLE_USAGE ( .BOTH. , #18 ) ;
#177 =( NAMED_UNIT ( * ) PLANE_ANGLE_UNIT ( ) SI_UNIT ( $, .RADIAN. ) );
#178 = COLOUR_RGB ( '',0.8000000000000000444, 0.8000000000000000444, 0.8000000000000000444 ) ;
#179 = EDGE_CURVE ( 'NONE', #61, #61, #57, .T. ) ;
#180 = AXIS2_PLACEMENT_3D ( 'NONE', #82, #145, #64 ) ;
#181 = SURFACE_SIDE_STYLE ('',( #128 ) ) ;
#182 =( NAMED_UNIT ( * ) SI_UNIT ( $, .STERADIAN. ) SOLID_ANGLE_UNIT ( ) );
#183 = DIRECTION ( 'NONE',  ( -6.982962677686266711E-15, -0.0000000000000000000, -1.000000000000000000 ) ) ;
#184 = FACE_OUTER_BOUND ( 'NONE', #131, .T. ) ;
#185 = FILL_AREA_STYLE_COLOUR ( '', #178 ) ;
#186 =( NAMED_UNIT ( * ) PLANE_ANGLE_UNIT ( ) SI_UNIT ( $, .RADIAN. ) );
#187 = ADVANCED_FACE ( 'NONE', ( #126 ), #104, .F. ) ;
#188 = DIRECTION ( 'NONE',  ( 6.982962677686266711E-15, 0.0000000000000000000, 1.000000000000000000 ) ) ;
#189 = FILL_AREA_STYLE_COLOUR ( '', #169 ) ;
#190 = AXIS2_PLACEMENT_3D ( 'NONE', #99, #24, #101 ) ;
#191 = PRODUCT_DEFINITION_SHAPE ( 'NONE', 'NONE',  #140 ) ;
#192 = EDGE_CURVE ( 'NONE', #45, #45, #60, .T. ) ;
#193 =( NAMED_UNIT ( * ) PLANE_ANGLE_UNIT ( ) SI_UNIT ( $, .RADIAN. ) );
#194 = VERTEX_POINT ( 'NONE', #105 ) ;
#195 = VERTEX_POINT ( 'NONE', #212 ) ;
#196 = UNCERTAINTY_MEASURE_WITH_UNIT (LENGTH_MEASURE( 1.000000000000000082E-05 ), #119, 'distance_accuracy_value', 'NONE');
#197 = STYLED_ITEM ( 'NONE', ( #10 ), #73 ) ;
#198 = EDGE_LOOP ( 'NONE', ( #213 ) ) ;
#199 = AXIS2_PLACEMENT_3D ( 'NONE', #162, #188, #22 ) ;
#200 = DIRECTION ( 'NONE',  ( -6.982962677686266711E-15, 0.0000000000000000000, -1.000000000000000000 ) ) ;
#201 = SURFACE_SIDE_STYLE ('',( #110 ) ) ;
#202 = PRESENTATION_STYLE_ASSIGNMENT (( #204 ) ) ;
#203 = FILL_AREA_STYLE ('',( #96 ) ) ;
#204 = SURFACE_STYLE_USAGE ( .BOTH. , #181 ) ;
#205 = PRESENTATION_STYLE_ASSIGNMENT (( #146 ) ) ;
#206 = ORIENTED_EDGE ( 'NONE', *, *, #192, .F. ) ;
#207 = DIRECTION ( 'NONE',  ( 1.000000000000000000, 0.0000000000000000000, -7.035564381385251072E-15 ) ) ;
#208 = DIRECTION ( 'NONE',  ( 6.982962677686266711E-15, 0.0000000000000000000, 1.000000000000000000 ) ) ;
#209 = PRODUCT_CONTEXT ( 'NONE', #160, 'mechanical' ) ;
#210 = STYLED_ITEM ( 'NONE', ( #205 ), #151 ) ;
#211 = APPLICATION_PROTOCOL_DEFINITION ( 'draft international standard', 'automotive_design', 1998, #160 ) ;
#212 = CARTESIAN_POINT ( 'NONE',  ( 6.999999999999990230, 0.0000000000000000000, -1.400000000000047207 ) ) ;
#213 = ORIENTED_EDGE ( 'NONE', *, *, #179, .T. ) ;
ENDSEC;
END-ISO-10303-21;
16042