ISO-10303-21;
HEADER;
FILE_DESCRIPTION (( 'STEP AP214' ),
    '1' );
FILE_NAME ('004.001.02.step',
    '2019-05-20T14:00:57',
    ( '' ),
    ( '' ),
    'SwSTEP 2.0',
    'SolidWorks 2019',
    '' );
FILE_SCHEMA (( 'AUTOMOTIVE_DESIGN' ));
ENDSEC;

DATA;
#1 = AXIS2_PLACEMENT_3D ( 'NONE', #65, #145, #240 ) ;
#2 = STYLED_ITEM ( 'NONE', ( #225 ), #206 ) ;
#3 = ORIENTED_EDGE ( 'NONE', *, *, #111, .F. ) ;
#4 = ADVANCED_FACE ( 'NONE', ( #192, #22 ), #141, .T. ) ;
#5 = FACE_OUTER_BOUND ( 'NONE', #220, .T. ) ;
#6 = AXIS2_PLACEMENT_3D ( 'NONE', #242, #177, #105 ) ;
#7 = DIRECTION ( 'NONE',  ( -6.982962677686266711E-15, 0.0000000000000000000, -1.000000000000000000 ) ) ;
#8 = PRODUCT_DEFINITION_SHAPE ( 'NONE', 'NONE',  #195 ) ;
#9 = AXIS2_PLACEMENT_3D ( 'NONE', #234, #98, #282 ) ;
#10 = CARTESIAN_POINT ( 'NONE',  ( -3.142333204958819767E-13, 0.0000000000000000000, -45.00000000000000000 ) ) ;
#11 =( NAMED_UNIT ( * ) PLANE_ANGLE_UNIT ( ) SI_UNIT ( $, .RADIAN. ) );
#12 = CARTESIAN_POINT ( 'NONE',  ( -4.210726494644818448E-13, 0.0000000000000000000, -60.29999999999999005 ) ) ;
#13 =( NAMED_UNIT ( * ) PLANE_ANGLE_UNIT ( ) SI_UNIT ( $, .RADIAN. ) );
#14 =( GEOMETRIC_REPRESENTATION_CONTEXT ( 3 ) GLOBAL_UNCERTAINTY_ASSIGNED_CONTEXT ( ( #101 ) ) GLOBAL_UNIT_ASSIGNED_CONTEXT ( ( #72, #92, #159 ) ) REPRESENTATION_CONTEXT ( 'NONE', 'WORKASPACE' ) );
#15 = CARTESIAN_POINT ( 'NONE',  ( -3.092956202337173585E-13, 0.0000000000000000000, -44.29289321881343966 ) ) ;
#16 = AXIS2_PLACEMENT_3D ( 'NONE', #10, #108, #221 ) ;
#17 =( NAMED_UNIT ( * ) PLANE_ANGLE_UNIT ( ) SI_UNIT ( $, .RADIAN. ) );
#18 = CARTESIAN_POINT ( 'NONE',  ( 5.999999999999690914, 0.0000000000000000000, -43.68578643762693758 ) ) ;
#19 = ORIENTED_EDGE ( 'NONE', *, *, #162, .F. ) ;
#20 = FILL_AREA_STYLE_COLOUR ( '', #39 ) ;
#21 = PRODUCT_DEFINITION_CONTEXT ( 'detailed design', #199, 'design' ) ;
#22 = FACE_BOUND ( 'NONE', #118, .T. ) ;
#23 =( LENGTH_UNIT ( ) NAMED_UNIT ( * ) SI_UNIT ( .MILLI., .METRE. ) );
#24 = STYLED_ITEM ( 'NONE', ( #37 ), #241 ) ;
#25 = DIRECTION ( 'NONE',  ( 1.000000000000000000, 0.0000000000000000000, -6.982962677686266711E-15 ) ) ;
#26 = CARTESIAN_POINT ( 'NONE',  ( 6.525859338052489042E-12, 0.0000000000000000000, 925.0000000000000000 ) ) ;
#27 = CIRCLE ( 'NONE', #247, 5.099999999999995204 ) ;
#28 = DIRECTION ( 'NONE',  ( 7.055664759528922129E-15, -0.0000000000000000000, 1.000000000000000000 ) ) ;
#29 = FACE_OUTER_BOUND ( 'NONE', #102, .T. ) ;
#30 = ORIENTED_EDGE ( 'NONE', *, *, #162, .T. ) ;
#31 = SURFACE_STYLE_USAGE ( .BOTH. , #274 ) ;
#32 = CARTESIAN_POINT ( 'NONE',  ( -4.210726494644818448E-13, 0.0000000000000000000, -60.29999999999999005 ) ) ;
#33 = FILL_AREA_STYLE ('',( #20 ) ) ;
#34 = EDGE_CURVE ( 'NONE', #186, #186, #62, .T. ) ;
#35 = DIRECTION ( 'NONE',  ( 1.000000000000000000, 0.0000000000000000000, -7.142979018728036080E-15 ) ) ;
#36 = MECHANICAL_DESIGN_GEOMETRIC_PRESENTATION_REPRESENTATION (  '', ( #155 ), #257 ) ;
#37 = PRESENTATION_STYLE_ASSIGNMENT (( #279 ) ) ;
#38 = VERTEX_POINT ( 'NONE', #164 ) ;
#39 = COLOUR_RGB ( '',0.4980392156862745168, 0.4980392156862745168, 0.4980392156862745168 ) ;
#40 = FACE_OUTER_BOUND ( 'NONE', #84, .T. ) ;
#41 = VERTEX_POINT ( 'NONE', #58 ) ;
#42 = EDGE_CURVE ( 'NONE', #237, #237, #170, .T. ) ;
#43 = MECHANICAL_DESIGN_GEOMETRIC_PRESENTATION_REPRESENTATION (  '', ( #288 ), #176 ) ;
#44 = DIRECTION ( 'NONE',  ( 6.982962677686266711E-15, 0.0000000000000000000, 1.000000000000000000 ) ) ;
#45 = UNCERTAINTY_MEASURE_WITH_UNIT (LENGTH_MEASURE( 1.000000000000000082E-05 ), #277, 'distance_accuracy_value', 'NONE');
#46 = CARTESIAN_POINT ( 'NONE',  ( -8.379555213223567384E-15, 0.0000000000000000000, -1.200000000000006617 ) ) ;
#47 = CARTESIAN_POINT ( 'NONE',  ( 0.0000000000000000000, 0.0000000000000000000, 0.0000000000000000000 ) ) ;
#48 = CIRCLE ( 'NONE', #204, 5.392893218813453515 ) ;
#49 = FILL_AREA_STYLE_COLOUR ( '', #85 ) ;
#50 = FILL_AREA_STYLE ('',( #270 ) ) ;
#51 = SURFACE_SIDE_STYLE ('',( #68 ) ) ;
#52 = SURFACE_STYLE_FILL_AREA ( #230 ) ;
#53 = MECHANICAL_DESIGN_GEOMETRIC_PRESENTATION_REPRESENTATION (  '', ( #2 ), #150 ) ;
#54 = MANIFOLD_SOLID_BREP ( 'Körper in Z minus drehen[1]', #134 ) ;
#55 = PLANE ( 'NONE',  #138 ) ;
#56 = CARTESIAN_POINT ( 'NONE',  ( -5.392893218813763490, 0.0000000000000000000, -44.29289321881340413 ) ) ;
#57 = UNCERTAINTY_MEASURE_WITH_UNIT (LENGTH_MEASURE( 1.000000000000000082E-05 ), #99, 'distance_accuracy_value', 'NONE');
#58 = CARTESIAN_POINT ( 'NONE',  ( 5.099999999999568878, 0.0000000000000000000, -60.30000000000002558 ) ) ;
#59 = DIRECTION ( 'NONE',  ( 6.982962677686266711E-15, 0.0000000000000000000, 1.000000000000000000 ) ) ;
#60 = SHAPE_DEFINITION_REPRESENTATION ( #8, #82 ) ;
#61 = MECHANICAL_DESIGN_GEOMETRIC_PRESENTATION_REPRESENTATION (  '', ( #193 ), #168 ) ;
#62 = CIRCLE ( 'NONE', #1, 5.099999999999997868 ) ;
#63 = ORIENTED_EDGE ( 'NONE', *, *, #146, .F. ) ;
#64 = APPLICATION_PROTOCOL_DEFINITION ( 'draft international standard', 'automotive_design', 1998, #199 ) ;
#65 = CARTESIAN_POINT ( 'NONE',  ( -5.194872069788270440E-13, 0.0000000000000000000, -73.53759853263008495 ) ) ;
#66 = FILL_AREA_STYLE ('',( #49 ) ) ;
#67 = FACE_BOUND ( 'NONE', #175, .T. ) ;
#68 = SURFACE_STYLE_FILL_AREA ( #50 ) ;
#69 = FACE_OUTER_BOUND ( 'NONE', #123, .T. ) ;
#70 = EDGE_LOOP ( 'NONE', ( #280 ) ) ;
#71 = PRESENTATION_LAYER_ASSIGNMENT (  '', '', ( #193 ) ) ;
#72 =( LENGTH_UNIT ( ) NAMED_UNIT ( * ) SI_UNIT ( .MILLI., .METRE. ) );
#73 = DIRECTION ( 'NONE',  ( -1.000000000000000000, 0.0000000000000000000, 6.982962677686266711E-15 ) ) ;
#74 = FACE_OUTER_BOUND ( 'NONE', #172, .T. ) ;
#75 = DIRECTION ( 'NONE',  ( -1.000000000000000000, 0.0000000000000000000, 6.433368529994672152E-15 ) ) ;
#76 = CARTESIAN_POINT ( 'NONE',  ( -3.050562162393215057E-13, 0.0000000000000000000, -43.68578643762689495 ) ) ;
#77 = AXIS2_PLACEMENT_3D ( 'NONE', #104, #265, #169 ) ;
#78 = CARTESIAN_POINT ( 'NONE',  ( 5.999999999999991118, 0.0000000000000000000, -1.200000000000048361 ) ) ;
#79 = FILL_AREA_STYLE ('',( #283 ) ) ;
#80 = ADVANCED_FACE ( 'NONE', ( #278 ), #136, .T. ) ;
#81 = CONICAL_SURFACE ( 'NONE', #243, 3487.414443840934837, 1.291543646475805884 ) ;
#82 = ADVANCED_BREP_SHAPE_REPRESENTATION ( '004.001.02', ( #54, #241, #77 ), #189 ) ;
#83 = EDGE_CURVE ( 'NONE', #41, #41, #27, .T. ) ;
#84 = EDGE_LOOP ( 'NONE', ( #30 ) ) ;
#85 = COLOUR_RGB ( '',0.8000000000000000444, 0.8000000000000000444, 0.8000000000000000444 ) ;
#86 = DIRECTION ( 'NONE',  ( 1.000000000000000000, 0.0000000000000000000, -6.433368529994672152E-15 ) ) ;
#87 = COLOUR_RGB ( '',0.4980392156862745168, 0.4980392156862745168, 0.4980392156862745168 ) ;
#88 = DIRECTION ( 'NONE',  ( -1.000000000000000000, 0.0000000000000000000, 6.982962677686266711E-15 ) ) ;
#89 = FACE_OUTER_BOUND ( 'NONE', #70, .T. ) ;
#90 = COLOUR_RGB ( '',0.4980392156862745168, 0.4980392156862745168, 0.4980392156862745168 ) ;
#91 = FACE_OUTER_BOUND ( 'NONE', #236, .T. ) ;
#92 =( NAMED_UNIT ( * ) PLANE_ANGLE_UNIT ( ) SI_UNIT ( $, .RADIAN. ) );
#93 = SURFACE_STYLE_FILL_AREA ( #66 ) ;
#94 = CARTESIAN_POINT ( 'NONE',  ( -4.260871495113571144E-13, 0.0000000000000000000, -60.29999999999999005 ) ) ;
#95 = SURFACE_SIDE_STYLE ('',( #224 ) ) ;
#96 = AXIS2_PLACEMENT_3D ( 'NONE', #158, #249, #218 ) ;
#97 = CARTESIAN_POINT ( 'NONE',  ( -5.100000000000312284, 0.0000000000000000000, -44.99999999999996447 ) ) ;
#98 = DIRECTION ( 'NONE',  ( 7.055664759528922129E-15, -0.0000000000000000000, 1.000000000000000000 ) ) ;
#99 =( LENGTH_UNIT ( ) NAMED_UNIT ( * ) SI_UNIT ( .MILLI., .METRE. ) );
#100 = AXIS2_PLACEMENT_3D ( 'NONE', #47, #244, #25 ) ;
#101 = UNCERTAINTY_MEASURE_WITH_UNIT (LENGTH_MEASURE( 1.000000000000000082E-05 ), #72, 'distance_accuracy_value', 'NONE');
#102 = EDGE_LOOP ( 'NONE', ( #167 ) ) ;
#103 = CARTESIAN_POINT ( 'NONE',  ( -3.092956202337173585E-13, 0.0000000000000000000, -44.29289321881343966 ) ) ;
#104 = CARTESIAN_POINT ( 'NONE',  ( 0.0000000000000000000, 0.0000000000000000000, 0.0000000000000000000 ) ) ;
#105 = DIRECTION ( 'NONE',  ( 1.000000000000000000, 0.0000000000000000000, -6.938893903907233900E-15 ) ) ;
#106 =( NAMED_UNIT ( * ) SI_UNIT ( $, .STERADIAN. ) SOLID_ANGLE_UNIT ( ) );
#107 = DIRECTION ( 'NONE',  ( 1.000000000000000000, 0.0000000000000000000, -7.067399514332759862E-15 ) ) ;
#108 = DIRECTION ( 'NONE',  ( -6.982962677686266711E-15, 0.0000000000000000000, -1.000000000000000000 ) ) ;
#109 =( NAMED_UNIT ( * ) PLANE_ANGLE_UNIT ( ) SI_UNIT ( $, .RADIAN. ) );
#110 = SURFACE_STYLE_FILL_AREA ( #33 ) ;
#111 = EDGE_CURVE ( 'NONE', #38, #38, #208, .T. ) ;
#112 = SURFACE_STYLE_USAGE ( .BOTH. , #226 ) ;
#113 = CYLINDRICAL_SURFACE ( 'NONE', #235, 5.099999999999995204 ) ;
#114 = CIRCLE ( 'NONE', #100, 4.799999999999996270 ) ;
#115 = DIRECTION ( 'NONE',  ( 6.982962677686266711E-15, 0.0000000000000000000, 1.000000000000000000 ) ) ;
#116 = ORIENTED_EDGE ( 'NONE', *, *, #111, .T. ) ;
#117 = VERTEX_POINT ( 'NONE', #188 ) ;
#118 = EDGE_LOOP ( 'NONE', ( #179 ) ) ;
#119 = ADVANCED_FACE ( 'NONE', ( #29, #67 ), #184, .T. ) ;
#120 = PRESENTATION_LAYER_ASSIGNMENT (  '', '', ( #288 ) ) ;
#121 = DIRECTION ( 'NONE',  ( 1.000000000000000000, 0.0000000000000000000, -6.975033976323412122E-15 ) ) ;
#122 = PRESENTATION_LAYER_ASSIGNMENT (  '', '', ( #24 ) ) ;
#123 = EDGE_LOOP ( 'NONE', ( #286 ) ) ;
#124 = ORIENTED_EDGE ( 'NONE', *, *, #255, .F. ) ;
#125 =( NAMED_UNIT ( * ) PLANE_ANGLE_UNIT ( ) SI_UNIT ( $, .RADIAN. ) );
#126 = FACE_OUTER_BOUND ( 'NONE', #144, .T. ) ;
#127 = ADVANCED_FACE ( 'NONE', ( #89, #152 ), #149, .T. ) ;
#128 = COLOUR_RGB ( '',0.5019607843137254832, 0.5019607843137254832, 0.5019607843137254832 ) ;
#129 = CARTESIAN_POINT ( 'NONE',  ( -3.142333204958819262E-13, 0.0000000000000000000, -44.99999999999999289 ) ) ;
#130 = CARTESIAN_POINT ( 'NONE',  ( 0.0000000000000000000, 0.0000000000000000000, 0.0000000000000000000 ) ) ;
#131 = DIRECTION ( 'NONE',  ( -1.000000000000000000, 0.0000000000000000000, 6.982962677686266711E-15 ) ) ;
#132 = SURFACE_STYLE_USAGE ( .BOTH. , #51 ) ;
#133 = CIRCLE ( 'NONE', #16, 5.099999999999998757 ) ;
#134 = CLOSED_SHELL ( 'NONE', ( #266, #119, #127, #4, #143, #246, #80 ) ) ;
#135 = MECHANICAL_DESIGN_GEOMETRIC_PRESENTATION_REPRESENTATION (  '', ( #251 ), #163 ) ;
#136 = PLANE ( 'NONE',  #259 ) ;
#137 = FILL_AREA_STYLE_COLOUR ( '', #87 ) ;
#138 = AXIS2_PLACEMENT_3D ( 'NONE', #232, #115, #212 ) ;
#139 = PRESENTATION_STYLE_ASSIGNMENT (( #256 ) ) ;
#140 = DIRECTION ( 'NONE',  ( 1.000000000000000000, 0.0000000000000000000, -6.938893903907233900E-15 ) ) ;
#141 = CONICAL_SURFACE ( 'NONE', #210, 5.392893218813453515, 0.7853981633974501664 ) ;
#142 = CARTESIAN_POINT ( 'NONE',  ( -5.100000000000517453, 0.0000000000000000000, -73.53759853263004231 ) ) ;
#143 = ADVANCED_FACE ( 'NONE', ( #267, #126 ), #160, .F. ) ;
#144 = EDGE_LOOP ( 'NONE', ( #63 ) ) ;
#145 = DIRECTION ( 'NONE',  ( -7.055664759528922129E-15, 0.0000000000000000000, -1.000000000000000000 ) ) ;
#146 = EDGE_CURVE ( 'NONE', #281, #281, #133, .T. ) ;
#147 =( LENGTH_UNIT ( ) NAMED_UNIT ( * ) SI_UNIT ( .MILLI., .METRE. ) );
#148 = EDGE_LOOP ( 'NONE', ( #213 ) ) ;
#149 = CYLINDRICAL_SURFACE ( 'NONE', #6, 5.999999999999995559 ) ;
#150 =( GEOMETRIC_REPRESENTATION_CONTEXT ( 3 ) GLOBAL_UNCERTAINTY_ASSIGNED_CONTEXT ( ( #45 ) ) GLOBAL_UNIT_ASSIGNED_CONTEXT ( ( #277, #11, #200 ) ) REPRESENTATION_CONTEXT ( 'NONE', 'WORKASPACE' ) );
#151 = DIRECTION ( 'NONE',  ( -6.982962677686266711E-15, 0.0000000000000000000, -1.000000000000000000 ) ) ;
#152 = FACE_OUTER_BOUND ( 'NONE', #154, .T. ) ;
#153 = AXIS2_PLACEMENT_3D ( 'NONE', #46, #44, #121 ) ;
#154 = EDGE_LOOP ( 'NONE', ( #258 ) ) ;
#155 = STYLED_ITEM ( 'NONE', ( #181 ), #246 ) ;
#156 = DIRECTION ( 'NONE',  ( 1.000000000000000000, 0.0000000000000000000, -6.802837160693367357E-15 ) ) ;
#157 = ADVANCED_FACE ( 'NONE', ( #5 ), #81, .T. ) ;
#158 = CARTESIAN_POINT ( 'NONE',  ( -4.260871495113571144E-13, 0.0000000000000000000, -60.29999999999999005 ) ) ;
#159 =( NAMED_UNIT ( * ) SI_UNIT ( $, .STERADIAN. ) SOLID_ANGLE_UNIT ( ) );
#160 = TOROIDAL_SURFACE ( 'NONE', #197, 6.099999999999999645, 1.000000000000001776 ) ;
#161 = CIRCLE ( 'NONE', #166, 5.999999999999995559 ) ;
#162 = EDGE_CURVE ( 'NONE', #117, #117, #114, .T. ) ;
#163 =( GEOMETRIC_REPRESENTATION_CONTEXT ( 3 ) GLOBAL_UNCERTAINTY_ASSIGNED_CONTEXT ( ( #238 ) ) GLOBAL_UNIT_ASSIGNED_CONTEXT ( ( #23, #125, #263 ) ) REPRESENTATION_CONTEXT ( 'NONE', 'WORKASPACE' ) );
#164 = CARTESIAN_POINT ( 'NONE',  ( 5.099999999999568878, 0.0000000000000000000, -60.30000000000002558 ) ) ;
#165 = SURFACE_STYLE_FILL_AREA ( #79 ) ;
#166 = AXIS2_PLACEMENT_3D ( 'NONE', #76, #59, #140 ) ;
#167 = ORIENTED_EDGE ( 'NONE', *, *, #42, .T. ) ;
#168 =( GEOMETRIC_REPRESENTATION_CONTEXT ( 3 ) GLOBAL_UNCERTAINTY_ASSIGNED_CONTEXT ( ( #217 ) ) GLOBAL_UNIT_ASSIGNED_CONTEXT ( ( #203, #13, #227 ) ) REPRESENTATION_CONTEXT ( 'NONE', 'WORKASPACE' ) );
#169 = DIRECTION ( 'NONE',  ( 1.000000000000000000, 0.0000000000000000000, 0.0000000000000000000 ) ) ;
#170 = CIRCLE ( 'NONE', #153, 6.000000000000000000 ) ;
#171 = COLOUR_RGB ( '',0.8000000000000000444, 0.8000000000000000444, 0.8000000000000000444 ) ;
#172 = EDGE_LOOP ( 'NONE', ( #116 ) ) ;
#173 = DIRECTION ( 'NONE',  ( -6.982962677686266711E-15, 0.0000000000000000000, -1.000000000000000000 ) ) ;
#174 = UNCERTAINTY_MEASURE_WITH_UNIT (LENGTH_MEASURE( 1.000000000000000082E-05 ), #147, 'distance_accuracy_value', 'NONE');
#175 = EDGE_LOOP ( 'NONE', ( #19 ) ) ;
#176 =( GEOMETRIC_REPRESENTATION_CONTEXT ( 3 ) GLOBAL_UNCERTAINTY_ASSIGNED_CONTEXT ( ( #174 ) ) GLOBAL_UNIT_ASSIGNED_CONTEXT ( ( #147, #198, #106 ) ) REPRESENTATION_CONTEXT ( 'NONE', 'WORKASPACE' ) );
#177 = DIRECTION ( 'NONE',  ( 6.982962677686266711E-15, 0.0000000000000000000, 1.000000000000000000 ) ) ;
#178 = DIRECTION ( 'NONE',  ( 6.982962677686267499E-15, 0.0000000000000000000, 1.000000000000000000 ) ) ;
#179 = ORIENTED_EDGE ( 'NONE', *, *, #271, .F. ) ;
#180 = PRESENTATION_LAYER_ASSIGNMENT (  '', '', ( #155 ) ) ;
#181 = PRESENTATION_STYLE_ASSIGNMENT (( #112 ) ) ;
#182 = PRESENTATION_STYLE_ASSIGNMENT (( #31 ) ) ;
#183 = FACE_OUTER_BOUND ( 'NONE', #233, .T. ) ;
#184 = CONICAL_SURFACE ( 'NONE', #223, 4.799999999999996270, 0.7853981633974472798 ) ;
#185 = CLOSED_SHELL ( 'NONE', ( #219, #157, #206 ) ) ;
#186 = VERTEX_POINT ( 'NONE', #142 ) ;
#187 = CYLINDRICAL_SURFACE ( 'NONE', #9, 5.099999999999995204 ) ;
#188 = CARTESIAN_POINT ( 'NONE',  ( 4.799999999999996270, 0.0000000000000000000, -3.351822085289405497E-14 ) ) ;
#189 =( GEOMETRIC_REPRESENTATION_CONTEXT ( 3 ) GLOBAL_UNCERTAINTY_ASSIGNED_CONTEXT ( ( #57 ) ) GLOBAL_UNIT_ASSIGNED_CONTEXT ( ( #99, #17, #254 ) ) REPRESENTATION_CONTEXT ( 'NONE', 'WORKASPACE' ) );
#190 = PRODUCT_DEFINITION_FORMATION_WITH_SPECIFIED_SOURCE ( 'ANY', '', #272, .NOT_KNOWN. ) ;
#191 = EDGE_LOOP ( 'NONE', ( #124 ) ) ;
#192 = FACE_OUTER_BOUND ( 'NONE', #191, .T. ) ;
#193 = STYLED_ITEM ( 'NONE', ( #182 ), #54 ) ;
#194 = APPLICATION_PROTOCOL_DEFINITION ( 'draft international standard', 'automotive_design', 1998, #211 ) ;
#195 = PRODUCT_DEFINITION ( 'UNKNOWN', '', #190, #21 ) ;
#196 = DIRECTION ( 'NONE',  ( -1.000000000000000000, 0.0000000000000000000, 6.982962677686266711E-15 ) ) ;
#197 = AXIS2_PLACEMENT_3D ( 'NONE', #129, #7, #88 ) ;
#198 =( NAMED_UNIT ( * ) PLANE_ANGLE_UNIT ( ) SI_UNIT ( $, .RADIAN. ) );
#199 = APPLICATION_CONTEXT ( 'automotive_design' ) ;
#200 =( NAMED_UNIT ( * ) SI_UNIT ( $, .STERADIAN. ) SOLID_ANGLE_UNIT ( ) );
#201 = ORIENTED_EDGE ( 'NONE', *, *, #34, .T. ) ;
#202 =( NAMED_UNIT ( * ) SI_UNIT ( $, .STERADIAN. ) SOLID_ANGLE_UNIT ( ) );
#203 =( LENGTH_UNIT ( ) NAMED_UNIT ( * ) SI_UNIT ( .MILLI., .METRE. ) );
#204 = AXIS2_PLACEMENT_3D ( 'NONE', #15, #207, #75 ) ;
#205 =( LENGTH_UNIT ( ) NAMED_UNIT ( * ) SI_UNIT ( .MILLI., .METRE. ) );
#206 = ADVANCED_FACE ( 'NONE', ( #91, #245 ), #113, .T. ) ;
#207 = DIRECTION ( 'NONE',  ( -6.982962677686266711E-15, 0.0000000000000000000, -1.000000000000000000 ) ) ;
#208 = CIRCLE ( 'NONE', #96, 5.099999999999995204 ) ;
#209 = ORIENTED_EDGE ( 'NONE', *, *, #83, .T. ) ;
#210 = AXIS2_PLACEMENT_3D ( 'NONE', #103, #287, #86 ) ;
#211 = APPLICATION_CONTEXT ( 'automotive_design' ) ;
#212 = DIRECTION ( 'NONE',  ( 1.000000000000000000, 0.0000000000000000000, -6.982962677686266711E-15 ) ) ;
#213 = ORIENTED_EDGE ( 'NONE', *, *, #83, .F. ) ;
#214 = PRODUCT_RELATED_PRODUCT_CATEGORY ( 'part', '', ( #272 ) ) ;
#215 = VERTEX_POINT ( 'NONE', #18 ) ;
#216 = ORIENTED_EDGE ( 'NONE', *, *, #271, .T. ) ;
#217 = UNCERTAINTY_MEASURE_WITH_UNIT (LENGTH_MEASURE( 1.000000000000000082E-05 ), #203, 'distance_accuracy_value', 'NONE');
#218 = DIRECTION ( 'NONE',  ( 1.000000000000000000, 0.0000000000000000000, -6.802837160693367357E-15 ) ) ;
#219 = ADVANCED_FACE ( 'NONE', ( #183 ), #250, .F. ) ;
#220 = EDGE_LOOP ( 'NONE', ( #201 ) ) ;
#221 = DIRECTION ( 'NONE',  ( -1.000000000000000000, 0.0000000000000000000, 6.802837160693362624E-15 ) ) ;
#222 = PRESENTATION_STYLE_ASSIGNMENT (( #264 ) ) ;
#223 = AXIS2_PLACEMENT_3D ( 'NONE', #130, #173, #196 ) ;
#224 = SURFACE_STYLE_FILL_AREA ( #231 ) ;
#225 = PRESENTATION_STYLE_ASSIGNMENT (( #132 ) ) ;
#226 = SURFACE_SIDE_STYLE ('',( #52 ) ) ;
#227 =( NAMED_UNIT ( * ) SI_UNIT ( $, .STERADIAN. ) SOLID_ANGLE_UNIT ( ) );
#228 = CARTESIAN_POINT ( 'NONE',  ( 6.056509442254067229E-14, 0.0000000000000000000, 8.673266236417621400 ) ) ;
#229 = DIRECTION ( 'NONE',  ( -6.982962677686266711E-15, 0.0000000000000000000, -1.000000000000000000 ) ) ;
#230 = FILL_AREA_STYLE ('',( #248 ) ) ;
#231 = FILL_AREA_STYLE ('',( #137 ) ) ;
#232 = CARTESIAN_POINT ( 'NONE',  ( -1.642301364630994354E-30, 0.0000000000000000000, -2.351869028140293520E-16 ) ) ;
#233 = EDGE_LOOP ( 'NONE', ( #209 ) ) ;
#234 = CARTESIAN_POINT ( 'NONE',  ( 6.056509442254067229E-14, 0.0000000000000000000, 8.673266236417621400 ) ) ;
#235 = AXIS2_PLACEMENT_3D ( 'NONE', #228, #28, #35 ) ;
#236 = EDGE_LOOP ( 'NONE', ( #239 ) ) ;
#237 = VERTEX_POINT ( 'NONE', #78 ) ;
#238 = UNCERTAINTY_MEASURE_WITH_UNIT (LENGTH_MEASURE( 1.000000000000000082E-05 ), #23, 'distance_accuracy_value', 'NONE');
#239 = ORIENTED_EDGE ( 'NONE', *, *, #34, .F. ) ;
#240 = DIRECTION ( 'NONE',  ( -1.000000000000000000, 0.0000000000000000000, 8.163404592832036727E-15 ) ) ;
#241 = MANIFOLD_SOLID_BREP ( 'Körper in Z minus drehen[2]', #185 ) ;
#242 = CARTESIAN_POINT ( 'NONE',  ( -5.237222008264700285E-13, 0.0000000000000000000, -75.00000000000000000 ) ) ;
#243 = AXIS2_PLACEMENT_3D ( 'NONE', #26, #268, #107 ) ;
#244 = DIRECTION ( 'NONE',  ( 6.982962677686266711E-15, 0.0000000000000000000, 1.000000000000000000 ) ) ;
#245 = FACE_OUTER_BOUND ( 'NONE', #148, .T. ) ;
#246 = ADVANCED_FACE ( 'NONE', ( #74, #69 ), #187, .T. ) ;
#247 = AXIS2_PLACEMENT_3D ( 'NONE', #94, #178, #156 ) ;
#248 = FILL_AREA_STYLE_COLOUR ( '', #128 ) ;
#249 = DIRECTION ( 'NONE',  ( 6.982962677686267499E-15, 0.0000000000000000000, 1.000000000000000000 ) ) ;
#250 = PLANE ( 'NONE',  #269 ) ;
#251 = STYLED_ITEM ( 'NONE', ( #139 ), #82 ) ;
#252 = SURFACE_SIDE_STYLE ('',( #165 ) ) ;
#253 = VERTEX_POINT ( 'NONE', #56 ) ;
#254 =( NAMED_UNIT ( * ) SI_UNIT ( $, .STERADIAN. ) SOLID_ANGLE_UNIT ( ) );
#255 = EDGE_CURVE ( 'NONE', #215, #215, #161, .T. ) ;
#256 = SURFACE_STYLE_USAGE ( .BOTH. , #252 ) ;
#257 =( GEOMETRIC_REPRESENTATION_CONTEXT ( 3 ) GLOBAL_UNCERTAINTY_ASSIGNED_CONTEXT ( ( #285 ) ) GLOBAL_UNIT_ASSIGNED_CONTEXT ( ( #205, #109, #202 ) ) REPRESENTATION_CONTEXT ( 'NONE', 'WORKASPACE' ) );
#258 = ORIENTED_EDGE ( 'NONE', *, *, #255, .T. ) ;
#259 = AXIS2_PLACEMENT_3D ( 'NONE', #12, #229, #73 ) ;
#260 = PRODUCT_CONTEXT ( 'NONE', #211, 'mechanical' ) ;
#261 = PRESENTATION_LAYER_ASSIGNMENT (  '', '', ( #251 ) ) ;
#262 = EDGE_LOOP ( 'NONE', ( #216 ) ) ;
#263 =( NAMED_UNIT ( * ) SI_UNIT ( $, .STERADIAN. ) SOLID_ANGLE_UNIT ( ) );
#264 = SURFACE_STYLE_USAGE ( .BOTH. , #273 ) ;
#265 = DIRECTION ( 'NONE',  ( 0.0000000000000000000, 0.0000000000000000000, 1.000000000000000000 ) ) ;
#266 = ADVANCED_FACE ( 'NONE', ( #40 ), #55, .T. ) ;
#267 = FACE_OUTER_BOUND ( 'NONE', #262, .T. ) ;
#268 = DIRECTION ( 'NONE',  ( 7.055664759528922129E-15, 0.0000000000000000000, 1.000000000000000000 ) ) ;
#269 = AXIS2_PLACEMENT_3D ( 'NONE', #32, #151, #131 ) ;
#270 = FILL_AREA_STYLE_COLOUR ( '', #171 ) ;
#271 = EDGE_CURVE ( 'NONE', #253, #253, #48, .T. ) ;
#272 = PRODUCT ( '004.001.02', '004.001.02', '', ( #260 ) ) ;
#273 = SURFACE_SIDE_STYLE ('',( #93 ) ) ;
#274 = SURFACE_SIDE_STYLE ('',( #110 ) ) ;
#275 = PRESENTATION_LAYER_ASSIGNMENT (  '', '', ( #2 ) ) ;
#276 = EDGE_LOOP ( 'NONE', ( #3 ) ) ;
#277 =( LENGTH_UNIT ( ) NAMED_UNIT ( * ) SI_UNIT ( .MILLI., .METRE. ) );
#278 = FACE_OUTER_BOUND ( 'NONE', #276, .T. ) ;
#279 = SURFACE_STYLE_USAGE ( .BOTH. , #95 ) ;
#280 = ORIENTED_EDGE ( 'NONE', *, *, #42, .F. ) ;
#281 = VERTEX_POINT ( 'NONE', #97 ) ;
#282 = DIRECTION ( 'NONE',  ( 1.000000000000000000, 0.0000000000000000000, -7.142979018728036080E-15 ) ) ;
#283 = FILL_AREA_STYLE_COLOUR ( '', #90 ) ;
#284 = MECHANICAL_DESIGN_GEOMETRIC_PRESENTATION_REPRESENTATION (  '', ( #24 ), #14 ) ;
#285 = UNCERTAINTY_MEASURE_WITH_UNIT (LENGTH_MEASURE( 1.000000000000000082E-05 ), #205, 'distance_accuracy_value', 'NONE');
#286 = ORIENTED_EDGE ( 'NONE', *, *, #146, .T. ) ;
#287 = DIRECTION ( 'NONE',  ( 6.982962677686266711E-15, 0.0000000000000000000, 1.000000000000000000 ) ) ;
#288 = STYLED_ITEM ( 'NONE', ( #222 ), #157 ) ;
ENDSEC;
END-ISO-10303-21;
21572