ISO-10303-21;
HEADER;
FILE_DESCRIPTION((''),'2;1');
FILE_NAME('607514249-000-00-E43','2021-02-03T11:04:06',('steinhartd'),(''),
'CREO PARAMETRIC BY PTC INC, 2019030','CREO PARAMETRIC BY PTC INC, 2019030','');
FILE_SCHEMA((
'AP242_MANAGED_MODEL_BASED_3D_ENGINEERING_MIM_LF { 1 0 10303 442 1 1 4 }'));
ENDSEC;
DATA;
#40=CARTESIAN_POINT('',(-1.053196247267E-14,0.E0,-5.7E1));
#41=DIRECTION('',(0.E0,0.E0,-1.E0));
#42=DIRECTION('',(0.E0,1.E0,0.E0));
#43=AXIS2_PLACEMENT_3D('',#40,#41,#42);
#45=DRAUGHTING_PRE_DEFINED_CURVE_FONT('continuous');
#46=CURVE_STYLE('',#45,POSITIVE_LENGTH_MEASURE(2.E-2),#15);
#47=PRESENTATION_STYLE_ASSIGNMENT((#46));
#48=STYLED_ITEM('',(#47),#44);
#49=CARTESIAN_POINT('',(-1.053196247267E-14,0.E0,-5.7E1));
#50=DIRECTION('',(0.E0,0.E0,-1.E0));
#51=DIRECTION('',(0.E0,-1.E0,0.E0));
#52=AXIS2_PLACEMENT_3D('',#49,#50,#51);
#54=CURVE_STYLE('',#45,POSITIVE_LENGTH_MEASURE(2.E-2),#15);
#55=PRESENTATION_STYLE_ASSIGNMENT((#54));
#56=STYLED_ITEM('',(#55),#53);
#57=DIRECTION('',(0.E0,9.999500037497E-3,9.999500037497E-1));
#58=VECTOR('',#57,4.800239994E1);
#59=CARTESIAN_POINT('',(-1.053196247267E-14,1.2E0,-5.7E1));
#60=LINE('',#59,#58);
#61=CURVE_STYLE('',#45,POSITIVE_LENGTH_MEASURE(2.E-2),#15);
#62=PRESENTATION_STYLE_ASSIGNMENT((#61));
#63=STYLED_ITEM('',(#62),#60);
#64=DIRECTION('',(0.E0,-9.999500037497E-3,9.999500037497E-1));
#65=VECTOR('',#64,4.800239994E1);
#66=CARTESIAN_POINT('',(-1.026550894676E-14,-1.2E0,-5.7E1));
#67=LINE('',#66,#65);
#68=CURVE_STYLE('',#45,POSITIVE_LENGTH_MEASURE(2.E-2),#15);
#69=PRESENTATION_STYLE_ASSIGNMENT((#68));
#70=STYLED_ITEM('',(#69),#67);
#71=DIRECTION('',(0.E0,-5.E-1,8.660254037844E-1));
#72=VECTOR('',#71,2.1E-1);
#73=CARTESIAN_POINT('',(0.E0,1.68E0,-9.E0));
#74=LINE('',#73,#72);
#75=CURVE_STYLE('',#45,POSITIVE_LENGTH_MEASURE(2.E-2),#15);
#76=PRESENTATION_STYLE_ASSIGNMENT((#75));
#77=STYLED_ITEM('',(#76),#74);
#78=DIRECTION('',(0.E0,5.E-1,8.660254037844E-1));
#79=VECTOR('',#78,2.1E-1);
#80=CARTESIAN_POINT('',(0.E0,-1.68E0,-9.E0));
#81=LINE('',#80,#79);
#82=CURVE_STYLE('',#45,POSITIVE_LENGTH_MEASURE(2.E-2),#15);
#83=PRESENTATION_STYLE_ASSIGNMENT((#82));
#84=STYLED_ITEM('',(#83),#81);
#85=CARTESIAN_POINT('',(0.E0,0.E0,-9.E0));
#86=DIRECTION('',(0.E0,0.E0,1.E0));
#87=DIRECTION('',(0.E0,1.E0,0.E0));
#88=AXIS2_PLACEMENT_3D('',#85,#86,#87);
#90=CURVE_STYLE('',#45,POSITIVE_LENGTH_MEASURE(2.E-2),#15);
#91=PRESENTATION_STYLE_ASSIGNMENT((#90));
#92=STYLED_ITEM('',(#91),#89);
#93=CARTESIAN_POINT('',(0.E0,0.E0,-9.E0));
#94=DIRECTION('',(0.E0,0.E0,-1.E0));
#95=DIRECTION('',(0.E0,1.E0,0.E0));
#96=AXIS2_PLACEMENT_3D('',#93,#94,#95);
#98=CURVE_STYLE('',#45,POSITIVE_LENGTH_MEASURE(2.E-2),#15);
#99=PRESENTATION_STYLE_ASSIGNMENT((#98));
#100=STYLED_ITEM('',(#99),#97);
#101=CARTESIAN_POINT('',(0.E0,0.E0,-8.818134665205E0));
#102=DIRECTION('',(0.E0,0.E0,-1.E0));
#103=DIRECTION('',(0.E0,1.E0,0.E0));
#104=AXIS2_PLACEMENT_3D('',#101,#102,#103);
#106=CURVE_STYLE('',#45,POSITIVE_LENGTH_MEASURE(2.E-2),#15);
#107=PRESENTATION_STYLE_ASSIGNMENT((#106));
#108=STYLED_ITEM('',(#107),#105);
#109=DIRECTION('',(0.E0,0.E0,-1.E0));
#110=VECTOR('',#109,3.681813466521E1);
#111=CARTESIAN_POINT('',(0.E0,-1.575E0,2.8E1));
#112=LINE('',#111,#110);
#113=CURVE_STYLE('',#45,POSITIVE_LENGTH_MEASURE(2.E-2),#15);
#114=PRESENTATION_STYLE_ASSIGNMENT((#113));
#115=STYLED_ITEM('',(#114),#112);
#116=CARTESIAN_POINT('',(0.E0,0.E0,-8.818134665205E0));
#117=DIRECTION('',(0.E0,0.E0,1.E0));
#118=DIRECTION('',(0.E0,1.E0,0.E0));
#119=AXIS2_PLACEMENT_3D('',#116,#117,#118);
#121=CURVE_STYLE('',#45,POSITIVE_LENGTH_MEASURE(2.E-2),#15);
#122=PRESENTATION_STYLE_ASSIGNMENT((#121));
#123=STYLED_ITEM('',(#122),#120);
#124=DIRECTION('',(0.E0,0.E0,1.E0));
#125=VECTOR('',#124,3.681813466521E1);
#126=CARTESIAN_POINT('',(0.E0,1.575E0,-8.818134665205E0));
#127=LINE('',#126,#125);
#128=CURVE_STYLE('',#45,POSITIVE_LENGTH_MEASURE(2.E-2),#15);
#129=PRESENTATION_STYLE_ASSIGNMENT((#128));
#130=STYLED_ITEM('',(#129),#127);
#131=DIRECTION('',(0.E0,-7.071067811865E-1,7.071067811865E-1));
#132=VECTOR('',#131,1.414213562373E0);
#133=CARTESIAN_POINT('',(0.E0,1.575E0,2.8E1));
#134=LINE('',#133,#132);
#135=CURVE_STYLE('',#45,POSITIVE_LENGTH_MEASURE(2.E-2),#15);
#136=PRESENTATION_STYLE_ASSIGNMENT((#135));
#137=STYLED_ITEM('',(#136),#134);
#138=DIRECTION('',(0.E0,7.071067811865E-1,7.071067811865E-1));
#139=VECTOR('',#138,1.414213562373E0);
#140=CARTESIAN_POINT('',(0.E0,-1.575E0,2.8E1));
#141=LINE('',#140,#139);
#142=CURVE_STYLE('',#45,POSITIVE_LENGTH_MEASURE(2.E-2),#15);
#143=PRESENTATION_STYLE_ASSIGNMENT((#142));
#144=STYLED_ITEM('',(#143),#141);
#145=CARTESIAN_POINT('',(0.E0,0.E0,2.8E1));
#146=DIRECTION('',(0.E0,0.E0,1.E0));
#147=DIRECTION('',(0.E0,1.E0,0.E0));
#148=AXIS2_PLACEMENT_3D('',#145,#146,#147);
#150=CURVE_STYLE('',#45,POSITIVE_LENGTH_MEASURE(2.E-2),#15);
#151=PRESENTATION_STYLE_ASSIGNMENT((#150));
#152=STYLED_ITEM('',(#151),#149);
#153=CARTESIAN_POINT('',(0.E0,0.E0,2.8E1));
#154=DIRECTION('',(0.E0,0.E0,-1.E0));
#155=DIRECTION('',(0.E0,1.E0,0.E0));
#156=AXIS2_PLACEMENT_3D('',#153,#154,#155);
#158=CURVE_STYLE('',#45,POSITIVE_LENGTH_MEASURE(2.E-2),#15);
#159=PRESENTATION_STYLE_ASSIGNMENT((#158));
#160=STYLED_ITEM('',(#159),#157);
#161=CARTESIAN_POINT('',(0.E0,0.E0,2.9E1));
#162=DIRECTION('',(0.E0,0.E0,1.E0));
#163=DIRECTION('',(0.E0,1.E0,0.E0));
#164=AXIS2_PLACEMENT_3D('',#161,#162,#163);
#166=CURVE_STYLE('',#45,POSITIVE_LENGTH_MEASURE(2.E-2),#15);
#167=PRESENTATION_STYLE_ASSIGNMENT((#166));
#168=STYLED_ITEM('',(#167),#165);
#169=CARTESIAN_POINT('',(0.E0,0.E0,2.9E1));
#170=DIRECTION('',(0.E0,0.E0,-1.E0));
#171=DIRECTION('',(0.E0,1.E0,0.E0));
#172=AXIS2_PLACEMENT_3D('',#169,#170,#171);
#174=CURVE_STYLE('',#45,POSITIVE_LENGTH_MEASURE(2.E-2),#15);
#175=PRESENTATION_STYLE_ASSIGNMENT((#174));
#176=STYLED_ITEM('',(#175),#173);
#177=CARTESIAN_POINT('',(-1.053196247267E-14,1.2E0,-5.7E1));
#178=CARTESIAN_POINT('',(-1.038500485677E-14,-1.2E0,-5.7E1));
#179=VERTEX_POINT('',#177);
#180=VERTEX_POINT('',#178);
#181=CARTESIAN_POINT('',(0.E0,1.68E0,-9.E0));
#182=VERTEX_POINT('',#181);
#183=CARTESIAN_POINT('',(0.E0,-1.68E0,-9.E0));
#184=VERTEX_POINT('',#183);
#185=CARTESIAN_POINT('',(0.E0,-1.575E0,2.8E1));
#186=CARTESIAN_POINT('',(0.E0,-1.575E0,-8.818134665205E0));
#187=VERTEX_POINT('',#185);
#188=VERTEX_POINT('',#186);
#189=CARTESIAN_POINT('',(0.E0,1.575E0,-8.818134665205E0));
#190=CARTESIAN_POINT('',(0.E0,1.575E0,2.8E1));
#191=VERTEX_POINT('',#189);
#192=VERTEX_POINT('',#190);
#193=CARTESIAN_POINT('',(0.E0,5.75E-1,2.9E1));
#194=VERTEX_POINT('',#193);
#195=CARTESIAN_POINT('',(0.E0,-5.75E-1,2.9E1));
#196=VERTEX_POINT('',#195);
#197=CARTESIAN_POINT('',(-1.053196247267E-14,0.E0,-5.7E1));
#198=DIRECTION('',(0.E0,0.E0,-1.E0));
#199=DIRECTION('',(0.E0,1.E0,0.E0));
#200=AXIS2_PLACEMENT_3D('',#197,#198,#199);
#201=PLANE('',#200);
#203=ORIENTED_EDGE('',*,*,#202,.F.);
#205=ORIENTED_EDGE('',*,*,#204,.F.);
#206=EDGE_LOOP('',(#203,#205));
#207=FACE_OUTER_BOUND('',#206,.F.);
#209=CARTESIAN_POINT('',(0.E0,0.E0,-3.3E1));
#210=DIRECTION('',(0.E0,0.E0,1.E0));
#211=DIRECTION('',(0.E0,-1.E0,0.E0));
#212=AXIS2_PLACEMENT_3D('',#209,#210,#211);
#213=CONICAL_SURFACE('',#212,1.44E0,5.729386976835E-1);
#214=ORIENTED_EDGE('',*,*,#202,.T.);
#216=ORIENTED_EDGE('',*,*,#215,.T.);
#218=ORIENTED_EDGE('',*,*,#217,.F.);
#220=ORIENTED_EDGE('',*,*,#219,.F.);
#221=EDGE_LOOP('',(#214,#216,#218,#220));
#222=FACE_OUTER_BOUND('',#221,.F.);
#224=FILL_AREA_STYLE_COLOUR('',#28);
#225=FILL_AREA_STYLE('',(#224));
#226=SURFACE_STYLE_FILL_AREA(#225);
#227=SURFACE_SIDE_STYLE('',(#226));
#228=SURFACE_STYLE_USAGE(.POSITIVE.,#227);
#229=FILL_AREA_STYLE_COLOUR('',#15);
#230=FILL_AREA_STYLE('',(#229));
#231=SURFACE_STYLE_FILL_AREA(#230);
#232=SURFACE_SIDE_STYLE('',(#231));
#233=SURFACE_STYLE_USAGE(.NEGATIVE.,#232);
#234=PRESENTATION_STYLE_ASSIGNMENT((#228,#233));
#235=OVER_RIDING_STYLED_ITEM('',(#234),#223,#39);
#236=CARTESIAN_POINT('',(0.E0,0.E0,-3.3E1));
#237=DIRECTION('',(0.E0,0.E0,1.E0));
#238=DIRECTION('',(0.E0,-1.E0,0.E0));
#239=AXIS2_PLACEMENT_3D('',#236,#237,#238);
#240=CONICAL_SURFACE('',#239,1.44E0,5.729386976835E-1);
#241=ORIENTED_EDGE('',*,*,#204,.T.);
#242=ORIENTED_EDGE('',*,*,#219,.T.);
#244=ORIENTED_EDGE('',*,*,#243,.T.);
#245=ORIENTED_EDGE('',*,*,#215,.F.);
#246=EDGE_LOOP('',(#241,#242,#244,#245));
#247=FACE_OUTER_BOUND('',#246,.F.);
#249=FILL_AREA_STYLE_COLOUR('',#28);
#250=FILL_AREA_STYLE('',(#249));
#251=SURFACE_STYLE_FILL_AREA(#250);
#252=SURFACE_SIDE_STYLE('',(#251));
#253=SURFACE_STYLE_USAGE(.POSITIVE.,#252);
#254=FILL_AREA_STYLE_COLOUR('',#15);
#255=FILL_AREA_STYLE('',(#254));
#256=SURFACE_STYLE_FILL_AREA(#255);
#257=SURFACE_SIDE_STYLE('',(#256));
#258=SURFACE_STYLE_USAGE(.NEGATIVE.,#257);
#259=PRESENTATION_STYLE_ASSIGNMENT((#253,#258));
#260=OVER_RIDING_STYLED_ITEM('',(#259),#248,#39);
#261=CARTESIAN_POINT('',(0.E0,0.E0,-8.909067332603E0));
#262=DIRECTION('',(0.E0,0.E0,-1.E0));
#263=DIRECTION('',(0.E0,1.E0,0.E0));
#264=AXIS2_PLACEMENT_3D('',#261,#262,#263);
#265=CONICAL_SURFACE('',#264,1.6275E0,3.E1);
#267=ORIENTED_EDGE('',*,*,#266,.T.);
#269=ORIENTED_EDGE('',*,*,#268,.T.);
#271=ORIENTED_EDGE('',*,*,#270,.F.);
#272=ORIENTED_EDGE('',*,*,#243,.F.);
#273=EDGE_LOOP('',(#267,#269,#271,#272));
#274=FACE_OUTER_BOUND('',#273,.F.);
#276=CARTESIAN_POINT('',(0.E0,0.E0,-8.909067332603E0));
#277=DIRECTION('',(0.E0,0.E0,-1.E0));
#278=DIRECTION('',(0.E0,1.E0,0.E0));
#279=AXIS2_PLACEMENT_3D('',#276,#277,#278);
#280=CONICAL_SURFACE('',#279,1.6275E0,3.E1);
#281=ORIENTED_EDGE('',*,*,#266,.F.);
#282=ORIENTED_EDGE('',*,*,#217,.T.);
#283=ORIENTED_EDGE('',*,*,#270,.T.);
#285=ORIENTED_EDGE('',*,*,#284,.F.);
#286=EDGE_LOOP('',(#281,#282,#283,#285));
#287=FACE_OUTER_BOUND('',#286,.F.);
#289=CARTESIAN_POINT('',(0.E0,0.E0,3.045E1));
#290=DIRECTION('',(0.E0,0.E0,-1.E0));
#291=DIRECTION('',(0.E0,-1.E0,0.E0));
#292=AXIS2_PLACEMENT_3D('',#289,#290,#291);
#293=CYLINDRICAL_SURFACE('',#292,1.575E0);
#295=ORIENTED_EDGE('',*,*,#294,.F.);
#296=ORIENTED_EDGE('',*,*,#284,.T.);
#298=ORIENTED_EDGE('',*,*,#297,.F.);
#300=ORIENTED_EDGE('',*,*,#299,.F.);
#301=EDGE_LOOP('',(#295,#296,#298,#300));
#302=FACE_OUTER_BOUND('',#301,.F.);
#304=CARTESIAN_POINT('',(0.E0,0.E0,3.045E1));
#305=DIRECTION('',(0.E0,0.E0,-1.E0));
#306=DIRECTION('',(0.E0,-1.E0,0.E0));
#307=AXIS2_PLACEMENT_3D('',#304,#305,#306);
#308=CYLINDRICAL_SURFACE('',#307,1.575E0);
#309=ORIENTED_EDGE('',*,*,#297,.T.);
#310=ORIENTED_EDGE('',*,*,#268,.F.);
#311=ORIENTED_EDGE('',*,*,#294,.T.);
#313=ORIENTED_EDGE('',*,*,#312,.T.);
#314=EDGE_LOOP('',(#309,#310,#311,#313));
#315=FACE_OUTER_BOUND('',#314,.F.);
#317=CARTESIAN_POINT('',(0.E0,0.E0,2.85E1));
#318=DIRECTION('',(0.E0,0.E0,-1.E0));
#319=DIRECTION('',(0.E0,-1.E0,0.E0));
#320=AXIS2_PLACEMENT_3D('',#317,#318,#319);
#321=CONICAL_SURFACE('',#320,1.075E0,4.5E1);
#323=ORIENTED_EDGE('',*,*,#322,.T.);
#325=ORIENTED_EDGE('',*,*,#324,.T.);
#327=ORIENTED_EDGE('',*,*,#326,.F.);
#328=ORIENTED_EDGE('',*,*,#312,.F.);
#329=EDGE_LOOP('',(#323,#325,#327,#328));
#330=FACE_OUTER_BOUND('',#329,.F.);
#332=CARTESIAN_POINT('',(0.E0,0.E0,2.85E1));
#333=DIRECTION('',(0.E0,0.E0,-1.E0));
#334=DIRECTION('',(0.E0,-1.E0,0.E0));
#335=AXIS2_PLACEMENT_3D('',#332,#333,#334);
#336=CONICAL_SURFACE('',#335,1.075E0,4.5E1);
#337=ORIENTED_EDGE('',*,*,#322,.F.);
#338=ORIENTED_EDGE('',*,*,#299,.T.);
#339=ORIENTED_EDGE('',*,*,#326,.T.);
#341=ORIENTED_EDGE('',*,*,#340,.F.);
#342=EDGE_LOOP('',(#337,#338,#339,#341));
#343=FACE_OUTER_BOUND('',#342,.F.);
#345=CARTESIAN_POINT('',(0.E0,0.E0,2.9E1));
#346=DIRECTION('',(0.E0,0.E0,-1.E0));
#347=DIRECTION('',(0.E0,-1.E0,0.E0));
#348=AXIS2_PLACEMENT_3D('',#345,#346,#347);
#349=PLANE('',#348);
#350=ORIENTED_EDGE('',*,*,#324,.F.);
#351=ORIENTED_EDGE('',*,*,#340,.T.);
#352=EDGE_LOOP('',(#350,#351));
#353=FACE_OUTER_BOUND('',#352,.F.);
#355=CLOSED_SHELL('',(#208,#223,#248,#275,#288,#303,#316,#331,#344,#354));
#356=MANIFOLD_SOLID_BREP('',#355);
#357=FILL_AREA_STYLE_COLOUR('',#15);
#358=FILL_AREA_STYLE('',(#357));
#359=SURFACE_STYLE_FILL_AREA(#358);
#360=SURFACE_SIDE_STYLE('',(#359));
#361=SURFACE_STYLE_USAGE(.BOTH.,#360);
#362=PRESENTATION_STYLE_ASSIGNMENT((#361));
#39=STYLED_ITEM('',(#362),#356);
#363=CARTESIAN_POINT('',(-1.053196247267E-14,0.E0,-5.7E1));
#364=DIRECTION('',(0.E0,0.E0,1.E0));
#365=DIRECTION('',(1.E0,0.E0,0.E0));
#366=AXIS2_PLACEMENT_3D('CIP',#363,#364,#365);
#367=CURVE_STYLE('',#45,POSITIVE_LENGTH_MEASURE(2.E-2),#14);
#368=PRESENTATION_STYLE_ASSIGNMENT((#367));
#369=STYLED_ITEM('',(#368),#366);
#370=CARTESIAN_POINT('',(0.E0,0.E0,2.9E1));
#371=DIRECTION('',(0.E0,0.E0,1.E0));
#372=DIRECTION('',(1.E0,0.E0,0.E0));
#373=AXIS2_PLACEMENT_3D('PCS',#370,#371,#372);
#374=CURVE_STYLE('',#45,POSITIVE_LENGTH_MEASURE(2.E-2),#14);
#375=PRESENTATION_STYLE_ASSIGNMENT((#374));
#376=STYLED_ITEM('',(#375),#373);
#377=CARTESIAN_POINT('',(0.E0,0.E0,0.E0));
#378=DIRECTION('',(0.E0,0.E0,1.E0));
#379=DIRECTION('',(1.E0,0.E0,0.E0));
#380=AXIS2_PLACEMENT_3D('MCS',#377,#378,#379);
#381=CURVE_STYLE('',#45,POSITIVE_LENGTH_MEASURE(2.E-2),#14);
#382=PRESENTATION_STYLE_ASSIGNMENT((#381));
#383=STYLED_ITEM('',(#382),#380);
#386=PLANE_ANGLE_MEASURE_WITH_UNIT(PLANE_ANGLE_MEASURE(1.745329251994E-2),#385);
#387=(CONVERSION_BASED_UNIT('DEGREE',#386)NAMED_UNIT(*)PLANE_ANGLE_UNIT());
#389=UNCERTAINTY_MEASURE_WITH_UNIT(LENGTH_MEASURE(1.E-3),#384,'closure',
'Maximum model space distance between geometric entities at asserted connectivities');
#393=CARTESIAN_POINT('',(0.E0,0.E0,0.E0));
#394=DIRECTION('',(0.E0,0.E0,1.E0));
#395=DIRECTION('',(1.E0,0.E0,0.E0));
#398=SHAPE_REPRESENTATION_RELATIONSHIP('','',#397,#391);
#399=CONSTRUCTIVE_GEOMETRY_REPRESENTATION_RELATIONSHIP('','',#397,#392);
#400=MECHANICAL_DESIGN_GEOMETRIC_PRESENTATION_REPRESENTATION('',(#48,#56,#63,
#70,#77,#84,#92,#100,#108,#115,#123,#130,#137,#144,#152,#160,#168,#176,#235,
#260,#39,#369,#376,#383),#390);
#401=APPLICATION_CONTEXT('automotive design');
#402=APPLICATION_PROTOCOL_DEFINITION('international standard',
'config_control_design',1994,#401);
#403=PRODUCT_DEFINITION_CONTEXT('',#401,'design');
#404=PRODUCT_CONTEXT('',#401,'mechanical');
#405=PRODUCT('607514249-000-00-E43','607514249-000-00-E43','NOT SPECIFIED',
(#404));
#406=PRODUCT_DEFINITION_FORMATION_WITH_SPECIFIED_SOURCE('1','LAST_VERSION',#405,
.MADE.);
#414=DERIVED_UNIT_ELEMENT(#413,2.E0);
#415=AREA_UNIT((#414));
#416=MEASURE_REPRESENTATION_ITEM('surface area measure',AREA_MEASURE(
8.159305804022E2),#415);
#421=DERIVED_UNIT_ELEMENT(#420,3.E0);
#422=VOLUME_UNIT((#421));
#423=MEASURE_REPRESENTATION_ITEM('volume measure',VOLUME_MEASURE(
6.079208848589E2),#422);
#427=CARTESIAN_POINT('centre point',(0.E0,0.E0,-1.107337662709E1));
#432=DERIVED_UNIT_ELEMENT(#431,2.E0);
#433=AREA_UNIT((#432));
#434=MEASURE_REPRESENTATION_ITEM('surface area measure',AREA_MEASURE(
8.159305804022E2),#433);
#439=DERIVED_UNIT_ELEMENT(#438,3.E0);
#440=VOLUME_UNIT((#439));
#441=MEASURE_REPRESENTATION_ITEM('volume measure',VOLUME_MEASURE(
6.079208848589E2),#440);
#445=CARTESIAN_POINT('centre point',(0.E0,0.E0,-1.107337662709E1));
#451=GENERAL_PROPERTY('','MATERIAL','user defined attribute');
#452=GENERAL_PROPERTY_ASSOCIATION('user defined attribute','',#451,#450);
#453=DESCRIPTIVE_REPRESENTATION_ITEM('MATERIAL','');
#457=GENERAL_PROPERTY('','WEIGHT','user defined attribute');
#458=GENERAL_PROPERTY_ASSOCIATION('user defined attribute','',#457,#456);
#459=REAL_REPRESENTATION_ITEM('WEIGHT',2.594684503191E-1);
#463=GENERAL_PROPERTY('','TITLE','user defined attribute');
#464=GENERAL_PROPERTY_ASSOCIATION('user defined attribute','',#463,#462);
#465=DESCRIPTIVE_REPRESENTATION_ITEM('TITLE','GRUNDKOERPER');
#469=GENERAL_PROPERTY('','MATNUM','user defined attribute');
#470=GENERAL_PROPERTY_ASSOCIATION('user defined attribute','',#469,#468);
#471=DESCRIPTIVE_REPRESENTATION_ITEM('MATNUM','');
#475=GENERAL_PROPERTY('','LIBRARY','user defined attribute');
#476=GENERAL_PROPERTY_ASSOCIATION('user defined attribute','',#475,#474);
#477=DESCRIPTIVE_REPRESENTATION_ITEM('LIBRARY','');
#481=GENERAL_PROPERTY('','IDENTKEY','user defined attribute');
#482=GENERAL_PROPERTY_ASSOCIATION('user defined attribute','',#481,#480);
#483=DESCRIPTIVE_REPRESENTATION_ITEM('IDENTKEY','');
#487=GENERAL_PROPERTY('','DEFTXT','user defined attribute');
#488=GENERAL_PROPERTY_ASSOCIATION('user defined attribute','',#487,#486);
#489=DESCRIPTIVE_REPRESENTATION_ITEM('DEFTXT','1.3344');
#493=GENERAL_PROPERTY('','SORTING','user defined attribute');
#494=GENERAL_PROPERTY_ASSOCIATION('user defined attribute','',#493,#492);
#495=DESCRIPTIVE_REPRESENTATION_ITEM('SORTING','Z');
#499=GENERAL_PROPERTY('','TITLE_E','user defined attribute');
#500=GENERAL_PROPERTY_ASSOCIATION('user defined attribute','',#499,#498);
#501=DESCRIPTIVE_REPRESENTATION_ITEM('TITLE_E','BODY');
#505=GENERAL_PROPERTY('','UNIT_E','user defined attribute');
#506=GENERAL_PROPERTY_ASSOCIATION('user defined attribute','',#505,#504);
#507=DESCRIPTIVE_REPRESENTATION_ITEM('UNIT_E','');
#511=GENERAL_PROPERTY('','UNIT','user defined attribute');
#512=GENERAL_PROPERTY_ASSOCIATION('user defined attribute','',#511,#510);
#513=DESCRIPTIVE_REPRESENTATION_ITEM('UNIT','');
#517=GENERAL_PROPERTY('','CNO','user defined attribute');
#518=GENERAL_PROPERTY_ASSOCIATION('user defined attribute','',#517,#516);
#519=DESCRIPTIVE_REPRESENTATION_ITEM('CNO','');
#523=GENERAL_PROPERTY('','TYP','user defined attribute');
#524=GENERAL_PROPERTY_ASSOCIATION('user defined attribute','',#523,#522);
#525=DESCRIPTIVE_REPRESENTATION_ITEM('TYP','');
#529=GENERAL_PROPERTY('','DESCRIPTION','user defined attribute');
#530=GENERAL_PROPERTY_ASSOCIATION('user defined attribute','',#529,#528);
#531=DESCRIPTIVE_REPRESENTATION_ITEM('DESCRIPTION','GRUNDKOERPER');
#535=GENERAL_PROPERTY('','DESCRIPTION_E','user defined attribute');
#536=GENERAL_PROPERTY_ASSOCIATION('user defined attribute','',#535,#534);
#537=DESCRIPTIVE_REPRESENTATION_ITEM('DESCRIPTION_E','BODY');
#541=GENERAL_PROPERTY('','SPIRALSTEIGUNG_VORNE','user defined attribute');
#542=GENERAL_PROPERTY_ASSOCIATION('user defined attribute','',#541,#540);
#543=REAL_REPRESENTATION_ITEM('SPIRALSTEIGUNG_VORNE',8.E0);
#547=GENERAL_PROPERTY('','PRODHIER','user defined attribute');
#548=GENERAL_PROPERTY_ASSOCIATION('user defined attribute','',#547,#546);
#549=DESCRIPTIVE_REPRESENTATION_ITEM('PRODHIER','ZZ20FKKRST3A');
#553=GENERAL_PROPERTY('','SAP_DOC','user defined attribute');
#554=GENERAL_PROPERTY_ASSOCIATION('user defined attribute','',#553,#552);
#555=DESCRIPTIVE_REPRESENTATION_ITEM('SAP_DOC','607474193,IM1,000,00');
#559=GENERAL_PROPERTY('','SAP_DOC_NUMBER','user defined attribute');
#560=GENERAL_PROPERTY_ASSOCIATION('user defined attribute','',#559,#558);
#561=DESCRIPTIVE_REPRESENTATION_ITEM('SAP_DOC_NUMBER','607474193');
#565=GENERAL_PROPERTY('','PTC_COMMON_NAME','user defined attribute');
#566=GENERAL_PROPERTY_ASSOCIATION('user defined attribute','',#565,#564);
#567=DESCRIPTIVE_REPRESENTATION_ITEM('PTC_COMMON_NAME','607474193-000');
#1=DRAUGHTING_PRE_DEFINED_COLOUR('blue');
#2=DRAUGHTING_PRE_DEFINED_COLOUR('green');
#3=COLOUR_RGB('',1.E-2,7.9E-1,3.8E-1);
#4=COLOUR_RGB('',2.E-2,4.E-2,2.6E-1);
#5=COLOUR_RGB('',2.E-2,1.6E-1,7.4E-1);
#6=COLOUR_RGB('',2.E-2,5.E-1,6.5E-1);
#7=COLOUR_RGB('',2.E-2,6.2E-1,9.1E-1);
#8=COLOUR_RGB('',3.E-2,4.4E-1,1.6E-1);
#9=COLOUR_RGB('',5.E-2,9.5E-1,7.3E-1);
#10=COLOUR_RGB('',1.7E-1,5.8E-1,7.6E-1);
#11=COLOUR_RGB('',2.E-1,2.E-1,2.E-1);
#12=COLOUR_RGB('',3.3E-1,7.5E-1,9.2E-1);
#13=COLOUR_RGB('',4.4E-1,4.4E-1,4.4E-1);
#14=COLOUR_RGB('',4.705882352941E-1,3.137254901961E-1,3.333333333333E-1);
#15=COLOUR_RGB('',5.E-1,5.E-1,5.E-1);
#16=COLOUR_RGB('',5.1E-1,9.E-1,5.2E-1);
#17=COLOUR_RGB('',5.8E-1,9.E-2,2.1E-1);
#18=COLOUR_RGB('',5.8E-1,1.4E-1,8.3E-1);
#19=COLOUR_RGB('',6.35294E-1,6.86275E-1,7.4902E-1);
#20=COLOUR_RGB('',6.4E-1,4.E-1,1.E-2);
#21=COLOUR_RGB('',6.5E-1,3.5E-1,4.E-2);
#22=COLOUR_RGB('',7.E-1,7.E-1,7.E-1);
#23=COLOUR_RGB('',7.4E-1,7.54E-1,7.5E-1);
#24=COLOUR_RGB('',7.5E-1,0.E0,7.5E-1);
#25=COLOUR_RGB('',7.6E-1,1.7E-1,1.E-2);
#26=COLOUR_RGB('',7.8E-1,8.8E-1,9.2E-1);
#27=COLOUR_RGB('',7.9E-1,6.1E-1,4.E-1);
#28=COLOUR_RGB('',8.E-1,8.E-1,8.E-1);
#29=COLOUR_RGB('',8.2E-1,7.E-1,8.7E-1);
#30=COLOUR_RGB('',8.4E-1,5.8E-1,8.E-2);
#31=COLOUR_RGB('',8.6E-1,4.6E-1,5.4E-1);
#32=COLOUR_RGB('',9.3E-1,7.9E-1,4.8E-1);
#33=COLOUR_RGB('',9.7E-1,4.3E-1,4.4E-1);
#34=COLOUR_RGB('',9.8E-1,5.04E-1,8.E-1);
#35=COLOUR_RGB('',9.8E-1,7.5E-1,8.E-1);
#36=DRAUGHTING_PRE_DEFINED_COLOUR('red');
#37=DRAUGHTING_PRE_DEFINED_COLOUR('yellow');
#38=DRAUGHTING_PRE_DEFINED_COLOUR('white');
#44=CIRCLE('',#43,1.2E0);
#53=CIRCLE('',#52,1.2E0);
#89=CIRCLE('',#88,1.68E0);
#97=CIRCLE('',#96,1.68E0);
#105=CIRCLE('',#104,1.575E0);
#120=CIRCLE('',#119,1.575E0);
#149=CIRCLE('',#148,1.575E0);
#157=CIRCLE('',#156,1.575E0);
#165=CIRCLE('',#164,5.75E-1);
#173=CIRCLE('',#172,5.75E-1);
#202=EDGE_CURVE('',#179,#180,#44,.T.);
#204=EDGE_CURVE('',#180,#179,#53,.T.);
#208=ADVANCED_FACE('',(#207),#201,.T.);
#215=EDGE_CURVE('',#180,#184,#67,.T.);
#217=EDGE_CURVE('',#182,#184,#97,.T.);
#219=EDGE_CURVE('',#179,#182,#60,.T.);
#223=ADVANCED_FACE('',(#222),#213,.T.);
#243=EDGE_CURVE('',#182,#184,#89,.T.);
#248=ADVANCED_FACE('',(#247),#240,.T.);
#266=EDGE_CURVE('',#182,#191,#74,.T.);
#268=EDGE_CURVE('',#191,#188,#120,.T.);
#270=EDGE_CURVE('',#184,#188,#81,.T.);
#275=ADVANCED_FACE('',(#274),#265,.T.);
#284=EDGE_CURVE('',#191,#188,#105,.T.);
#288=ADVANCED_FACE('',(#287),#280,.T.);
#294=EDGE_CURVE('',#191,#192,#127,.T.);
#297=EDGE_CURVE('',#187,#188,#112,.T.);
#299=EDGE_CURVE('',#192,#187,#157,.T.);
#303=ADVANCED_FACE('',(#302),#293,.T.);
#312=EDGE_CURVE('',#192,#187,#149,.T.);
#316=ADVANCED_FACE('',(#315),#308,.T.);
#322=EDGE_CURVE('',#192,#194,#134,.T.);
#324=EDGE_CURVE('',#194,#196,#165,.T.);
#326=EDGE_CURVE('',#187,#196,#141,.T.);
#331=ADVANCED_FACE('',(#330),#321,.T.);
#340=EDGE_CURVE('',#194,#196,#173,.T.);
#344=ADVANCED_FACE('',(#343),#336,.T.);
#354=ADVANCED_FACE('',(#353),#349,.F.);
#384=(LENGTH_UNIT()NAMED_UNIT(*)SI_UNIT(.MILLI.,.METRE.));
#385=(NAMED_UNIT(*)PLANE_ANGLE_UNIT()SI_UNIT($,.RADIAN.));
#388=(NAMED_UNIT(*)SI_UNIT($,.STERADIAN.)SOLID_ANGLE_UNIT());
#390=(GEOMETRIC_REPRESENTATION_CONTEXT(3)GLOBAL_UNCERTAINTY_ASSIGNED_CONTEXT((
#389))GLOBAL_UNIT_ASSIGNED_CONTEXT((#384,#387,#388))REPRESENTATION_CONTEXT
('ID1','3'));
#391=ADVANCED_BREP_SHAPE_REPRESENTATION('',(#356),#390);
#392=CONSTRUCTIVE_GEOMETRY_REPRESENTATION('supplemental geometry',(#366,#373,
#380),#390);
#396=AXIS2_PLACEMENT_3D('',#393,#394,#395);
#397=SHAPE_REPRESENTATION('',(#396),#390);
#407=PRODUCT_DEFINITION('design','',#406,#403);
#408=PRODUCT_DEFINITION_SHAPE('','SHAPE FOR 607514249-000-00-E43.',#407);
#409=SHAPE_ASPECT('','solid data associated with 607514249-000-00-E43',#408,
.F.);
#410=PROPERTY_DEFINITION('',
'shape for solid data with which properties are associated',#409);
#411=SHAPE_REPRESENTATION('',(#356),#390);
#412=SHAPE_DEFINITION_REPRESENTATION(#410,#411);
#413=(LENGTH_UNIT()NAMED_UNIT(*)SI_UNIT(.MILLI.,.METRE.));
#417=PROPERTY_DEFINITION('geometric validation property',
'area of 607514249-000-00-E43',#409);
#418=REPRESENTATION('surface area',(#416),#390);
#419=PROPERTY_DEFINITION_REPRESENTATION(#417,#418);
#420=(LENGTH_UNIT()NAMED_UNIT(*)SI_UNIT(.MILLI.,.METRE.));
#424=PROPERTY_DEFINITION('geometric validation property',
'volume of 607514249-000-00-E43',#409);
#425=REPRESENTATION('volume',(#423),#390);
#426=PROPERTY_DEFINITION_REPRESENTATION(#424,#425);
#428=PROPERTY_DEFINITION('geometric validation property',
'centroid of 607514249-000-00-E43',#409);
#429=REPRESENTATION('centroid',(#427),#390);
#430=PROPERTY_DEFINITION_REPRESENTATION(#428,#429);
#431=(LENGTH_UNIT()NAMED_UNIT(*)SI_UNIT(.MILLI.,.METRE.));
#435=PROPERTY_DEFINITION('geometric validation property',
'area of 607514249-000-00-E43',#408);
#436=REPRESENTATION('surface area',(#434),#390);
#437=PROPERTY_DEFINITION_REPRESENTATION(#435,#436);
#438=(LENGTH_UNIT()NAMED_UNIT(*)SI_UNIT(.MILLI.,.METRE.));
#442=PROPERTY_DEFINITION('geometric validation property',
'volume of 607514249-000-00-E43',#408);
#443=REPRESENTATION('volume',(#441),#390);
#444=PROPERTY_DEFINITION_REPRESENTATION(#442,#443);
#446=PROPERTY_DEFINITION('geometric validation property',
'centroid of 607514249-000-00-E43',#408);
#447=REPRESENTATION('centroid',(#445),#390);
#448=PROPERTY_DEFINITION_REPRESENTATION(#446,#447);
#449=SHAPE_DEFINITION_REPRESENTATION(#408,#397);
#450=PROPERTY_DEFINITION('MATERIAL','user defined attribute',#407);
#454=REPRESENTATION('',(#453),#390);
#455=PROPERTY_DEFINITION_REPRESENTATION(#450,#454);
#456=PROPERTY_DEFINITION('WEIGHT','user defined attribute',#407);
#460=REPRESENTATION('',(#459),#390);
#461=PROPERTY_DEFINITION_REPRESENTATION(#456,#460);
#462=PROPERTY_DEFINITION('TITLE','user defined attribute',#407);
#466=REPRESENTATION('',(#465),#390);
#467=PROPERTY_DEFINITION_REPRESENTATION(#462,#466);
#468=PROPERTY_DEFINITION('MATNUM','user defined attribute',#407);
#472=REPRESENTATION('',(#471),#390);
#473=PROPERTY_DEFINITION_REPRESENTATION(#468,#472);
#474=PROPERTY_DEFINITION('LIBRARY','user defined attribute',#407);
#478=REPRESENTATION('',(#477),#390);
#479=PROPERTY_DEFINITION_REPRESENTATION(#474,#478);
#480=PROPERTY_DEFINITION('IDENTKEY','user defined attribute',#407);
#484=REPRESENTATION('',(#483),#390);
#485=PROPERTY_DEFINITION_REPRESENTATION(#480,#484);
#486=PROPERTY_DEFINITION('DEFTXT','user defined attribute',#407);
#490=REPRESENTATION('',(#489),#390);
#491=PROPERTY_DEFINITION_REPRESENTATION(#486,#490);
#492=PROPERTY_DEFINITION('SORTING','user defined attribute',#407);
#496=REPRESENTATION('',(#495),#390);
#497=PROPERTY_DEFINITION_REPRESENTATION(#492,#496);
#498=PROPERTY_DEFINITION('TITLE_E','user defined attribute',#407);
#502=REPRESENTATION('',(#501),#390);
#503=PROPERTY_DEFINITION_REPRESENTATION(#498,#502);
#504=PROPERTY_DEFINITION('UNIT_E','user defined attribute',#407);
#508=REPRESENTATION('',(#507),#390);
#509=PROPERTY_DEFINITION_REPRESENTATION(#504,#508);
#510=PROPERTY_DEFINITION('UNIT','user defined attribute',#407);
#514=REPRESENTATION('',(#513),#390);
#515=PROPERTY_DEFINITION_REPRESENTATION(#510,#514);
#516=PROPERTY_DEFINITION('CNO','user defined attribute',#407);
#520=REPRESENTATION('',(#519),#390);
#521=PROPERTY_DEFINITION_REPRESENTATION(#516,#520);
#522=PROPERTY_DEFINITION('TYP','user defined attribute',#407);
#526=REPRESENTATION('',(#525),#390);
#527=PROPERTY_DEFINITION_REPRESENTATION(#522,#526);
#528=PROPERTY_DEFINITION('DESCRIPTION','user defined attribute',#407);
#532=REPRESENTATION('',(#531),#390);
#533=PROPERTY_DEFINITION_REPRESENTATION(#528,#532);
#534=PROPERTY_DEFINITION('DESCRIPTION_E','user defined attribute',#407);
#538=REPRESENTATION('',(#537),#390);
#539=PROPERTY_DEFINITION_REPRESENTATION(#534,#538);
#540=PROPERTY_DEFINITION('SPIRALSTEIGUNG_VORNE','user defined attribute',#407);
#544=REPRESENTATION('',(#543),#390);
#545=PROPERTY_DEFINITION_REPRESENTATION(#540,#544);
#546=PROPERTY_DEFINITION('PRODHIER','user defined attribute',#407);
#550=REPRESENTATION('',(#549),#390);
#551=PROPERTY_DEFINITION_REPRESENTATION(#546,#550);
#552=PROPERTY_DEFINITION('SAP_DOC','user defined attribute',#407);
#556=REPRESENTATION('',(#555),#390);
#557=PROPERTY_DEFINITION_REPRESENTATION(#552,#556);
#558=PROPERTY_DEFINITION('SAP_DOC_NUMBER','user defined attribute',#407);
#562=REPRESENTATION('',(#561),#390);
#563=PROPERTY_DEFINITION_REPRESENTATION(#558,#562);
#564=PROPERTY_DEFINITION('PTC_COMMON_NAME','user defined attribute',#407);
#568=REPRESENTATION('',(#567),#390);
#569=PROPERTY_DEFINITION_REPRESENTATION(#564,#568);
ENDSEC;
END-ISO-10303-21;
