999
DXF file: 80-360-00.dxf
999
Pro/ENGINEER 2010430 by Parametric Technology Corporation
  0
SECTION
  2
HEADER
  9
$ACADVER
  1
AC1021
  9
$DWGCODEPAGE
  3
ANSI_1252
  9
$EXTMAX
 10
297.0
 20
210.0
 30
0.0
  9
$EXTMIN
 10
0.0
 20
0.0
 30
0.0
  9
$LIMMIN
 10
0.0
 20
0.0
  9
$LIMMAX
 10
297.0
 20
210.0
  9
$VIEWCTR
 10
148.5
 20
105.0
  9
$VIEWSIZE
 40
210.0
  9
$CLAYER
  8
0
  9
$LTSCALE
 40
16.335
  9
$CELTYPE
  6
BYLAYER
  9
$DIMSCALE
 40
1.0
  9
$DIMASZ
 40
3.5
  9
$DIMEXO
 40
1.85625
  9
$DIMDLI
 40
11.286
  9
$DIMEXE
 40
5.346
  9
$DIMCEN
 40
2.673
  9
$DIMLFAC
 40
1.0
  9
$DIMBLK
  1
_FILLED
  9
$DIMTXT
 40
3.5
  9
$DIMTOL
 70
1
  9
$DIMLIM
 70
0
  9
$DIMTFAC
 40
1.0
  9
$DIMTP
 40
0.005
  9
$DIMTM
 40
0.005
  9
$PDMODE
 70
3
  9
$PDSIZE
 40
0.3125
  9
$HANDSEED
  5
326
  9
$TILEMODE
 70
1
  9
$MEASUREMENT
 70
1
  9
$INSUNITS
 70
4
  0
ENDSEC
  0
SECTION
  2
CLASSES
  0
CLASS
  1
ACDBDICTIONARYWDFLT
  2
AcDbDictionaryWithDefault
  3
AutoCAD 2000
 90
0
 91
1
280
0
281
0
  0
CLASS
  1
ACDBPLACEHOLDER
  2
AcDbPlaceHolder
  3
AutoCAD 2000
 90
0
 91
1
280
0
281
0
  0
CLASS
  1
LAYOUT
  2
AcDbLayout
  3
AutoCAD 2000
 90
0
 91
0
280
0
281
0
  0
ENDSEC
  0
SECTION
  2
TABLES
  0
TABLE
  2
VPORT
  5
8
100
AcDbSymbolTable
 70
2
  0
VPORT
  5
1F4
100
AcDbSymbolTableRecord
100
AcDbViewportTableRecord
  2
*ACTIVE
 70
0
 10
0.0
 20
0.0
 11
1.0
 21
1.0
 12
148.5
 22
105.0
 13
0.0
 23
0.0
 14
1.0
 24
1.0
 15
0.0
 25
0.0
 16
0.0
 26
0.0
 36
1.0
 17
0.0
 27
0.0
 37
0.0
 40
210.0
 41
1.4142857143
 42
50.0
 43
0.0
 44
0.0
 50
0.0
 51
0.0
 71
0
 72
100
 73
1
 74
1
 75
0
 76
0
 77
0
 78
0
  0
ENDTAB
  0
TABLE
  2
LTYPE
  5
5
100
AcDbSymbolTable
 70
6
  0
LTYPE
  5
14
100
AcDbSymbolTableRecord
100
AcDbLinetypeTableRecord
  2
BYBLOCK
 70
0
  3

 72
65
 73
0
 40
0.0
  0
LTYPE
  5
15
100
AcDbSymbolTableRecord
100
AcDbLinetypeTableRecord
  2
BYLAYER
 70
0
  3

 72
65
 73
0
 40
0.0
  0
LTYPE
  5
16
100
AcDbSymbolTableRecord
100
AcDbLinetypeTableRecord
  2
CONTINUOUS
 70
64
  3
Solid line
 72
65
 73
0
 40
0.0
  0
LTYPE
  5
1F5
100
AcDbSymbolTableRecord
100
AcDbLinetypeTableRecord
  2
CENTER
 70
64
  3
____ _ ____ _ ____ _ ____ _ ____ _ ____ _ ____
 72
65
 73
4
 40
0.6
 49
0.375
 74
0
 49
-0.075
 74
0
 49
0.075
 74
0
 49
-0.075
 74
0
  0
LTYPE
  5
1F6
100
AcDbSymbolTableRecord
100
AcDbLinetypeTableRecord
  2
HIDDEN
 70
64
  3
- - - - - - - - - - - - - - - - - - - -
 72
65
 73
2
 40
0.2
 49
0.1
 74
0
 49
-0.1
 74
0
  0
LTYPE
  5
1F7
100
AcDbSymbolTableRecord
100
AcDbLinetypeTableRecord
  2
PHANTOM
 70
64
  3
_____ _ _ _____ _ _ _____ _ _ _____
 72
65
 73
6
 40
0.8
 49
0.45
 74
0
 49
-0.05
 74
0
 49
0.1
 74
0
 49
-0.05
 74
0
 49
0.1
 74
0
 49
-0.05
 74
0
  0
LTYPE
  5
1F8
100
AcDbSymbolTableRecord
100
AcDbLinetypeTableRecord
  2
DOT
 70
64
  3
. . . . . . . . . . . . . . . . . . . .
 72
65
 73
2
 40
0.2
 49
0.1
 74
0
 49
-0.1
 74
0
  0
LTYPE
  5
1F9
100
AcDbSymbolTableRecord
100
AcDbLinetypeTableRecord
  2
DASHED
 70
64
  3
- - - - - - - - - - - - - - - - - - - -
 72
65
 73
2
 40
0.2
 49
0.1
 74
0
 49
-0.1
 74
0
  0
ENDTAB
  0
TABLE
  2
LAYER
  5
2
100
AcDbSymbolTable
 70
36
  0
LAYER
  5
10
100
AcDbSymbolTableRecord
100
AcDbLayerTableRecord
  2
0
 70
0
 62
7
  6
CONTINUOUS
370
-3
390
F
  0
LAYER
  5
1FA
100
AcDbSymbolTableRecord
100
AcDbLayerTableRecord
  2
DEFAULT_1
 70
0
 62
7
  6
CENTER
370
-3
390
F
  0
LAYER
  5
1FB
100
AcDbSymbolTableRecord
100
AcDbLayerTableRecord
  2
DEFAULT_2
 70
0
 62
8
  6
HIDDEN
370
-3
390
F
  0
LAYER
  5
1FC
100
AcDbSymbolTableRecord
100
AcDbLayerTableRecord
  2
DEFAULT_3
 70
0
 62
7
  6
PHANTOM
370
-3
390
F
  0
LAYER
  5
1FD
100
AcDbSymbolTableRecord
100
AcDbLayerTableRecord
  2
BEZUGSACHSEN
 70
0
 62
7
  6
CONTINUOUS
370
-3
390
F
  0
LAYER
  5
1FE
100
AcDbSymbolTableRecord
100
AcDbLayerTableRecord
  2
BEZUGSEBENEN
 70
0
 62
7
  6
CONTINUOUS
370
-3
390
F
  0
LAYER
  5
1FF
100
AcDbSymbolTableRecord
100
AcDbLayerTableRecord
  2
BG_STARTBEZUEGE
 70
0
 62
7
  6
CONTINUOUS
370
-3
390
F
  0
LAYER
  5
200
100
AcDbSymbolTableRecord
100
AcDbLayerTableRecord
  2
BOHRUNGEN
 70
0
 62
7
  6
CONTINUOUS
370
-3
390
F
  0
LAYER
  5
201
100
AcDbSymbolTableRecord
100
AcDbLayerTableRecord
  2
EINBAUBEZUEGE
 70
0
 62
7
  6
CONTINUOUS
370
-3
390
F
  0
LAYER
  5
202
100
AcDbSymbolTableRecord
100
AcDbLayerTableRecord
  2
FASEN
 70
0
 62
7
  6
CONTINUOUS
370
-3
390
F
  0
LAYER
  5
203
100
AcDbSymbolTableRecord
100
AcDbLayerTableRecord
  2
FORM_LAGE_TOLERANZEN
 70
0
 62
7
  6
CONTINUOUS
370
-3
390
F
  0
LAYER
  5
204
100
AcDbSymbolTableRecord
100
AcDbLayerTableRecord
  2
GEOMTOL
 70
0
 62
7
  6
CONTINUOUS
370
-3
390
F
  0
LAYER
  5
205
100
AcDbSymbolTableRecord
100
AcDbLayerTableRecord
  2
GEWINDE
 70
0
 62
7
  6
CONTINUOUS
370
-3
390
F
  0
LAYER
  5
206
100
AcDbSymbolTableRecord
100
AcDbLayerTableRecord
  2
HILFEN
 70
0
 62
7
  6
CONTINUOUS
370
-3
390
F
  0
LAYER
  5
207
100
AcDbSymbolTableRecord
100
AcDbLayerTableRecord
  2
KURVEN
 70
0
 62
7
  6
CONTINUOUS
370
-3
390
F
  0
LAYER
  5
208
100
AcDbSymbolTableRecord
100
AcDbLayerTableRecord
  2
PLATZIERUNG
 70
0
 62
7
  6
CONTINUOUS
370
-3
390
F
  0
LAYER
  5
209
100
AcDbSymbolTableRecord
100
AcDbLayerTableRecord
  2
RUNDUNGEN
 70
0
 62
7
  6
CONTINUOUS
370
-3
390
F
  0
LAYER
  5
20A
100
AcDbSymbolTableRecord
100
AcDbLayerTableRecord
  2
TEIL_STARTBEZUEGE
 70
0
 62
7
  6
CONTINUOUS
370
-3
390
F
  0
LAYER
  5
20B
100
AcDbSymbolTableRecord
100
AcDbLayerTableRecord
  2
ZEICHNUNGSBEMASSUNGEN
 70
0
 62
7
  6
CONTINUOUS
370
-3
390
F
  0
ENDTAB
  0
TABLE
  2
STYLE
  5
3
100
AcDbSymbolTable
 70
1
  0
STYLE
  5
11
100
AcDbSymbolTableRecord
100
AcDbTextStyleTableRecord
  2
STANDARD
 70
0
 40
0.0
 41
0.7
 50
0.0
 71
0
 42
0.2
  3
txt
  4

  0
STYLE
  5
20C
100
AcDbSymbolTableRecord
100
AcDbTextStyleTableRecord
  2
TEXTSTYLE_1
 70
0
 40
0.0
 41
0.8
 50
0.0
 71
0
 42
0.2
  3
gdt
  4

  0
ENDTAB
  0
TABLE
  2
VIEW
  5
6
100
AcDbSymbolTable
 70
0
  0
ENDTAB
  0
TABLE
  2
UCS
  5
7
100
AcDbSymbolTable
 70
0
  0
ENDTAB
  0
TABLE
  2
APPID
  5
9
100
AcDbSymbolTable
 70
1
  0
APPID
  5
20D
100
AcDbSymbolTableRecord
100
AcDbRegAppTableRecord
  2
ACAD
 70
0
  0
ENDTAB
  0
TABLE
  2
BLOCK_RECORD
  5
1
100
AcDbSymbolTable
 70
0
  0
BLOCK_RECORD
  5
20E
100
AcDbSymbolTableRecord
100
AcDbBlockTableRecord
  2
*Model_Space
  0
BLOCK_RECORD
  5
20F
100
AcDbSymbolTableRecord
100
AcDbBlockTableRecord
  2
*Paper_Space
  0
ENDTAB
  0
TABLE
  2
DIMSTYLE
  5
A
100
AcDbSymbolTable
 70
1
100
AcDbDimStyleTable
 71
0
  0
DIMSTYLE
105
210
100
AcDbSymbolTableRecord
100
AcDbDimStyleTableRecord
  2
STANDARD
 70
0
  3

  4

 40
1.0
 41
3.5
 42
0.0625
 43
0.38
 44
0.18
 45
0.0
 46
0.0
 47
0.005
 48
0.005
140
3.5
141
0.09
142
0.0
143
25.4
144
1.0
145
0.0
146
1.0
147
0.09
 71
1.0
 72
0.0
 73
0
 74
0
 75
0
 76
0
 77
1
 78
8
170
0
171
2
172
0
173
0
174
0
175
0
176
0
177
0
178
5
270
2
271
3
272
3
273
2
274
2
275
0
280
0
281
0
282
0
283
1
284
8
285
0
286
0
287
3
288
0
340
11
  0
ENDTAB
  0
ENDSEC
  0
SECTION
  2
BLOCKS
  0
BLOCK
  5
20
100
AcDbEntity
  8
0
100
AcDbBlockBegin
  2
*Model_Space
 70
0
 10
0.0
 20
0.0
 30
0.0
  3
*Model_Space
  1

  0
ENDBLK
  5
21
100
AcDbEntity
  8
0
100
AcDbBlockEnd
  0
BLOCK
  5
1C
100
AcDbEntity
  8
0
100
AcDbBlockBegin
  2
*Paper_Space
 70
0
 10
0.0
 20
0.0
 30
0.0
  3
*Paper_Space
  1

  0
ENDBLK
  5
1D
100
AcDbEntity
  8
0
100
AcDbBlockEnd
  0
ENDSEC
  0
SECTION
  2
ENTITIES
  0
LINE
  5
211
100
AcDbEntity
  8
0
100
AcDbLine
 62
7
  6
CONTINUOUS
 10
0.0
 20
0.0
 11
0.0
 21
210.0
  0
LINE
  5
212
100
AcDbEntity
  8
0
100
AcDbLine
 62
7
  6
CONTINUOUS
 10
0.0
 20
0.0
 11
297.0
 21
0.0
  0
LINE
  5
213
100
AcDbEntity
  8
0
100
AcDbLine
 62
7
  6
CONTINUOUS
 10
0.0
 20
210.0
 11
297.0
 21
210.0
  0
LINE
  5
214
100
AcDbEntity
  8
0
100
AcDbLine
 62
7
  6
CONTINUOUS
 10
297.0
 20
0.0
 11
297.0
 21
210.0
  0
LINE
  5
215
100
AcDbEntity
  8
BG_STARTBEZUEGE
100
AcDbLine
 62
7
  6
CENTER
 10
204.4955496362
 20
26.0751234407
 11
201.4954496362
 21
26.0751234407
  0
LINE
  5
216
100
AcDbEntity
  8
BG_STARTBEZUEGE
100
AcDbLine
 62
7
  6
CENTER
 10
204.4955496362
 20
26.0751234407
 11
207.4956496362
 21
26.0751234407
  0
LINE
  5
217
100
AcDbEntity
  8
0
100
AcDbLine
 62
7
  6
CONTINUOUS
 10
203.0330496362
 20
27.5151234407
 11
205.9580496362
 21
27.5151234407
  0
LINE
  5
218
100
AcDbEntity
  8
0
100
AcDbLine
 62
7
  6
CONTINUOUS
 10
203.0330496362
 20
28.5151234407
 11
205.9580496362
 21
28.5151234407
  0
LINE
  5
219
100
AcDbEntity
  8
0
100
AcDbLine
 62
7
  6
CONTINUOUS
 10
203.3530496362
 20
29.0693796992
 11
205.6380496362
 21
29.0693796992
  0
LINE
  5
21A
100
AcDbEntity
  8
0
100
AcDbLine
 62
7
  6
CONTINUOUS
 10
203.3530496362
 20
32.8551234407
 11
205.6380496362
 21
32.8551234407
  0
LINE
  5
21B
100
AcDbEntity
  8
RUNDUNGEN
100
AcDbLine
 62
9
  6
CONTINUOUS
 10
203.1514938191
 20
33.0566792578
 11
205.8396054533
 21
33.0566792578
  0
LINE
  5
21C
100
AcDbEntity
  8
RUNDUNGEN
100
AcDbLine
 62
9
  6
CONTINUOUS
 10
203.1282352351
 20
33.1615919503
 11
205.8628640372
 21
33.1615919503
  0
LINE
  5
21D
100
AcDbEntity
  8
0
100
AcDbLine
 62
7
  6
CONTINUOUS
 10
203.2705496362
 20
34.1751234407
 11
203.4183858005
 21
34.1751234407
  0
LINE
  5
21E
100
AcDbEntity
  8
RUNDUNGEN
100
AcDbLine
 62
7
  6
CONTINUOUS
 10
202.926914627
 20
34.1751234407
 11
206.0705452904
 21
34.1751234407
  0
LINE
  5
21F
100
AcDbEntity
  8
RUNDUNGEN
100
AcDbLine
 62
9
  6
CONTINUOUS
 10
202.5205496362
 20
34.5751234407
 11
206.4705496362
 21
34.5751234407
  0
LINE
  5
220
100
AcDbEntity
  8
0
100
AcDbLine
 62
9
  6
CONTINUOUS
 10
206.4369050486
 20
42.5665781595
 11
205.7805887936
 21
42.5665781595
  0
LINE
  5
221
100
AcDbEntity
  8
0
100
AcDbLine
 62
9
  6
CONTINUOUS
 10
205.1518658912
 20
42.5665781595
 11
203.8392333811
 21
42.5665781595
  0
LINE
  5
222
100
AcDbEntity
  8
0
100
AcDbLine
 62
9
  6
CONTINUOUS
 10
203.2105104788
 20
42.5665781595
 11
202.5541942237
 21
42.5665781595
  0
LINE
  5
223
100
AcDbEntity
  8
0
100
AcDbLine
 62
7
  6
CONTINUOUS
 10
201.0955497717
 20
44.2551234407
 11
207.8955495007
 21
44.2551234407
  0
LINE
  5
224
100
AcDbEntity
  8
0
100
AcDbLine
 62
7
  6
CONTINUOUS
 10
200.1035628609
 20
46.3845392549
 11
208.8875364115
 21
46.3845392549
  0
LINE
  5
225
100
AcDbEntity
  8
0
100
AcDbLine
 62
7
  6
CONTINUOUS
 10
200.0864559603
 20
47.3169863127
 11
208.9046433121
 21
47.3169863127
  0
LINE
  5
226
100
AcDbEntity
  8
0
100
AcDbLine
 62
9
  6
CONTINUOUS
 10
200.3455496362
 20
47.7551234407
 11
208.6455496362
 21
47.7551234407
  0
LINE
  5
227
100
AcDbEntity
  8
RUNDUNGEN
100
AcDbLine
 62
9
  6
CONTINUOUS
 10
208.6455496362
 20
48.8551234407
 11
200.3455496362
 21
48.8551234407
  0
LINE
  5
228
100
AcDbEntity
  8
0
100
AcDbLine
 62
7
  6
CONTINUOUS
 10
198.7277265285
 20
49.3551234407
 11
210.2633727438
 21
49.3551234407
  0
LINE
  5
229
100
AcDbEntity
  8
0
100
AcDbLine
 62
7
  6
CONTINUOUS
 10
198.3080496362
 20
50.2551234407
 11
210.6830496362
 21
50.2551234407
  0
LINE
  5
22A
100
AcDbEntity
  8
FASEN
100
AcDbLine
 62
7
  6
CONTINUOUS
 10
198.3080496362
 20
50.8551234407
 11
210.6830496362
 21
50.8551234407
  0
LINE
  5
22B
100
AcDbEntity
  8
0
100
AcDbLine
 62
7
  6
CONTINUOUS
 10
210.4630496362
 20
51.0751234407
 11
198.5280496362
 21
51.0751234407
  0
LINE
  5
22C
100
AcDbEntity
  8
RUNDUNGEN
100
AcDbLine
 62
9
  6
CONTINUOUS
 10
210.5955496362
 20
51.5751234407
 11
198.3955496362
 21
51.5751234407
  0
LINE
  5
22D
100
AcDbEntity
  8
RUNDUNGEN
100
AcDbLine
 62
9
  6
CONTINUOUS
 10
210.5955496362
 20
51.6751234407
 11
198.3955496362
 21
51.6751234407
  0
LINE
  5
22E
100
AcDbEntity
  8
RUNDUNGEN
100
AcDbLine
 62
7
  6
CONTINUOUS
 10
210.1955407636
 20
52.0751234407
 11
198.7955585088
 21
52.0751234407
  0
LINE
  5
22F
100
AcDbEntity
  8
RUNDUNGEN
100
AcDbLine
 62
7
  6
CONTINUOUS
 10
210.4955496362
 20
52.4751234407
 11
198.4955496362
 21
52.4751234407
  0
LINE
  5
230
100
AcDbEntity
  8
0
100
AcDbLine
 62
7
  6
CONTINUOUS
 10
197.4955496362
 20
53.9551234407
 11
211.4955496362
 21
53.9551234407
  0
LINE
  5
231
100
AcDbEntity
  8
0
100
AcDbLine
 62
7
  6
CONTINUOUS
 10
203.1514938191
 20
33.0566792578
 11
203.3530496362
 21
32.8551234407
  0
LINE
  5
232
100
AcDbEntity
  8
RUNDUNGEN
100
AcDbLine
 62
9
  6
CONTINUOUS
 10
218.5279343334
 20
56.3353151844
 11
190.4631649389
 21
56.3353151844
  0
LINE
  5
233
100
AcDbEntity
  8
RUNDUNGEN
100
AcDbLine
 62
9
  6
CONTINUOUS
 10
221.2455496362
 20
60.1241790627
 11
187.7455496362
 21
60.1241790627
  0
LINE
  5
234
100
AcDbEntity
  8
0
100
AcDbLine
 62
7
  6
CONTINUOUS
 10
197.4955496362
 20
53.9551234407
 11
190.4631649389
 21
56.3353151844
  0
LINE
  5
235
100
AcDbEntity
  8
RUNDUNGEN
100
AcDbLine
 62
9
  6
CONTINUOUS
 10
221.2455496362
 20
61.5751234407
 11
187.7455496362
 21
61.5751234407
  0
LINE
  5
236
100
AcDbEntity
  8
0
100
AcDbLine
 62
7
  6
CONTINUOUS
 10
223.4955496362
 20
64.0751234407
 11
185.4955496362
 21
64.0751234407
  0
LINE
  5
237
100
AcDbEntity
  8
0
100
AcDbLine
 62
7
  6
CONTINUOUS
 10
181.6447365474
 20
140.0251234407
 11
177.5455496362
 21
132.9251234407
  0
LINE
  5
238
100
AcDbEntity
  8
FASEN
100
AcDbLine
 62
7
  6
CONTINUOUS
 10
210.4630496362
 20
51.0751234407
 11
210.6830496362
 21
50.8551234407
  0
LINE
  5
239
100
AcDbEntity
  8
0
100
AcDbLine
 62
7
  6
CONTINUOUS
 10
198.4955496362
 20
52.4751234407
 11
197.4955496362
 21
53.9551234407
  0
LINE
  5
23A
100
AcDbEntity
  8
0
100
AcDbLine
 62
7
  6
CONTINUOUS
 10
205.6380496362
 20
29.0693796992
 11
205.9580496362
 21
28.5151234407
  0
LINE
  5
23B
100
AcDbEntity
  8
0
100
AcDbLine
 62
7
  6
CONTINUOUS
 10
175.9359020619
 20
130.9531436631
 11
171.8045066338
 21
101.2559292544
  0
LINE
  5
23C
100
AcDbEntity
  8
0
100
AcDbLine
 62
7
  6
CONTINUOUS
 10
198.7277265285
 20
49.3551234407
 11
198.3080496362
 21
50.2551234407
  0
LINE
  5
23D
100
AcDbEntity
  8
0
100
AcDbLine
 62
7
  6
CONTINUOUS
 10
205.495111112
 20
34.1719848082
 11
205.8628640372
 21
33.1615919503
  0
LINE
  5
23E
100
AcDbEntity
  8
0
100
AcDbLine
 62
7
  6
CONTINUOUS
 10
187.7455496362
 20
60.1241790627
 11
187.7455496362
 21
61.5751234407
  0
LINE
  5
23F
100
AcDbEntity
  8
0
100
AcDbLine
 62
7
  6
CONTINUOUS
 10
194.3955496362
 20
190.0251234407
 11
194.3955496362
 21
140.0251234407
  0
LINE
  5
240
100
AcDbEntity
  8
0
100
AcDbLine
 62
7
  6
CONTINUOUS
 10
198.3080496362
 20
50.2551234407
 11
198.3080496362
 21
50.8551234407
  0
LINE
  5
241
100
AcDbEntity
  8
0
100
AcDbLine
 62
7
  6
CONTINUOUS
 10
198.3955496362
 20
51.5751234407
 11
198.3955496362
 21
51.6751234407
  0
LINE
  5
242
100
AcDbEntity
  8
BG_STARTBEZUEGE
100
AcDbLine
 62
7
  6
CENTER
 10
168.4856754808
 20
98.5001234407
 11
240.5054237916
 21
98.5001234407
  0
LINE
  5
243
100
AcDbEntity
  8
0
100
AcDbLine
 62
7
  6
CONTINUOUS
 10
200.3455496362
 20
47.7551234407
 11
200.3455496362
 21
48.8551234407
  0
LINE
  5
244
100
AcDbEntity
  8
0
100
AcDbLine
 62
7
  6
CONTINUOUS
 10
202.5205496362
 20
34.5751234407
 11
202.5205496362
 21
44.2551234407
  0
LINE
  5
245
100
AcDbEntity
  8
RUNDUNGEN
100
AcDbLine
 62
7
  6
CONTINUOUS
 10
202.5541942172
 20
34.5751234407
 11
202.5541942237
 21
42.5665781595
  0
LINE
  5
246
100
AcDbEntity
  8
0
100
AcDbLine
 62
7
  6
CONTINUOUS
 10
203.0330496362
 20
28.5151234407
 11
203.0330496362
 21
27.5151234407
  0
LINE
  5
247
100
AcDbEntity
  8
RUNDUNGEN
100
AcDbLine
 62
7
  6
CONTINUOUS
 10
203.2105104788
 20
42.5665781595
 11
203.2105106354
 21
34.5751234407
  0
LINE
  5
248
100
AcDbEntity
  8
0
100
AcDbLine
 62
7
  6
CONTINUOUS
 10
203.3530496362
 20
32.8551234407
 11
203.3530496362
 21
29.0693796992
  0
LINE
  5
249
100
AcDbEntity
  8
RUNDUNGEN
100
AcDbLine
 62
7
  6
CONTINUOUS
 10
203.839233314
 20
34.5751234407
 11
203.8392333811
 21
42.5665781595
  0
LINE
  5
24A
100
AcDbEntity
  8
BG_STARTBEZUEGE
100
AcDbLine
 62
7
  6
CENTER
 10
204.4955496362
 20
193.0251234407
 11
204.4955496362
 21
21.0751234407
  0
LINE
  5
24B
100
AcDbEntity
  8
RUNDUNGEN
100
AcDbLine
 62
7
  6
CONTINUOUS
 10
205.1518658912
 20
42.5665781595
 11
205.151866298
 21
34.5751234407
  0
LINE
  5
24C
100
AcDbEntity
  8
0
100
AcDbLine
 62
7
  6
CONTINUOUS
 10
205.6380496362
 20
32.8551234407
 11
205.6380496362
 21
29.0693796992
  0
LINE
  5
24D
100
AcDbEntity
  8
RUNDUNGEN
100
AcDbLine
 62
7
  6
CONTINUOUS
 10
205.7805888767
 20
34.5751234407
 11
205.7805887936
 21
42.5665781595
  0
LINE
  5
24E
100
AcDbEntity
  8
0
100
AcDbLine
 62
7
  6
CONTINUOUS
 10
205.9580496362
 20
28.5151234407
 11
205.9580496362
 21
27.5151234407
  0
LINE
  5
24F
100
AcDbEntity
  8
RUNDUNGEN
100
AcDbLine
 62
7
  6
CONTINUOUS
 10
206.4369050486
 20
42.5665781595
 11
206.4369050548
 21
34.5751234407
  0
LINE
  5
250
100
AcDbEntity
  8
0
100
AcDbLine
 62
7
  6
CONTINUOUS
 10
206.4705496362
 20
34.5751234407
 11
206.4705496362
 21
44.2551234407
  0
LINE
  5
251
100
AcDbEntity
  8
0
100
AcDbLine
 62
7
  6
CONTINUOUS
 10
208.6455496362
 20
47.7551234407
 11
208.6455496362
 21
48.8551234407
  0
LINE
  5
252
100
AcDbEntity
  8
0
100
AcDbLine
 62
7
  6
CONTINUOUS
 10
210.5955496362
 20
51.5751234407
 11
210.5955496362
 21
51.6751234407
  0
LINE
  5
253
100
AcDbEntity
  8
0
100
AcDbLine
 62
7
  6
CONTINUOUS
 10
210.6830496362
 20
50.2551234407
 11
210.6830496362
 21
50.8551234407
  0
LINE
  5
254
100
AcDbEntity
  8
0
100
AcDbLine
 62
7
  6
CONTINUOUS
 10
214.5955496362
 20
190.0251234407
 11
214.5955496362
 21
140.0251234407
  0
LINE
  5
255
100
AcDbEntity
  8
0
100
AcDbLine
 62
7
  6
CONTINUOUS
 10
221.2455496362
 20
60.1241790627
 11
221.2455496362
 21
61.5751234407
  0
LINE
  5
256
100
AcDbEntity
  8
0
100
AcDbLine
 62
7
  6
CONTINUOUS
 10
203.4959881603
 20
34.1719848082
 11
203.1282352351
 21
33.1615919503
  0
LINE
  5
257
100
AcDbEntity
  8
0
100
AcDbLine
 62
7
  6
CONTINUOUS
 10
210.2633727438
 20
49.3551234407
 11
210.6830496362
 21
50.2551234407
  0
LINE
  5
258
100
AcDbEntity
  8
0
100
AcDbLine
 62
7
  6
CONTINUOUS
 10
232.2154292983
 20
132.9251234407
 11
177.5460206847
 21
132.9251234407
  0
LINE
  5
259
100
AcDbEntity
  8
0
100
AcDbLine
 62
7
  6
CONTINUOUS
 10
210.4955496362
 20
52.4751234407
 11
211.4955496362
 21
53.9551234407
  0
LINE
  5
25A
100
AcDbEntity
  8
FASEN
100
AcDbLine
 62
7
  6
CONTINUOUS
 10
198.5280496362
 20
51.0751234407
 11
198.3080496362
 21
50.8551234407
  0
LINE
  5
25B
100
AcDbEntity
  8
0
100
AcDbLine
 62
7
  6
CONTINUOUS
 10
181.6447365474
 20
140.0251234407
 11
227.3463627249
 21
140.0251234407
  0
LINE
  5
25C
100
AcDbEntity
  8
0
100
AcDbLine
 62
7
  6
CONTINUOUS
 10
227.3463627249
 20
140.0251234407
 11
231.4455496362
 21
132.9251234407
  0
LINE
  5
25D
100
AcDbEntity
  8
0
100
AcDbLine
 62
7
  6
CONTINUOUS
 10
232.8557366341
 20
132.3869022091
 11
237.1865926386
 21
101.2559292544
  0
LINE
  5
25E
100
AcDbEntity
  8
0
100
AcDbLine
 62
7
  6
CONTINUOUS
 10
203.3530496362
 20
29.0693796992
 11
203.0330496362
 21
28.5151234407
  0
LINE
  5
25F
100
AcDbEntity
  8
0
100
AcDbLine
 62
7
  6
CONTINUOUS
 10
205.8396054533
 20
33.0566792578
 11
205.6380496362
 21
32.8551234407
  0
LINE
  5
260
100
AcDbEntity
  8
0
100
AcDbLine
 62
7
  6
CONTINUOUS
 10
211.4955496362
 20
53.9551234407
 11
218.5279343334
 21
56.3353151844
  0
LINE
  5
261
100
AcDbEntity
  8
0
100
AcDbLine
 62
7
  6
CONTINUOUS
 10
194.3960034519
 20
190.0251234407
 11
214.5950958205
 21
190.0251234407
  0
LINE
  5
262
100
AcDbEntity
  8
BG_STARTBEZUEGE
100
AcDbLine
 62
7
  6
CENTER
 10
103.0970975182
 20
26.0751234407
 11
84.7220975182
 21
26.0751234407
  0
LINE
  5
263
100
AcDbEntity
  8
0
100
AcDbLine
 62
7
  6
CONTINUOUS
 10
95.3720975182
 20
27.5151234407
 11
92.4470975182
 21
27.5151234407
  0
LINE
  5
264
100
AcDbEntity
  8
0
100
AcDbLine
 62
7
  6
CONTINUOUS
 10
95.3720975182
 20
28.5151234407
 11
92.4470975182
 21
28.5151234407
  0
LINE
  5
265
100
AcDbEntity
  8
0
100
AcDbLine
 62
7
  6
CONTINUOUS
 10
95.0520975182
 20
29.0693796992
 11
92.7670975182
 21
29.0693796992
  0
LINE
  5
266
100
AcDbEntity
  8
0
100
AcDbLine
 62
7
  6
CONTINUOUS
 10
95.0520975182
 20
32.8551234407
 11
92.7670975182
 21
32.8551234407
  0
LINE
  5
267
100
AcDbEntity
  8
RUNDUNGEN
100
AcDbLine
 62
9
  6
CONTINUOUS
 10
92.5655417011
 20
33.0566792578
 11
95.2536533353
 21
33.0566792578
  0
LINE
  5
268
100
AcDbEntity
  8
RUNDUNGEN
100
AcDbLine
 62
9
  6
CONTINUOUS
 10
92.5422831171
 20
33.1615919503
 11
95.2769119192
 21
33.1615919503
  0
LINE
  5
269
100
AcDbEntity
  8
RUNDUNGEN
100
AcDbLine
 62
7
  6
CONTINUOUS
 10
92.480392797
 20
34.1751234407
 11
95.3388022394
 21
34.1751234407
  0
LINE
  5
26A
100
AcDbEntity
  8
RUNDUNGEN
100
AcDbLine
 62
9
  6
CONTINUOUS
 10
92.0468378881
 20
34.5751234407
 11
95.7723572679
 21
34.5751234407
  0
LINE
  5
26B
100
AcDbEntity
  8
0
100
AcDbLine
 62
9
  6
CONTINUOUS
 10
95.4093639547
 20
42.5665781595
 11
94.2725908551
 21
42.5665781595
  0
LINE
  5
26C
100
AcDbEntity
  8
0
100
AcDbLine
 62
9
  6
CONTINUOUS
 10
93.5466041813
 20
42.5665781595
 11
92.4098310817
 21
42.5665781595
  0
LINE
  5
26D
100
AcDbEntity
  8
0
100
AcDbLine
 62
7
  6
CONTINUOUS
 10
90.5095975182
 20
44.2551234407
 11
97.3095975182
 21
44.2551234407
  0
LINE
  5
26E
100
AcDbEntity
  8
0
100
AcDbLine
 62
7
  6
CONTINUOUS
 10
98.3015842935
 20
46.3845392549
 11
89.5176107429
 21
46.3845392549
  0
LINE
  5
26F
100
AcDbEntity
  8
0
100
AcDbLine
 62
7
  6
CONTINUOUS
 10
89.5005038423
 20
47.3169863127
 11
98.3186911941
 21
47.3169863127
  0
LINE
  5
270
100
AcDbEntity
  8
0
100
AcDbLine
 62
9
  6
CONTINUOUS
 10
98.0595975182
 20
47.7551234407
 11
89.7595975182
 21
47.7551234407
  0
LINE
  5
271
100
AcDbEntity
  8
RUNDUNGEN
100
AcDbLine
 62
9
  6
CONTINUOUS
 10
98.0595975182
 20
48.8551234407
 11
89.7595975182
 21
48.8551234407
  0
LINE
  5
272
100
AcDbEntity
  8
0
100
AcDbLine
 62
7
  6
CONTINUOUS
 10
99.6774206259
 20
49.3551234407
 11
88.1417744105
 21
49.3551234407
  0
LINE
  5
273
100
AcDbEntity
  8
0
100
AcDbLine
 62
7
  6
CONTINUOUS
 10
100.0970975182
 20
50.2551234407
 11
87.7220975182
 21
50.2551234407
  0
LINE
  5
274
100
AcDbEntity
  8
FASEN
100
AcDbLine
 62
7
  6
CONTINUOUS
 10
87.7220975182
 20
50.8551234407
 11
100.0970975182
 21
50.8551234407
  0
LINE
  5
275
100
AcDbEntity
  8
0
100
AcDbLine
 62
7
  6
CONTINUOUS
 10
99.8770975182
 20
51.0751234407
 11
87.9420975182
 21
51.0751234407
  0
LINE
  5
276
100
AcDbEntity
  8
RUNDUNGEN
100
AcDbLine
 62
9
  6
CONTINUOUS
 10
100.0095975182
 20
51.5751234407
 11
87.8095975182
 21
51.5751234407
  0
LINE
  5
277
100
AcDbEntity
  8
RUNDUNGEN
100
AcDbLine
 62
9
  6
CONTINUOUS
 10
100.0095975182
 20
51.6751234407
 11
87.8095975182
 21
51.6751234407
  0
LINE
  5
278
100
AcDbEntity
  8
RUNDUNGEN
100
AcDbLine
 62
7
  6
CONTINUOUS
 10
99.6095975182
 20
52.0751234407
 11
88.2095975182
 21
52.0751234407
  0
LINE
  5
279
100
AcDbEntity
  8
RUNDUNGEN
100
AcDbLine
 62
7
  6
CONTINUOUS
 10
99.9095975182
 20
52.4751234407
 11
87.9095975182
 21
52.4751234407
  0
LINE
  5
27A
100
AcDbEntity
  8
0
100
AcDbLine
 62
7
  6
CONTINUOUS
 10
100.9095975182
 20
53.9551234407
 11
86.9095975182
 21
53.9551234407
  0
LINE
  5
27B
100
AcDbEntity
  8
RUNDUNGEN
100
AcDbLine
 62
9
  6
CONTINUOUS
 10
107.9419822155
 20
56.3353151844
 11
79.8772128209
 21
56.3353151844
  0
LINE
  5
27C
100
AcDbEntity
  8
RUNDUNGEN
100
AcDbLine
 62
9
  6
CONTINUOUS
 10
110.6595975182
 20
60.1241790627
 11
77.1595975182
 21
60.1241790627
  0
LINE
  5
27D
100
AcDbEntity
  8
0
100
AcDbLine
 62
7
  6
CONTINUOUS
 10
86.9095975182
 20
53.9551234407
 11
79.8772128209
 21
56.3353151844
  0
LINE
  5
27E
100
AcDbEntity
  8
RUNDUNGEN
100
AcDbLine
 62
7
  6
CONTINUOUS
 10
79.8772128209
 20
56.3353151844
 11
86.9095975182
 21
53.9551234407
  0
LINE
  5
27F
100
AcDbEntity
  8
RUNDUNGEN
100
AcDbLine
 62
7
  6
CONTINUOUS
 10
92.5655417011
 20
33.0566792578
 11
92.7670975182
 21
32.8551234407
  0
LINE
  5
280
100
AcDbEntity
  8
0
100
AcDbLine
 62
7
  6
CONTINUOUS
 10
92.5655417011
 20
33.0566792578
 11
92.7670975182
 21
32.8551234407
  0
LINE
  5
281
100
AcDbEntity
  8
FASEN
100
AcDbLine
 62
7
  6
CONTINUOUS
 10
57.659597518
 20
69.3001234409
 11
58.659597518
 21
68.3001234409
  0
LINE
  5
282
100
AcDbEntity
  8
RUNDUNGEN
100
AcDbLine
 62
9
  6
CONTINUOUS
 10
110.6595975182
 20
61.5751234407
 11
77.1595975182
 21
61.5751234407
  0
LINE
  5
283
100
AcDbEntity
  8
0
100
AcDbLine
 62
7
  6
CONTINUOUS
 10
65.6595975182
 20
64.0751234407
 11
115.5298388963
 21
64.0751234407
  0
LINE
  5
284
100
AcDbEntity
  8
FASEN
100
AcDbLine
 62
7
  6
CONTINUOUS
 10
57.6595975179
 20
127.7001234404
 11
58.6595975179
 21
128.7001234404
  0
LINE
  5
285
100
AcDbEntity
  8
0
100
AcDbLine
 62
7
  6
CONTINUOUS
 10
65.6595975182
 20
66.5545869621
 11
103.0044244804
 21
66.5545869621
  0
LINE
  5
286
100
AcDbEntity
  8
FASEN
100
AcDbLine
 62
7
  6
CONTINUOUS
 10
64.6595975182
 20
68.3001234407
 11
58.6595975182
 21
68.3001234407
  0
LINE
  5
287
100
AcDbEntity
  8
0
100
AcDbLine
 62
7
  6
CONTINUOUS
 10
58.6595975182
 20
68.3001234407
 11
64.6595975182
 21
68.3001234407
  0
LINE
  5
288
100
AcDbEntity
  8
FASEN
100
AcDbLine
 62
7
  6
CONTINUOUS
 10
57.6595975182
 20
69.3001234408
 11
57.6595975182
 21
127.7001234407
  0
LINE
  5
289
100
AcDbEntity
  8
FASEN
100
AcDbLine
 62
7
  6
CONTINUOUS
 10
58.6595975182
 20
68.3001234407
 11
58.6595975182
 21
128.7001234407
  0
LINE
  5
28A
100
AcDbEntity
  8
0
100
AcDbLine
 62
7
  6
CONTINUOUS
 10
71.0587844294
 20
140.0251234407
 11
66.9595975182
 21
132.9251234407
  0
LINE
  5
28B
100
AcDbEntity
  8
FASEN
100
AcDbLine
 62
7
  6
CONTINUOUS
 10
99.8770975182
 20
51.0751234407
 11
100.0970975182
 21
50.8551234407
  0
LINE
  5
28C
100
AcDbEntity
  8
0
100
AcDbLine
 62
7
  6
CONTINUOUS
 10
99.8770975182
 20
51.0751234407
 11
100.0970975182
 21
50.8551234407
  0
LINE
  5
28D
100
AcDbEntity
  8
RUNDUNGEN
100
AcDbLine
 62
7
  6
CONTINUOUS
 10
86.9095975182
 20
53.9551234407
 11
87.9095975182
 21
52.4751234407
  0
LINE
  5
28E
100
AcDbEntity
  8
0
100
AcDbLine
 62
7
  6
CONTINUOUS
 10
87.9095975182
 20
52.4751234407
 11
86.9095975182
 21
53.9551234407
  0
LINE
  5
28F
100
AcDbEntity
  8
0
100
AcDbLine
 62
7
  6
CONTINUOUS
 10
95.0520975182
 20
29.0693796992
 11
95.3720975182
 21
28.5151234407
  0
LINE
  5
290
100
AcDbEntity
  8
FASEN
100
AcDbLine
 62
7
  6
CONTINUOUS
 10
64.6595975182
 20
68.3001234407
 11
64.6595975182
 21
128.7001234407
  0
LINE
  5
291
100
AcDbEntity
  8
0
100
AcDbLine
 62
7
  6
CONTINUOUS
 10
65.6595975182
 20
64.0751234407
 11
65.6595975182
 21
132.9251234407
  0
LINE
  5
292
100
AcDbEntity
  8
0
100
AcDbLine
 62
7
  6
CONTINUOUS
 10
88.1417744105
 20
49.3551234407
 11
87.7220975182
 21
50.2551234407
  0
LINE
  5
293
100
AcDbEntity
  8
RUNDUNGEN
100
AcDbLine
 62
7
  6
CONTINUOUS
 10
94.909158994
 20
34.1719848082
 11
95.2769119192
 21
33.1615919503
  0
LINE
  5
294
100
AcDbEntity
  8
0
100
AcDbLine
 62
7
  6
CONTINUOUS
 10
94.909158994
 20
34.1719848082
 11
95.2769119192
 21
33.1615919503
  0
LINE
  5
295
100
AcDbEntity
  8
0
100
AcDbLine
 62
7
  6
CONTINUOUS
 10
77.1595975182
 20
60.1241790627
 11
77.1595975182
 21
61.5751234407
  0
LINE
  5
296
100
AcDbEntity
  8
0
100
AcDbLine
 62
7
  6
CONTINUOUS
 10
83.8095975182
 20
190.0251234407
 11
83.8095975182
 21
140.0251234407
  0
LINE
  5
297
100
AcDbEntity
  8
0
100
AcDbLine
 62
9
  6
CONTINUOUS
 10
105.4153447253
 20
95.9801234407
 11
65.6595975182
 21
95.9801234407
  0
LINE
  5
298
100
AcDbEntity
  8
BG_STARTBEZUEGE
100
AcDbLine
 62
7
  6
CENTER
 10
127.3226928357
 20
98.5001234407
 11
54.6595975179
 21
98.5001234407
  0
LINE
  5
299
100
AcDbEntity
  8
0
100
AcDbLine
 62
9
  6
CONTINUOUS
 10
105.8909476633
 20
101.2559292544
 11
65.6595975182
 21
101.2559292544
  0
LINE
  5
29A
100
AcDbEntity
  8
FASEN
100
AcDbLine
 62
7
  6
CONTINUOUS
 10
87.7220975182
 20
50.2551234407
 11
87.7220975182
 21
50.8551234407
  0
LINE
  5
29B
100
AcDbEntity
  8
0
100
AcDbLine
 62
7
  6
CONTINUOUS
 10
87.7220975182
 20
50.2551234407
 11
87.7220975182
 21
50.8551234407
  0
LINE
  5
29C
100
AcDbEntity
  8
0
100
AcDbLine
 62
7
  6
CONTINUOUS
 10
87.8095975182
 20
51.5751234407
 11
87.8095975182
 21
51.6751234407
  0
LINE
  5
29D
100
AcDbEntity
  8
RUNDUNGEN
100
AcDbLine
 62
7
  6
CONTINUOUS
 10
89.7595975182
 20
47.7551234407
 11
89.7595975182
 21
48.8551234407
  0
LINE
  5
29E
100
AcDbEntity
  8
0
100
AcDbLine
 62
7
  6
CONTINUOUS
 10
89.7595975182
 20
47.7551234407
 11
89.7595975182
 21
48.8551234407
  0
LINE
  5
29F
100
AcDbEntity
  8
0
100
AcDbLine
 62
9
  6
CONTINUOUS
 10
106.3663644553
 20
104.4655080561
 11
122.1595975182
 21
104.4655080561
  0
LINE
  5
2A0
100
AcDbEntity
  8
0
100
AcDbLine
 62
9
  6
CONTINUOUS
 10
106.439815668
 20
105.9503679198
 11
122.1595975182
 21
105.9503679198
  0
LINE
  5
2A1
100
AcDbEntity
  8
FASEN
100
AcDbLine
 62
7
  6
CONTINUOUS
 10
65.6595975183
 20
127.7001234406
 11
64.6595975183
 21
128.7001234406
  0
LINE
  5
2A2
100
AcDbEntity
  8
0
100
AcDbLine
 62
7
  6
CONTINUOUS
 10
91.9345975182
 20
44.2551234407
 11
91.9345975182
 21
43.4251234407
  0
LINE
  5
2A3
100
AcDbEntity
  8
RUNDUNGEN
100
AcDbLine
 62
7
  6
CONTINUOUS
 10
92.0468377448
 20
42.5665781595
 11
92.0468378881
 21
34.5751234407
  0
LINE
  5
2A4
100
AcDbEntity
  8
RUNDUNGEN
100
AcDbLine
 62
7
  6
CONTINUOUS
 10
92.409831153
 20
34.5751234407
 11
92.4098310817
 21
42.5665781595
  0
LINE
  5
2A5
100
AcDbEntity
  8
0
100
AcDbLine
 62
7
  6
CONTINUOUS
 10
92.4470975182
 20
28.5151234407
 11
92.4470975182
 21
27.5151234407
  0
LINE
  5
2A6
100
AcDbEntity
  8
0
100
AcDbLine
 62
7
  6
CONTINUOUS
 10
92.7670975182
 20
32.8551234407
 11
92.7670975182
 21
29.0693796992
  0
LINE
  5
2A7
100
AcDbEntity
  8
RUNDUNGEN
100
AcDbLine
 62
7
  6
CONTINUOUS
 10
93.5466041813
 20
42.5665781595
 11
93.5466042143
 21
34.5751234407
  0
LINE
  5
2A8
100
AcDbEntity
  8
BG_STARTBEZUEGE
100
AcDbLine
 62
7
  6
CENTER
 10
93.9095975182
 20
193.0251234407
 11
93.9095975182
 21
21.0751234407
  0
LINE
  5
2A9
100
AcDbEntity
  8
RUNDUNGEN
100
AcDbLine
 62
7
  6
CONTINUOUS
 10
94.27259082
 20
34.5751234407
 11
94.2725908551
 21
42.5665781595
  0
LINE
  5
2AA
100
AcDbEntity
  8
0
100
AcDbLine
 62
7
  6
CONTINUOUS
 10
95.0520975182
 20
32.8551234407
 11
95.0520975182
 21
29.0693796992
  0
LINE
  5
2AB
100
AcDbEntity
  8
0
100
AcDbLine
 62
7
  6
CONTINUOUS
 10
95.3720975182
 20
28.5151234407
 11
95.3720975182
 21
27.5151234407
  0
LINE
  5
2AC
100
AcDbEntity
  8
RUNDUNGEN
100
AcDbLine
 62
7
  6
CONTINUOUS
 10
95.4093639547
 20
42.5665781595
 11
95.4093640889
 21
34.5751234407
  0
LINE
  5
2AD
100
AcDbEntity
  8
KURVEN
100
AcDbLine
 62
4
  6
CONTINUOUS
 10
95.6145975182
 20
34.1751234407
 11
95.6145975182
 21
34.2698370676
  0
LINE
  5
2AE
100
AcDbEntity
  8
RUNDUNGEN
100
AcDbLine
 62
7
  6
CONTINUOUS
 10
95.7723572679
 20
34.5751234407
 11
95.7723572916
 21
42.5665781595
  0
LINE
  5
2AF
100
AcDbEntity
  8
0
100
AcDbLine
 62
7
  6
CONTINUOUS
 10
95.8845975182
 20
44.2551234407
 11
95.8845975182
 21
43.4251234407
  0
LINE
  5
2B0
100
AcDbEntity
  8
RUNDUNGEN
100
AcDbLine
 62
7
  6
CONTINUOUS
 10
98.0595975182
 20
47.7551234407
 11
98.0595975182
 21
48.8551234407
  0
LINE
  5
2B1
100
AcDbEntity
  8
0
100
AcDbLine
 62
7
  6
CONTINUOUS
 10
98.0595975182
 20
47.7551234407
 11
98.0595975182
 21
48.8551234407
  0
LINE
  5
2B2
100
AcDbEntity
  8
RUNDUNGEN
100
AcDbLine
 62
7
  6
CONTINUOUS
 10
100.0095975182
 20
51.6751234407
 11
100.0095975182
 21
51.5751234407
  0
LINE
  5
2B3
100
AcDbEntity
  8
0
100
AcDbLine
 62
7
  6
CONTINUOUS
 10
100.0095975182
 20
51.5751234407
 11
100.0095975182
 21
51.6751234407
  0
LINE
  5
2B4
100
AcDbEntity
  8
FASEN
100
AcDbLine
 62
7
  6
CONTINUOUS
 10
100.0970975182
 20
50.2551234407
 11
100.0970975182
 21
50.8551234407
  0
LINE
  5
2B5
100
AcDbEntity
  8
0
100
AcDbLine
 62
7
  6
CONTINUOUS
 10
100.0970975182
 20
50.2551234407
 11
100.0970975182
 21
50.8551234407
  0
LINE
  5
2B6
100
AcDbEntity
  8
FASEN
100
AcDbLine
 62
7
  6
CONTINUOUS
 10
65.6595975184
 20
69.3001234409
 11
64.6595975184
 21
68.3001234409
  0
LINE
  5
2B7
100
AcDbEntity
  8
0
100
AcDbLine
 62
7
  6
CONTINUOUS
 10
105.87772305
 20
132.3869022091
 11
106.439815668
 21
105.9503679198
  0
LINE
  5
2B8
100
AcDbEntity
  8
0
100
AcDbLine
 62
7
  6
CONTINUOUS
 10
104.0095975182
 20
190.0251234407
 11
104.0095975182
 21
140.0251234407
  0
LINE
  5
2B9
100
AcDbEntity
  8
RUNDUNGEN
100
AcDbLine
 62
7
  6
CONTINUOUS
 10
110.6595975182
 20
61.5751234407
 11
110.6595975182
 21
60.1241790627
  0
LINE
  5
2BA
100
AcDbEntity
  8
0
100
AcDbLine
 62
7
  6
CONTINUOUS
 10
110.6595975182
 20
60.1241790627
 11
110.6595975182
 21
61.5751234407
  0
LINE
  5
2BB
100
AcDbEntity
  8
0
100
AcDbLine
 62
7
  6
CONTINUOUS
 10
58.6595975182
 20
128.7001234407
 11
64.6595975182
 21
128.7001234407
  0
LINE
  5
2BC
100
AcDbEntity
  8
RUNDUNGEN
100
AcDbLine
 62
7
  6
CONTINUOUS
 10
92.9100360423
 20
34.1719848082
 11
92.5422831171
 21
33.1615919503
  0
LINE
  5
2BD
100
AcDbEntity
  8
0
100
AcDbLine
 62
7
  6
CONTINUOUS
 10
92.9100360423
 20
34.1719848082
 11
92.5422831171
 21
33.1615919503
  0
LINE
  5
2BE
100
AcDbEntity
  8
0
100
AcDbLine
 62
7
  6
CONTINUOUS
 10
65.6595975182
 20
132.3869022091
 11
105.87772305
 21
132.3869022091
  0
LINE
  5
2BF
100
AcDbEntity
  8
0
100
AcDbLine
 62
7
  6
CONTINUOUS
 10
65.6595975182
 20
132.9251234407
 11
122.1595975182
 21
132.9251234407
  0
LINE
  5
2C0
100
AcDbEntity
  8
0
100
AcDbLine
 62
7
  6
CONTINUOUS
 10
122.1595975182
 20
132.9251234407
 11
122.1595975182
 21
98.5001234407
  0
LINE
  5
2C1
100
AcDbEntity
  8
0
100
AcDbLine
 62
7
  6
CONTINUOUS
 10
99.6774206259
 20
49.3551234407
 11
100.0970975182
 21
50.2551234407
  0
LINE
  5
2C2
100
AcDbEntity
  8
0
100
AcDbLine
 62
7
  6
CONTINUOUS
 10
71.0587844294
 20
140.0251234407
 11
116.7604106069
 21
140.0251234407
  0
LINE
  5
2C3
100
AcDbEntity
  8
0
100
AcDbLine
 62
7
  6
CONTINUOUS
 10
92.7670975182
 20
29.0693796992
 11
92.4470975182
 21
28.5151234407
  0
LINE
  5
2C4
100
AcDbEntity
  8
RUNDUNGEN
100
AcDbLine
 62
7
  6
CONTINUOUS
 10
100.9095975182
 20
53.9551234407
 11
99.9095975182
 21
52.4751234407
  0
LINE
  5
2C5
100
AcDbEntity
  8
0
100
AcDbLine
 62
7
  6
CONTINUOUS
 10
99.9095975182
 20
52.4751234407
 11
100.9095975182
 21
53.9551234407
  0
LINE
  5
2C6
100
AcDbEntity
  8
FASEN
100
AcDbLine
 62
7
  6
CONTINUOUS
 10
87.9420975182
 20
51.0751234407
 11
87.7220975182
 21
50.8551234407
  0
LINE
  5
2C7
100
AcDbEntity
  8
0
100
AcDbLine
 62
7
  6
CONTINUOUS
 10
87.9420975182
 20
51.0751234407
 11
87.7220975182
 21
50.8551234407
  0
LINE
  5
2C8
100
AcDbEntity
  8
0
100
AcDbLine
 62
7
  6
CONTINUOUS
 10
116.7604106069
 20
140.0251234407
 11
120.8595975182
 21
132.9251234407
  0
LINE
  5
2C9
100
AcDbEntity
  8
RUNDUNGEN
100
AcDbLine
 62
7
  6
CONTINUOUS
 10
107.9419822155
 20
56.3353151844
 11
100.9095975182
 21
53.9551234407
  0
LINE
  5
2CA
100
AcDbEntity
  8
0
100
AcDbLine
 62
7
  6
CONTINUOUS
 10
100.9095975182
 20
53.9551234407
 11
107.9419822155
 21
56.3353151844
  0
LINE
  5
2CB
100
AcDbEntity
  8
RUNDUNGEN
100
AcDbLine
 62
7
  6
CONTINUOUS
 10
95.2536533353
 20
33.0566792578
 11
95.0520975182
 21
32.8551234407
  0
LINE
  5
2CC
100
AcDbEntity
  8
0
100
AcDbLine
 62
7
  6
CONTINUOUS
 10
95.2536533353
 20
33.0566792578
 11
95.0520975182
 21
32.8551234407
  0
LINE
  5
2CD
100
AcDbEntity
  8
0
100
AcDbLine
 62
7
  6
CONTINUOUS
 10
83.8095975182
 20
190.0251234407
 11
104.0095975182
 21
190.0251234407
  0
ARC
  5
2CE
100
AcDbEntity
  8
RUNDUNGEN
100
AcDbCircle
 62
7
  6
CONTINUOUS
 10
191.7455496362
 20
60.1241790627
 40
4.0
100
AcDbArc
 50
180.0
 51
251.3010171958
  0
ARC
  5
2CF
100
AcDbEntity
  8
0
100
AcDbCircle
 62
7
  6
CONTINUOUS
 10
203.0580496362
 20
46.9051234407
 40
3.0
100
AcDbArc
 50
172.1090770193
 51
189.993011783
  0
ARC
  5
2D0
100
AcDbEntity
  8
0
100
AcDbCircle
 62
7
  6
CONTINUOUS
 10
202.9035496362
 20
46.3931449561
 40
2.8
100
AcDbArc
 50
180.1760968327
 51
229.7807486958
  0
ARC
  5
2D1
100
AcDbEntity
  8
RUNDUNGEN
100
AcDbCircle
 62
7
  6
CONTINUOUS
 10
190.2455496362
 20
61.5751234407
 40
2.5
100
AcDbArc
 50
90.0
 51
180.0
  0
ARC
  5
2D2
100
AcDbEntity
  8
RUNDUNGEN
100
AcDbCircle
 62
7
  6
CONTINUOUS
 10
198.8955496362
 20
51.5751234407
 40
0.5
100
AcDbArc
 50
180.0
 51
270.0
  0
ARC
  5
2D3
100
AcDbEntity
  8
0
100
AcDbCircle
 62
7
  6
CONTINUOUS
 10
199.8455496362
 20
47.7551234407
 40
0.5
100
AcDbArc
 50
298.8038559874
 51
360.0
  0
ARC
  5
2D4
100
AcDbEntity
  8
RUNDUNGEN
100
AcDbCircle
 62
7
  6
CONTINUOUS
 10
199.8455496362
 20
48.8551234407
 40
0.5
100
AcDbArc
 50
0.0
 51
90.0
  0
ARC
  5
2D5
100
AcDbEntity
  8
RUNDUNGEN
100
AcDbCircle
 62
7
  6
CONTINUOUS
 10
202.9205496362
 20
34.5751234407
 40
0.4
100
AcDbArc
 50
180.0
 51
270.0
  0
ARC
  5
2D6
100
AcDbEntity
  8
RUNDUNGEN
100
AcDbCircle
 62
7
  6
CONTINUOUS
 10
198.7955496362
 20
51.6751234407
 40
0.4
100
AcDbArc
 50
90.0
 51
180.0
  0
ARC
  5
2D7
100
AcDbEntity
  8
RUNDUNGEN
100
AcDbCircle
 62
7
  6
CONTINUOUS
 10
198.8955496362
 20
52.4751234407
 40
0.4
100
AcDbArc
 50
180.0
 51
270.0
  0
ARC
  5
2D8
100
AcDbEntity
  8
RUNDUNGEN
100
AcDbCircle
 62
7
  6
CONTINUOUS
 10
203.2222044972
 20
33.127389936
 40
0.1
100
AcDbArc
 50
160.0
 51
225.0
  0
ARC
  5
2D9
100
AcDbEntity
  8
0
100
AcDbCircle
 62
7
  6
CONTINUOUS
 10
157.8555496362
 20
106.0601234407
 40
80.0
100
AcDbArc
 50
330.4080824545
 51
352.7614918241
  0
ARC
  5
2DA
100
AcDbEntity
  8
0
100
AcDbCircle
 62
7
  6
CONTINUOUS
 10
191.6137351477
 20
98.5001234407
 40
20.0
100
AcDbArc
 50
172.08
 51
187.2385081759
  0
ARC
  5
2DB
100
AcDbEntity
  8
RUNDUNGEN
100
AcDbCircle
 62
7
  6
CONTINUOUS
 10
217.2455496362
 20
60.1241790627
 40
4.0
100
AcDbArc
 50
288.6989828042
 51
360.0
  0
ARC
  5
2DC
100
AcDbEntity
  8
0
100
AcDbCircle
 62
7
  6
CONTINUOUS
 10
205.9330496362
 20
46.9051234407
 40
3.0
100
AcDbArc
 50
350.006988217
 51
7.8909229807
  0
ARC
  5
2DD
100
AcDbEntity
  8
0
100
AcDbCircle
 62
7
  6
CONTINUOUS
 10
206.0875496362
 20
46.3931449561
 40
2.8
100
AcDbArc
 50
310.2192513042
 51
359.8239031673
  0
ARC
  5
2DE
100
AcDbEntity
  8
RUNDUNGEN
100
AcDbCircle
 62
7
  6
CONTINUOUS
 10
218.7455496362
 20
61.5751234407
 40
2.5
100
AcDbArc
 50
0.0
 51
90.0
  0
ARC
  5
2DF
100
AcDbEntity
  8
0
100
AcDbCircle
 62
7
  6
CONTINUOUS
 10
204.4955496362
 20
26.0751234407
 40
2.0
100
AcDbArc
 50
133.783035751
 51
46.216964249
  0
ARC
  5
2E0
100
AcDbEntity
  8
RUNDUNGEN
100
AcDbCircle
 62
7
  6
CONTINUOUS
 10
210.0955496362
 20
51.5751234407
 40
0.5
100
AcDbArc
 50
270.0
 51
360.0
  0
ARC
  5
2E1
100
AcDbEntity
  8
0
100
AcDbCircle
 62
7
  6
CONTINUOUS
 10
209.1455496362
 20
47.7551234407
 40
0.5
100
AcDbArc
 50
180.0
 51
241.1961440126
  0
ARC
  5
2E2
100
AcDbEntity
  8
RUNDUNGEN
100
AcDbCircle
 62
7
  6
CONTINUOUS
 10
209.1455496362
 20
48.8551234407
 40
0.5
100
AcDbArc
 50
90.0
 51
180.0
  0
ARC
  5
2E3
100
AcDbEntity
  8
RUNDUNGEN
100
AcDbCircle
 62
7
  6
CONTINUOUS
 10
206.0705496362
 20
34.5751234407
 40
0.4
100
AcDbArc
 50
270.0
 51
360.0
  0
ARC
  5
2E4
100
AcDbEntity
  8
RUNDUNGEN
100
AcDbCircle
 62
7
  6
CONTINUOUS
 10
210.1955496362
 20
51.6751234407
 40
0.4
100
AcDbArc
 50
0.0
 51
90.0
  0
ARC
  5
2E5
100
AcDbEntity
  8
RUNDUNGEN
100
AcDbCircle
 62
7
  6
CONTINUOUS
 10
210.0955496362
 20
52.4751234407
 40
0.4
100
AcDbArc
 50
270.0
 51
360.0
  0
ARC
  5
2E6
100
AcDbEntity
  8
RUNDUNGEN
100
AcDbCircle
 62
7
  6
CONTINUOUS
 10
205.7688947751
 20
33.127389936
 40
0.1
100
AcDbArc
 50
315.0
 51
20.0
  0
ARC
  5
2E7
100
AcDbEntity
  8
0
100
AcDbCircle
 62
7
  6
CONTINUOUS
 10
251.1355496362
 20
106.0601234407
 40
80.0
100
AcDbArc
 50
187.2385081759
 51
209.5919175455
  0
ARC
  5
2E8
100
AcDbEntity
  8
0
100
AcDbCircle
 62
7
  6
CONTINUOUS
 10
205.1904292983
 20
100.1242183465
 40
42.5
100
AcDbArc
 50
129.4854576977
 51
133.4989922521
  0
ARC
  5
2E9
100
AcDbEntity
  8
0
100
AcDbCircle
 62
7
  6
CONTINUOUS
 10
205.1904292983
 20
100.1242183465
 40
42.5
100
AcDbArc
 50
49.3868540144
 51
50.5145423023
  0
ARC
  5
2EA
100
AcDbEntity
  8
0
100
AcDbCircle
 62
7
  6
CONTINUOUS
 10
204.4955496362
 20
98.5001234407
 40
39.3202317516
100
AcDbArc
 50
298.8953807655
 51
305.664465988
  0
ARC
  5
2EB
100
AcDbEntity
  8
0
100
AcDbCircle
 62
7
  6
CONTINUOUS
 10
204.4955496362
 20
98.5001234407
 40
39.3202317516
100
AcDbArc
 50
234.335534012
 51
241.1046192345
  0
CIRCLE
  5
2EC
100
AcDbEntity
  8
FASEN
100
AcDbCircle
 62
7
  6
CONTINUOUS
 10
204.4955496362
 20
98.5001234407
 40
30.2
  0
CIRCLE
  5
2ED
100
AcDbEntity
  8
FASEN
100
AcDbCircle
 62
7
  6
CONTINUOUS
 10
204.4955496362
 20
98.5001234407
 40
29.2
  0
ARC
  5
2EE
100
AcDbEntity
  8
0
100
AcDbCircle
 62
7
  6
CONTINUOUS
 10
217.3773641246
 20
98.5001234407
 40
20.0
100
AcDbArc
 50
352.7614918241
 51
7.92
  0
ARC
  5
2EF
100
AcDbEntity
  8
0
100
AcDbCircle
 62
7
  6
CONTINUOUS
 10
22.1595975182
 20
99.8801234407
 40
100.0
100
AcDbArc
 50
339.0195119523
 51
359.2093684295
  0
ARC
  5
2F0
100
AcDbEntity
  8
RUNDUNGEN
100
AcDbCircle
 62
7
  6
CONTINUOUS
 10
92.6362523792
 20
33.127389936
 40
0.1
100
AcDbArc
 50
160.0
 51
225.0
  0
ARC
  5
2F1
100
AcDbEntity
  8
RUNDUNGEN
100
AcDbCircle
 62
7
  6
CONTINUOUS
 10
81.1595975182
 20
60.1241790627
 40
4.0
100
AcDbArc
 50
180.0
 51
251.301017196
  0
ARC
  5
2F2
100
AcDbEntity
  8
0
100
AcDbCircle
 62
7
  6
CONTINUOUS
 10
92.4720975182
 20
46.9051234407
 40
3.0
100
AcDbArc
 50
172.1090770193
 51
189.993011783
  0
ARC
  5
2F3
100
AcDbEntity
  8
0
100
AcDbCircle
 62
7
  6
CONTINUOUS
 10
92.3175975182
 20
46.3931449561
 40
2.8
100
AcDbArc
 50
180.1760968327
 51
229.7807486958
  0
ARC
  5
2F4
100
AcDbEntity
  8
RUNDUNGEN
100
AcDbCircle
 62
7
  6
CONTINUOUS
 10
79.6595975182
 20
61.5751234407
 40
2.5
100
AcDbArc
 50
90.0
 51
180.0
  0
ARC
  5
2F5
100
AcDbEntity
  8
RUNDUNGEN
100
AcDbCircle
 62
7
  6
CONTINUOUS
 10
88.3095975182
 20
51.5751234407
 40
0.5
100
AcDbArc
 50
180.0
 51
270.0
  0
ARC
  5
2F6
100
AcDbEntity
  8
RUNDUNGEN
100
AcDbCircle
 62
7
  6
CONTINUOUS
 10
89.2595975182
 20
48.8551234407
 40
0.5
100
AcDbArc
 50
0.0
 51
90.0
  0
ARC
  5
2F7
100
AcDbEntity
  8
0
100
AcDbCircle
 62
7
  6
CONTINUOUS
 10
89.2595975182
 20
47.7551234407
 40
0.5
100
AcDbArc
 50
298.8038559874
 51
360.0
  0
ARC
  5
2F8
100
AcDbEntity
  8
RUNDUNGEN
100
AcDbCircle
 62
7
  6
CONTINUOUS
 10
88.2095975182
 20
51.6751234407
 40
0.4
100
AcDbArc
 50
90.0
 51
180.0
  0
ARC
  5
2F9
100
AcDbEntity
  8
RUNDUNGEN
100
AcDbCircle
 62
7
  6
CONTINUOUS
 10
88.3095975182
 20
52.4751234407
 40
0.4
100
AcDbArc
 50
180.0
 51
270.0
  0
ARC
  5
2FA
100
AcDbEntity
  8
0
100
AcDbCircle
 62
7
  6
CONTINUOUS
 10
93.9095975182
 20
26.0751234407
 40
2.0
100
AcDbArc
 50
134.3636368392
 51
45.6363631608
  0
ARC
  5
2FB
100
AcDbEntity
  8
HILFEN
100
AcDbCircle
 62
7
  6
CENTER
 10
93.9095975182
 20
26.0751234407
 40
2.0
100
AcDbArc
 50
133.9344990642
 51
46.0655009358
  0
ARC
  5
2FC
100
AcDbEntity
  8
RUNDUNGEN
100
AcDbCircle
 62
7
  6
CONTINUOUS
 10
95.1829426572
 20
33.127389936
 40
0.1
100
AcDbArc
 50
315.0
 51
20.0
  0
ARC
  5
2FD
100
AcDbEntity
  8
0
100
AcDbCircle
 62
7
  6
CONTINUOUS
 10
95.3470975182
 20
46.9051234407
 40
3.0
100
AcDbArc
 50
350.006988217
 51
7.8909229807
  0
ARC
  5
2FE
100
AcDbEntity
  8
0
100
AcDbCircle
 62
7
  6
CONTINUOUS
 10
95.5015975182
 20
46.3931449561
 40
2.8
100
AcDbArc
 50
310.2192513042
 51
359.8239031673
  0
ARC
  5
2FF
100
AcDbEntity
  8
RUNDUNGEN
100
AcDbCircle
 62
7
  6
CONTINUOUS
 10
98.5595975182
 20
48.8551234407
 40
0.5
100
AcDbArc
 50
90.0
 51
180.0
  0
ARC
  5
300
100
AcDbEntity
  8
0
100
AcDbCircle
 62
7
  6
CONTINUOUS
 10
98.5595975182
 20
47.7551234407
 40
0.5
100
AcDbArc
 50
180.0
 51
241.1961440126
  0
ARC
  5
301
100
AcDbEntity
  8
RUNDUNGEN
100
AcDbCircle
 62
7
  6
CONTINUOUS
 10
99.5095975182
 20
51.5751234407
 40
0.5
100
AcDbArc
 50
270.0
 51
360.0
  0
ARC
  5
302
100
AcDbEntity
  8
RUNDUNGEN
100
AcDbCircle
 62
7
  6
CONTINUOUS
 10
99.6095975182
 20
51.6751234407
 40
0.4
100
AcDbArc
 50
0.0
 51
90.0
  0
ARC
  5
303
100
AcDbEntity
  8
RUNDUNGEN
100
AcDbCircle
 62
7
  6
CONTINUOUS
 10
99.5095975182
 20
52.4751234407
 40
0.4
100
AcDbArc
 50
270.0
 51
360.0
  0
ARC
  5
304
100
AcDbEntity
  8
RUNDUNGEN
100
AcDbCircle
 62
7
  6
CONTINUOUS
 10
106.6595975182
 20
60.1241790627
 40
4.0
100
AcDbArc
 50
288.698982804
 51
360.0
  0
ARC
  5
305
100
AcDbEntity
  8
RUNDUNGEN
100
AcDbCircle
 62
7
  6
CONTINUOUS
 10
108.1595975182
 20
61.5751234407
 40
2.5
100
AcDbArc
 50
0.0
 51
90.0
  0
ARC
  5
306
100
AcDbEntity
  8
0
100
AcDbCircle
 62
7
  6
CONTINUOUS
 10
136.6678598998
 20
95.8221143138
 40
31.25291461
100
AcDbArc
 50
169.9873349492
 51
179.7103215883
  0
SPLINE
  5
307
100
AcDbEntity
  8
RUNDUNGEN
100
AcDbSpline
 62
7
  6
CONTINUOUS
 70
0
 71
3
 72
11
 73
7
 74
0
 42
0.0000001
 43
0.0000001
 44
0.0000000001
 40
0.0
 40
0.0
 40
0.0
 40
0.0
 40
0.2309082997
 40
0.4748960073
 40
0.7329915121
 40
1.0
 40
1.0
 40
1.0
 40
1.0
 10
203.5887294537
 20
34.1751234407
 30
0.0
 10
203.5420782979
 20
34.1751250147
 30
0.0
 10
203.4453178979
 20
34.1957267744
 30
0.0
 10
203.3199665142
 20
34.2812016368
 30
0.0
 10
203.2323893999
 20
34.414079529
 30
0.0
 10
203.2105104788
 20
34.5211788463
 30
0.0
 10
203.2105104788
 20
34.5751234407
 30
0.0
  0
SPLINE
  5
308
100
AcDbEntity
  8
0
100
AcDbSpline
 62
7
  6
CONTINUOUS
 70
0
 71
3
 72
11
 73
7
 74
0
 42
0.0000001
 43
0.0000001
 44
0.0000000001
 40
0.0
 40
0.0
 40
0.0
 40
0.0
 40
0.2513519736
 40
0.5011580325
 40
0.7500246285
 40
1.0
 40
1.0
 40
1.0
 40
1.0
 10
203.8392333811
 20
42.5665781595
 30
0.0
 10
203.8392333811
 20
42.6660474001
 30
0.0
 10
203.8651230696
 20
42.8654856904
 30
0.0
 10
203.9860792652
 20
43.1414759819
 30
0.0
 10
204.1964883074
 20
43.3614809258
 30
0.0
 10
204.3966251678
 20
43.4251234401
 30
0.0
 10
204.4955496362
 20
43.4251234407
 30
0.0
  0
SPLINE
  5
309
100
AcDbEntity
  8
RUNDUNGEN
100
AcDbSpline
 62
7
  6
CONTINUOUS
 70
0
 71
3
 72
8
 73
4
 74
0
 42
0.0000001
 43
0.0000001
 44
0.0000000001
 40
0.0
 40
0.0
 40
0.0
 40
0.0
 40
1.0
 40
1.0
 40
1.0
 40
1.0
 10
206.4369050486
 20
34.5751234407
 30
0.0
 10
206.4369050486
 20
34.5386709361
 30
0.0
 10
206.432075763
 20
34.5019591415
 30
0.0
 10
206.4230075445
 20
34.466652591
 30
0.0
  0
SPLINE
  5
30A
100
AcDbEntity
  8
RUNDUNGEN
100
AcDbSpline
 62
7
  6
CONTINUOUS
 70
0
 71
3
 72
11
 73
7
 74
0
 42
0.0000001
 43
0.0000001
 44
0.0000000001
 40
0.0
 40
0.0
 40
0.0
 40
0.0
 40
0.2658798266
 40
0.5178590882
 40
0.7608499042
 40
1.0
 40
1.0
 40
1.0
 40
1.0
 10
206.4230075445
 20
34.466652591
 30
0.0
 10
206.4120630668
 20
34.4240409411
 30
0.0
 10
206.3783084606
 20
34.3434234564
 30
0.0
 10
206.2926825175
 20
34.247910713
 30
0.0
 10
206.1841620837
 20
34.1885002406
 30
0.0
 10
206.1037564273
 20
34.175122965
 30
0.0
 10
206.0641846453
 20
34.1751234407
 30
0.0
  0
SPLINE
  5
30B
100
AcDbEntity
  8
RUNDUNGEN
100
AcDbSpline
 62
7
  6
CONTINUOUS
 70
0
 71
3
 72
11
 73
7
 74
0
 42
0.0000001
 43
0.0000001
 44
0.0000000001
 40
0.0
 40
0.0
 40
0.0
 40
0.0
 40
0.2670045993
 40
0.525085673
 40
0.769074497
 40
1.0
 40
1.0
 40
1.0
 40
1.0
 10
205.7805887936
 20
34.5751234407
 30
0.0
 10
205.7805887936
 20
34.5211786126
 30
0.0
 10
205.7587091014
 20
34.4140833705
 30
0.0
 10
205.6711526346
 20
34.2811923931
 30
0.0
 10
205.5457926417
 20
34.1957177469
 30
0.0
 10
205.4490253317
 20
34.1751221781
 30
0.0
 10
205.4023698187
 20
34.1751234407
 30
0.0
  0
SPLINE
  5
30C
100
AcDbEntity
  8
RUNDUNGEN
100
AcDbSpline
 62
7
  6
CONTINUOUS
 70
0
 71
3
 72
17
 73
13
 74
0
 42
0.0000001
 43
0.0000001
 44
0.0000000001
 40
0.0
 40
0.0
 40
0.0
 40
0.0
 40
0.2018372765
 40
0.3960437498
 40
0.5718841205
 40
0.7214395266
 40
0.8412348446
 40
0.9283087435
 40
0.9590357024
 40
0.981131787
 40
0.9946064369
 40
1.0
 40
1.0
 40
1.0
 40
1.0
 10
205.1518658912
 20
34.5751234407
 30
0.0
 10
205.1518658912
 20
34.5481734544
 30
0.0
 10
205.152274519
 20
34.4952928442
 30
0.0
 10
205.1537316318
 20
34.4189422428
 30
0.0
 10
205.1557004032
 20
34.3496012536
 30
0.0
 10
205.15780135
 20
34.290162698
 30
0.0
 10
205.1595048076
 20
34.2426880603
 30
0.0
 10
205.1602124636
 20
34.2107869114
 30
0.0
 10
205.160075205
 20
34.1923509222
 30
0.0
 10
205.1595707117
 20
34.1830974262
 30
0.0
 10
205.1590583872
 20
34.1784060589
 30
0.0
 10
205.158084629
 20
34.1751241605
 30
0.0
 10
205.1573644628
 20
34.1751234407
 30
0.0
  0
SPLINE
  5
30D
100
AcDbEntity
  8
RUNDUNGEN
100
AcDbSpline
 62
7
  6
CONTINUOUS
 70
0
 71
3
 72
17
 73
13
 74
0
 42
0.0000001
 43
0.0000001
 44
0.0000000001
 40
0.0
 40
0.0
 40
0.0
 40
0.0
 40
0.2018388545
 40
0.3960475397
 40
0.5718918414
 40
0.7214521121
 40
0.8412509344
 40
0.9283238281
 40
0.9590473136
 40
0.9811378332
 40
0.9946057007
 40
1.0
 40
1.0
 40
1.0
 40
1.0
 10
203.8392333811
 20
34.5751234407
 30
0.0
 10
203.8392333811
 20
34.548173319
 30
0.0
 10
203.8388236956
 20
34.4952923509
 30
0.0
 10
203.837367468
 20
34.4189409546
 30
0.0
 10
203.8354097927
 20
34.3495983675
 30
0.0
 10
203.8333306066
 20
34.2901577213
 30
0.0
 10
203.8316422295
 20
34.2426813067
 30
0.0
 10
203.8309262126
 20
34.2107815913
 30
0.0
 10
203.8310407668
 20
34.1923459386
 30
0.0
 10
203.8315364079
 20
34.1830956869
 30
0.0
 10
203.8320343387
 20
34.1784017788
 30
0.0
 10
203.8330145467
 20
34.1751233668
 30
0.0
 10
203.8337348095
 20
34.1751234407
 30
0.0
  0
SPLINE
  5
30E
100
AcDbEntity
  8
0
100
AcDbSpline
 62
7
  6
CONTINUOUS
 70
0
 71
3
 72
11
 73
7
 74
0
 42
0.0000001
 43
0.0000001
 44
0.0000000001
 40
0.0
 40
0.0
 40
0.0
 40
0.0
 40
0.2499969191
 40
0.4988492686
 40
0.7486493675
 40
1.0
 40
1.0
 40
1.0
 40
1.0
 10
204.4955496362
 20
43.4251234407
 30
0.0
 10
204.5944825456
 20
43.4251234414
 30
0.0
 10
204.794623052
 20
43.3614743035
 30
0.0
 10
205.0050225426
 20
43.141462899
 30
0.0
 10
205.1259782688
 20
42.8654825433
 30
0.0
 10
205.1518658912
 20
42.6660467827
 30
0.0
 10
205.1518658912
 20
42.5665781595
 30
0.0
  0
SPLINE
  5
30F
100
AcDbEntity
  8
RUNDUNGEN
100
AcDbSpline
 62
7
  6
CONTINUOUS
 70
0
 71
3
 72
8
 73
4
 74
0
 42
0.0000001
 43
0.0000001
 44
0.0000000001
 40
0.0
 40
0.0
 40
0.0
 40
0.0
 40
1.0
 40
1.0
 40
1.0
 40
1.0
 10
202.5541942237
 20
34.5751234407
 30
0.0
 10
202.5541942237
 20
34.5386710681
 30
0.0
 10
202.5590230251
 20
34.5019593672
 30
0.0
 10
202.5680910514
 20
34.4666529036
 30
0.0
  0
SPLINE
  5
310
100
AcDbEntity
  8
RUNDUNGEN
100
AcDbSpline
 62
7
  6
CONTINUOUS
 70
0
 71
3
 72
11
 73
7
 74
0
 42
0.0000001
 43
0.0000001
 44
0.0000000001
 40
0.0
 40
0.0
 40
0.0
 40
0.0
 40
0.265883966
 40
0.5178755966
 40
0.7608602762
 40
1.0
 40
1.0
 40
1.0
 40
1.0
 10
202.5680910514
 20
34.4666529036
 30
0.0
 10
202.5790354971
 20
34.4240405796
 30
0.0
 10
202.6127927934
 20
34.3434207106
 30
0.0
 10
202.6984234171
 20
34.247910757
 30
0.0
 10
202.8069409783
 20
34.188497182
 30
0.0
 10
202.8873445973
 20
34.1751224609
 30
0.0
 10
202.926914627
 20
34.1751234407
 30
0.0
  0
SPLINE
  5
311
100
AcDbEntity
  8
0
100
AcDbSpline
 62
7
  6
CONTINUOUS
 70
0
 71
3
 72
22
 73
18
 74
0
 42
0.0000001
 43
0.0000001
 44
0.0000000001
 40
0.0
 40
0.0
 40
0.0
 40
0.0
 40
0.1505385234
 40
0.2222639107
 40
0.2891257341
 40
0.3492575124
 40
0.4010757184
 40
0.4432536084
 40
0.4620594099
 40
0.4808464259
 40
0.5224829317
 40
0.5743232074
 40
0.6356299317
 40
0.7029638495
 40
0.7744828542
 40
0.8486582268
 40
1.0
 40
1.0
 40
1.0
 40
1.0
 10
202.5541942237
 20
42.5665781595
 30
0.0
 10
202.5541942237
 20
42.6651317918
 30
0.0
 10
202.5574027188
 20
42.8107237566
 30
0.0
 10
202.5722719742
 20
42.9994834264
 30
0.0
 10
202.5895168457
 20
43.1285084322
 30
0.0
 10
202.6161585123
 20
43.2428922405
 30
0.0
 10
202.6534743816
 20
43.3368814257
 30
0.0
 10
202.7006283859
 20
43.3973079591
 30
0.0
 10
202.7483240233
 20
43.4206951397
 30
0.0
 10
202.8005005328
 20
43.4280481973
 30
0.0
 10
202.8736719826
 20
43.4046665497
 30
0.0
 10
202.9521289231
 20
43.3387134413
 30
0.0
 10
203.0259834394
 20
43.2458140198
 30
0.0
 10
203.0906737793
 20
43.1313323772
 30
0.0
 10
203.143192901
 20
43.0017484481
 30
0.0
 10
203.1948204877
 20
42.8139634475
 30
0.0
 10
203.2105104788
 20
42.6656576584
 30
0.0
 10
203.2105104788
 20
42.5665781595
 30
0.0
  0
SPLINE
  5
312
100
AcDbEntity
  8
0
100
AcDbSpline
 62
7
  6
CONTINUOUS
 70
0
 71
3
 72
22
 73
18
 74
0
 42
0.0000001
 43
0.0000001
 44
0.0000000001
 40
0.0
 40
0.0
 40
0.0
 40
0.0
 40
0.1513419406
 40
0.2255174875
 40
0.2970367053
 40
0.3643705224
 40
0.4256773375
 40
0.4775180246
 40
0.5191540252
 40
0.5379409565
 40
0.5567468799
 40
0.5989246077
 40
0.6507425458
 40
0.7108742474
 40
0.7777360332
 40
0.8494614175
 40
1.0
 40
1.0
 40
1.0
 40
1.0
 10
205.7805887936
 20
42.5665781595
 30
0.0
 10
205.7805887936
 20
42.6656577731
 30
0.0
 10
205.796278968
 20
42.8139637708
 30
0.0
 10
205.8479065719
 20
43.0017491565
 30
0.0
 10
205.90042577
 20
43.1313332476
 30
0.0
 10
205.965116192
 20
43.2458150795
 30
0.0
 10
206.0389718692
 20
43.3387138948
 30
0.0
 10
206.1174280688
 20
43.4046675863
 30
0.0
 10
206.1905998535
 20
43.4280494162
 30
0.0
 10
206.2427757663
 20
43.4206943893
 30
0.0
 10
206.2904711212
 20
43.3973071862
 30
0.0
 10
206.3376255238
 20
43.3368811844
 30
0.0
 10
206.3749406724
 20
43.242891977
 30
0.0
 10
206.4015822551
 20
43.1285084624
 30
0.0
 10
206.4188272509
 20
42.9994835286
 30
0.0
 10
206.4336966466
 20
42.8107238511
 30
0.0
 10
206.4369050486
 20
42.6651318355
 30
0.0
 10
206.4369050486
 20
42.5665781595
 30
0.0
  0
SPLINE
  5
313
100
AcDbEntity
  8
0
100
AcDbSpline
 62
7
  6
CONTINUOUS
 70
0
 71
3
 72
18
 73
14
 74
0
 42
0.0000001
 43
0.0000001
 44
0.0000000001
 40
0.0
 40
0.0
 40
0.0
 40
0.0
 40
0.1718791448
 40
0.341124149
 40
0.5037752738
 40
0.6551979751
 40
0.79005698
 40
0.8487081987
 40
0.899694868
 40
0.9416396271
 40
0.9732006251
 40
0.9930846675
 40
1.0
 40
1.0
 40
1.0
 40
1.0
 10
95.7723572916
 20
42.5665781595
 30
0.0
 10
95.7723572916
 20
42.6163138987
 30
0.0
 10
95.7747311948
 20
42.7150355162
 30
0.0
 10
95.7846652874
 20
42.86051756
 30
0.0
 10
95.8004384672
 20
42.9995245472
 30
0.0
 10
95.8201861985
 20
43.1279506709
 30
0.0
 10
95.8389152473
 20
43.2260101576
 30
0.0
 10
95.8536977152
 20
43.2951955684
 30
0.0
 10
95.8634745148
 20
43.3379644467
 30
0.0
 10
95.8715092073
 20
43.3730552873
 30
0.0
 10
95.8784959274
 20
43.39923659
 30
0.0
 10
95.8814869892
 20
43.4157605756
 30
0.0
 10
95.8845975182
 20
43.4231223884
 30
0.0
 10
95.8845975182
 20
43.4251234407
 30
0.0
  0
SPLINE
  5
314
100
AcDbEntity
  8
0
100
AcDbSpline
 62
7
  6
CONTINUOUS
 70
0
 71
3
 72
16
 73
12
 74
0
 42
0.0000001
 43
0.0000001
 44
0.0000000001
 40
0.0
 40
0.0
 40
0.0
 40
0.0
 40
0.0069191061
 40
0.0268119129
 40
0.0583828359
 40
0.1003352779
 40
0.1513277517
 40
0.2099847638
 40
0.3448612617
 40
0.6589121419
 40
1.0
 40
1.0
 40
1.0
 40
1.0
 10
91.9345975182
 20
43.4251234407
 30
0.0
 10
91.9345975183
 20
43.4271252857
 30
0.0
 10
91.9377095589
 20
43.4102548114
 30
0.0
 10
91.9407014824
 20
43.4025457837
 30
0.0
 10
91.9476892288
 20
43.3716161808
 30
0.0
 10
91.9557233776
 20
43.3384794697
 30
0.0
 10
91.9654993557
 20
43.2950110045
 30
0.0
 10
91.9802817494
 20
43.2261222134
 30
0.0
 10
92.0078274329
 20
43.0816220589
 30
0.0
 10
92.0380667572
 20
42.8549615621
 30
0.0
 10
92.0468377448
 20
42.665262152
 30
0.0
 10
92.0468377448
 20
42.5665781595
 30
0.0
  0
SPLINE
  5
315
100
AcDbEntity
  8
RUNDUNGEN
100
AcDbSpline
 62
7
  6
CONTINUOUS
 70
0
 71
3
 72
11
 73
7
 74
0
 42
0.0000001
 43
0.0000001
 44
0.0000000001
 40
0.0
 40
0.0
 40
0.0
 40
0.0
 40
0.2499508191
 40
0.5001948729
 40
0.750474986
 40
1.0
 40
1.0
 40
1.0
 40
1.0
 10
92.0468377448
 20
34.5751234407
 30
0.0
 10
92.0468377448
 20
34.5209151083
 30
0.0
 10
92.0722327352
 20
34.4112226583
 30
0.0
 10
92.1731604974
 20
34.277942705
 30
0.0
 10
92.3170191496
 20
34.1942955453
 30
0.0
 10
92.4262768114
 20
34.1751253139
 30
0.0
 10
92.4803927969
 20
34.1751234407
 30
0.0
  0
SPLINE
  5
316
100
AcDbEntity
  8
RUNDUNGEN
100
AcDbSpline
 62
7
  6
CONTINUOUS
 70
0
 71
3
 72
11
 73
7
 74
0
 42
0.0000001
 43
0.0000001
 44
0.0000000001
 40
0.0
 40
0.0
 40
0.0
 40
0.0
 40
0.249950072
 40
0.5001951606
 40
0.7504748338
 40
1.0
 40
1.0
 40
1.0
 40
1.0
 10
95.7723572916
 20
34.5751234407
 30
0.0
 10
95.7723572916
 20
34.520914823
 30
0.0
 10
95.7469625917
 20
34.4112218309
 30
0.0
 10
95.6460390173
 20
34.2779372927
 30
0.0
 10
95.5021786295
 20
34.1942873958
 30
0.0
 10
95.3929187045
 20
34.1751232471
 30
0.0
 10
95.3388022394
 20
34.1751234407
 30
0.0
  0
SPLINE
  5
317
100
AcDbEntity
  8
RUNDUNGEN
100
AcDbSpline
 62
7
  6
CONTINUOUS
 70
0
 71
3
 72
13
 73
9
 74
0
 42
0.0000001
 43
0.0000001
 44
0.0000000001
 40
0.0
 40
0.0
 40
0.0
 40
0.0
 40
0.3239278653
 40
0.4738896363
 40
0.6091723126
 40
0.7288425971
 40
0.8326772728
 40
1.0
 40
1.0
 40
1.0
 40
1.0
 10
94.2725908551
 20
34.5751234407
 30
0.0
 10
94.2725908551
 20
34.5218417042
 30
0.0
 10
94.2629759582
 20
34.4434397724
 30
0.0
 10
94.2326312698
 20
34.3477083296
 30
0.0
 10
94.2034370079
 20
34.2875790555
 30
0.0
 10
94.1691389262
 20
34.2390337441
 30
0.0
 10
94.1229339995
 20
34.1944127097
 30
0.0
 10
94.0785737435
 20
34.175122159
 30
0.0
 10
94.0510514263
 20
34.1751234407
 30
0.0
  0
SPLINE
  5
318
100
AcDbEntity
  8
RUNDUNGEN
100
AcDbSpline
 62
7
  6
CONTINUOUS
 70
0
 71
3
 72
13
 73
9
 74
0
 42
0.0000001
 43
0.0000001
 44
0.0000000001
 40
0.0
 40
0.0
 40
0.0
 40
0.0
 40
0.3239335751
 40
0.4738996557
 40
0.6091902567
 40
0.7288678603
 40
0.8326986349
 40
1.0
 40
1.0
 40
1.0
 40
1.0
 10
93.5466041813
 20
34.5751234407
 30
0.0
 10
93.5466041813
 20
34.5218417974
 30
0.0
 10
93.5562160871
 20
34.4434390863
 30
0.0
 10
93.5865669604
 20
34.3477080797
 30
0.0
 10
93.6157708611
 20
34.2875811096
 30
0.0
 10
93.6500748918
 20
34.2390396864
 30
0.0
 10
93.6962716929
 20
34.1944176586
 30
0.0
 10
93.7406253398
 20
34.1751228185
 30
0.0
 10
93.7681436101
 20
34.1751234407
 30
0.0
  0
SPLINE
  5
319
100
AcDbEntity
  8
RUNDUNGEN
100
AcDbSpline
 62
7
  6
CONTINUOUS
 70
0
 71
3
 72
10
 73
6
 74
0
 42
0.0000001
 43
0.0000001
 44
0.0000000001
 40
0.0
 40
0.0
 40
0.0
 40
0.0
 40
0.3093370436
 40
0.589745611
 40
1.0
 40
1.0
 40
1.0
 40
1.0
 10
92.4098310817
 20
34.5751234407
 30
0.0
 10
92.4098310817
 20
34.530518908
 30
0.0
 10
92.417192869
 20
34.4448338117
 30
0.0
 10
92.4517782923
 20
34.3066781218
 30
0.0
 10
92.5123201099
 20
34.2125990727
 30
0.0
 10
92.5659866366
 20
34.18771212
 30
0.0
  0
SPLINE
  5
31A
100
AcDbEntity
  8
RUNDUNGEN
100
AcDbSpline
 62
7
  6
CONTINUOUS
 70
0
 71
3
 72
9
 73
5
 74
0
 42
0.0000001
 43
0.0000001
 44
0.0000000001
 40
0.0
 40
0.0
 40
0.0
 40
0.0
 40
0.2558311987
 40
1.0
 40
1.0
 40
1.0
 40
1.0
 10
92.5659866366
 20
34.18771212
 30
0.0
 10
92.5704362538
 20
34.1856486846
 30
0.0
 10
92.5882174529
 20
34.1784539332
 30
0.0
 10
92.607579549
 20
34.1751228228
 30
0.0
 10
92.6218467051
 20
34.1751234407
 30
0.0
  0
SPLINE
  5
31B
100
AcDbEntity
  8
0
100
AcDbSpline
 62
7
  6
CONTINUOUS
 70
0
 71
3
 72
19
 73
15
 74
0
 42
0.0000001
 43
0.0000001
 44
0.0000000001
 40
0.0
 40
0.0
 40
0.0
 40
0.0
 40
0.131310945
 40
0.257073643
 40
0.3166236541
 40
0.3741713107
 40
0.4300026341
 40
0.4865941687
 40
0.5454916992
 40
0.6071592467
 40
0.6713618011
 40
0.7364705423
 40
0.8679937745
 40
1.0
 40
1.0
 40
1.0
 40
1.0
 10
92.4098310817
 20
42.5665781595
 30
0.0
 10
92.4098310817
 20
42.6655246672
 30
0.0
 10
92.4269062051
 20
42.8594837695
 30
0.0
 10
92.4960900733
 20
43.0910924477
 30
0.0
 10
92.5909213786
 20
43.2488642311
 30
0.0
 10
92.6812475303
 20
43.3445341619
 30
0.0
 10
92.7939467585
 20
43.4103958874
 30
0.0
 10
92.924115015
 20
43.4313784345
 30
0.0
 10
93.0579943301
 20
43.4088255656
 30
0.0
 10
93.1832268523
 20
43.3440427574
 30
0.0
 10
93.293413585
 20
43.249969032
 30
0.0
 10
93.416598003
 20
43.0955455693
 30
0.0
 10
93.5191899879
 20
42.8655388278
 30
0.0
 10
93.5466041813
 20
42.6660485808
 30
0.0
 10
93.5466041813
 20
42.5665781595
 30
0.0
  0
SPLINE
  5
31C
100
AcDbEntity
  8
0
100
AcDbSpline
 62
7
  6
CONTINUOUS
 70
0
 71
3
 72
19
 73
15
 74
0
 42
0.0000001
 43
0.0000001
 44
0.0000000001
 40
0.0
 40
0.0
 40
0.0
 40
0.0
 40
0.1320063507
 40
0.2635299114
 40
0.3286386208
 40
0.3928414437
 40
0.4545092552
 40
0.5134063033
 40
0.5699980987
 40
0.6258292293
 40
0.683376435
 40
0.7429263416
 40
0.8686890267
 40
1.0
 40
1.0
 40
1.0
 40
1.0
 10
94.2725908551
 20
42.5665781595
 30
0.0
 10
94.2725908551
 20
42.6660486763
 30
0.0
 10
94.300005292
 20
42.8655392414
 30
0.0
 10
94.402597221
 20
43.0955463012
 30
0.0
 10
94.5257820716
 20
43.2499701375
 30
0.0
 10
94.6359699836
 20
43.344042901
 30
0.0
 10
94.7612019249
 20
43.4088268855
 30
0.0
 10
94.8950817369
 20
43.4313786913
 30
0.0
 10
95.0252491523
 20
43.4103945225
 30
0.0
 10
95.1379487876
 20
43.3445341958
 30
0.0
 10
95.2282737549
 20
43.2488637086
 30
0.0
 10
95.3231045918
 20
43.0910923265
 30
0.0
 10
95.3922890934
 20
42.8594838534
 30
0.0
 10
95.4093639547
 20
42.6655246897
 30
0.0
 10
95.4093639547
 20
42.5665781595
 30
0.0
  0
SPLINE
  5
31D
100
AcDbEntity
  8
RUNDUNGEN
100
AcDbSpline
 62
7
  6
CONTINUOUS
 70
0
 71
3
 72
10
 73
6
 74
0
 42
0.0000001
 43
0.0000001
 44
0.0000000001
 40
0.0
 40
0.0
 40
0.0
 40
0.0
 40
0.3093367322
 40
0.5897325617
 40
1.0
 40
1.0
 40
1.0
 40
1.0
 10
95.4093639547
 20
34.5751234407
 30
0.0
 10
95.4093639547
 20
34.5305193365
 30
0.0
 10
95.4019973806
 20
34.4448381352
 30
0.0
 10
95.3674393428
 20
34.3066772338
 30
0.0
 10
95.3068873275
 20
34.2125978345
 30
0.0
 10
95.2532164947
 20
34.1877169054
 30
0.0
  0
SPLINE
  5
31E
100
AcDbEntity
  8
RUNDUNGEN
100
AcDbSpline
 62
7
  6
CONTINUOUS
 70
0
 71
3
 72
9
 73
5
 74
0
 42
0.0000001
 43
0.0000001
 44
0.0000000001
 40
0.0
 40
0.0
 40
0.0
 40
0.0
 40
0.2558928995
 40
1.0
 40
1.0
 40
1.0
 40
1.0
 10
95.2532164947
 20
34.1877169054
 30
0.0
 10
95.2487648811
 20
34.1856532094
 30
0.0
 10
95.2309804776
 20
34.178458989
 30
0.0
 10
95.2116164503
 20
34.1751242116
 30
0.0
 10
95.1973483313
 20
34.1751234407
 30
0.0
  0
SPLINE
  5
31F
100
AcDbEntity
  8
0
100
AcDbSpline
 62
7
  6
CONTINUOUS
 70
0
 71
3
 72
9
 73
5
 74
0
 42
0.0000001
 43
0.0000001
 44
0.0000000001
 40
0.0
 40
0.0
 40
0.0
 40
0.0
 40
0.4840179915
 40
1.0
 40
1.0
 40
1.0
 40
1.0
 10
103.0044244804
 20
66.5545869621
 30
0.0
 10
103.7812187148
 20
71.2580147692
 30
0.0
 10
104.9721427806
 20
81.0468384295
 30
0.0
 10
105.3940683277
 20
90.8982092004
 30
0.0
 10
105.4153447253
 20
95.9801234407
 30
0.0
  0
SPLINE
  5
320
100
AcDbEntity
  8
0
100
AcDbSpline
 62
7
  6
CONTINUOUS
 70
0
 71
3
 72
9
 73
5
 74
0
 42
0.0000001
 43
0.0000001
 44
0.0000000001
 40
0.0
 40
0.0
 40
0.0
 40
0.0
 40
0.4932573622
 40
1.0
 40
1.0
 40
1.0
 40
1.0
 10
105.0329159732
 20
64.0751234407
 30
0.0
 10
104.6573071621
 20
64.4454124162
 30
0.0
 10
103.9363405754
 20
65.2382552367
 30
0.0
 10
103.3030384373
 20
66.1024311654
 30
0.0
 10
103.0044244804
 20
66.5545869621
 30
0.0
  0
ELLIPSE
  5
321
100
AcDbEntity
  8
0
100
AcDbEllipse
 62
7
  6
CONTINUOUS
 10
138.717294919
 20
100.1242183465
 30
0.0
 11
33.834599191
 21
-31.2300258899
 31
0.0
 40
0.8519666921
 41
3.0853549308
 42
3.1050368043
  0
ELLIPSE
  5
322
100
AcDbEntity
  8
0
100
AcDbEllipse
 62
7
  6
CONTINUOUS
 10
-6.9125015257
 20
103.3701234407
 30
0.0
 11
113.1946857038
 21
15.1708621477
 31
0.0
 40
0.6939226876
 41
-0.2172216834
 42
-0.1770984434
  0
ELLIPSE
  5
323
100
AcDbEntity
  8
0
100
AcDbEllipse
 62
7
  6
CONTINUOUS
 10
85.1265770839
 20
104.2601234407
 30
0.0
 11
21.2240035695
 21
2.8445366527
 31
0.0
 40
0.6939226876
 41
-0.1770984434
 42
-0.0778683763
  0
ENDSEC
  0
SECTION
  2
OBJECTS
  0
DICTIONARY
  5
C
100
AcDbDictionary
280
0
281
1
  3
ACAD_GROUP
350
D
  3
ACAD_MLINESTYLE
350
17
  3
ACAD_LAYOUT
350
1A
  3
ACAD_PLOTSETTINGS
350
19
  3
ACAD_PLOTSTYLENAME
350
E
  0
DICTIONARY
  5
D
102
{ACAD_REACTORS
330
C
102
}
100
AcDbDictionary
280
0
281
1
  0
ACDBDICTIONARYWDFLT
  5
E
102
{ACAD_REACTORS
330
C
102
}
100
AcDbDictionary
281
1
  3
Normal
350
F
100
AcDbDictionaryWithDefault
340
F
  0
DICTIONARY
  5
17
102
{ACAD_REACTORS
330
C
102
}
100
AcDbDictionary
280
0
281
1
  3
Standard
350
18
  0
DICTIONARY
  5
19
102
{ACAD_REACTORS
330
C
102
}
100
AcDbDictionary
281
1
  0
DICTIONARY
  5
1A
102
{ACAD_REACTORS
330
C
102
}
100
AcDbDictionary
281
1
  3
Model
350
324
  3
Layout1
350
325
  0
ACDBPLACEHOLDER
  5
F
102
{ACAD_REACTORS
330
E
102
}
  0
MLINESTYLE
  5
18
102
{ACAD_REACTORS
330
17
102
}
100
AcDbMlineStyle
  2
STANDARD
 70
0
  3

 62
256
 51
90.0
 52
90.0
 71
2
 49
0.5
 62
256
  6
BYLAYER
 49
-0.5
 62
256
  6
BYLAYER
  0
LAYOUT
  5
324
102
{ACAD_REACTORS
330
1A
102
}
100
AcDbPlotSettings
  1

  2
none_device
  4
ISO_A4_(297.00_x_210.00_MM)
  6

 40
0.0
 41
0.0
 42
0.0
 43
0.0
 44
297.0
 45
210.0
 46
0.0
 47
0.0
 48
0.0
 49
0.0
140
0.0
141
0.0
142
1.0
143
1.0
 70
1024
 72
1
 73
0
 74
0
  7

 75
0
147
1.0
148
0.0
149
0.0
100
AcDbLayout
  1
Model
 70
0
 71
0
 10
0.0
 20
0.0
 11
297.0
 21
210.0
 12
0.0
 22
0.0
 32
0.0
 14
0.0
 24
0.0
 34
0.0
 15
0.0
 25
0.0
 35
0.0
146
0.0
 13
0.0
 23
0.0
 33
0.0
 16
1.0
 26
0.0
 36
0.0
 17
0.0
 27
1.0
 37
0.0
 76
0
330
20E
345
0
346
0
  0
LAYOUT
  5
325
102
{ACAD_REACTORS
330
1A
102
}
100
AcDbPlotSettings
  1

  2
none_device
  4
ISO_A4_(297.00_x_210.00_MM)
  6

 40
0.0
 41
0.0
 42
0.0
 43
0.0
 44
297.0
 45
210.0
 46
0.0
 47
0.0
 48
0.0
 49
0.0
140
0.0
141
0.0
142
1.0
143
1.0
 70
0
 72
1
 73
0
 74
0
  7

 75
0
147
1.0
148
0.0
149
0.0
100
AcDbLayout
  1
Layout1
 70
0
 71
1
 10
0.0
 20
0.0
 11
297.0
 21
210.0
 12
0.0
 22
0.0
 32
0.0
 14
0.0
 24
0.0
 34
0.0
 15
0.0
 25
0.0
 35
0.0
146
0.0
 13
0.0
 23
0.0
 33
0.0
 16
1.0
 26
0.0
 36
0.0
 17
0.0
 27
1.0
 37
0.0
 76
0
330
20F
345
0
346
0
  0
ENDSEC
  0
EOF
