  0
SECTION
  2
HEADER
  9
$ACADVER
  1
AC1012
  9
$DWGCODEPAGE
  3
ANSI_1252
  9
$INSBASE
 10
0.0
 20
0.0
 30
0.0
  9
$EXTMIN
 10
-136.9041121267994
 20
-24.84481694507962
 30
-0.0015258207003583
  9
$EXTMAX
 10
15.85421854776109
 20
81.8743904422438
 30
0.0000000349246037
  9
$LIMMIN
 10
-170.0
 20
-170.0
  9
$LIMMAX
 10
519.0
 20
260.0
  9
$ORTHOMODE
 70
     1
  9
$REGENMODE
 70
     1
  9
$FILLMODE
 70
     1
  9
$QTEXTMODE
 70
     0
  9
$MIRRTEXT
 70
     0
  9
$DRAGMODE
 70
     2
  9
$LTSCALE
 40
15.0
  9
$OSMODE
 70
     0
  9
$ATTMODE
 70
     1
  9
$TEXTSIZE
 40
4.57
  9
$TRACEWID
 40
0.05
  9
$TEXTSTYLE
  7
SIMPLEX
  9
$CLAYER
  8
SK2
  9
$CELTYPE
  6
BYLAYER
  9
$CECOLOR
 62
   256
  9
$CELTSCALE
 40
1.0
  9
$DELOBJ
 70
     1
  9
$DISPSILH
 70
     0
  9
$DIMSCALE
 40
0.0
  9
$DIMASZ
 40
4.57
  9
$DIMEXO
 40
0.0
  9
$DIMDLI
 40
0.38
  9
$DIMRND
 40
0.0
  9
$DIMDLE
 40
0.0
  9
$DIMEXE
 40
5.0
  9
$DIMTP
 40
0.0
  9
$DIMTM
 40
0.0
  9
$DIMTXT
 40
4.57
  9
$DIMCEN
 40
0.09
  9
$DIMTSZ
 40
0.0
  9
$DIMTOL
 70
     0
  9
$DIMLIM
 70
     0
  9
$DIMTIH
 70
     0
  9
$DIMTOH
 70
     0
  9
$DIMSE1
 70
     0
  9
$DIMSE2
 70
     0
  9
$DIMTAD
 70
     1
  9
$DIMZIN
 70
     8
  9
$DIMBLK
  1

  9
$DIMASO
 70
     1
  9
$DIMSHO
 70
     1
  9
$DIMPOST
  1

  9
$DIMAPOST
  1

  9
$DIMALT
 70
     0
  9
$DIMALTD
 70
     2
  9
$DIMALTF
 40
25.4
  9
$DIMLFAC
 40
1.0
  9
$DIMTOFL
 70
     0
  9
$DIMTVP
 40
0.0
  9
$DIMTIX
 70
     0
  9
$DIMSOXD
 70
     0
  9
$DIMSAH
 70
     0
  9
$DIMBLK1
  1

  9
$DIMBLK2
  1

  9
$DIMSTYLE
  2
STANDARD
  9
$DIMCLRD
 70
     0
  9
$DIMCLRE
 70
     0
  9
$DIMCLRT
 70
     0
  9
$DIMTFAC
 40
1.0
  9
$DIMGAP
 40
2.299999999999999
  9
$DIMJUST
 70
     0
  9
$DIMSD1
 70
     0
  9
$DIMSD2
 70
     0
  9
$DIMTOLJ
 70
     1
  9
$DIMTZIN
 70
     0
  9
$DIMALTZ
 70
     0
  9
$DIMALTTZ
 70
     0
  9
$DIMFIT
 70
     3
  9
$DIMUPT
 70
     0
  9
$DIMUNIT
 70
     2
  9
$DIMDEC
 70
     2
  9
$DIMTDEC
 70
     4
  9
$DIMALTU
 70
     2
  9
$DIMALTTD
 70
     2
  9
$DIMTXSTY
  7
SIMPLEX
  9
$DIMAUNIT
 70
     0
  9
$LUNITS
 70
     2
  9
$LUPREC
 70
     2
  9
$SKETCHINC
 40
0.1
  9
$FILLETRAD
 40
0.0
  9
$AUNITS
 70
     0
  9
$AUPREC
 70
     0
  9
$MENU
  1
c:\tdm21\cad\caduti13\tdm13
  9
$ELEVATION
 40
0.0
  9
$PELEVATION
 40
0.0
  9
$THICKNESS
 40
0.0
  9
$LIMCHECK
 70
     0
  9
$BLIPMODE
 70
     1
  9
$CHAMFERA
 40
0.0
  9
$CHAMFERB
 40
0.0
  9
$CHAMFERC
 40
0.0
  9
$CHAMFERD
 40
0.0
  9
$SKPOLY
 70
     0
  9
$TDCREATE
 40
2452568.895179976
  9
$TDUPDATE
 40
2452568.895179976
  9
$TDINDWG
 40
0.0082935185
  9
$TDUSRTIMER
 40
0.0082935185
  9
$USRTIMER
 70
     1
  9
$ANGBASE
 50
0.0
  9
$ANGDIR
 70
     0
  9
$PDMODE
 70
     1
  9
$PDSIZE
 40
0.0
  9
$PLINEWID
 40
0.0
  9
$COORDS
 70
     1
  9
$SPLFRAME
 70
     0
  9
$SPLINETYPE
 70
     6
  9
$SPLINESEGS
 70
     8
  9
$ATTDIA
 70
     0
  9
$ATTREQ
 70
     1
  9
$HANDLING
 70
  4097
  9
$HANDSEED
  5
4B1
  9
$SURFTAB1
 70
     6
  9
$SURFTAB2
 70
     6
  9
$SURFTYPE
 70
     6
  9
$SURFU
 70
     6
  9
$SURFV
 70
     6
  9
$UCSNAME
  2

  9
$UCSORG
 10
0.0
 20
0.0
 30
0.0
  9
$UCSXDIR
 10
1.0
 20
0.0
 30
0.0
  9
$UCSYDIR
 10
0.0
 20
1.0
 30
0.0
  9
$PUCSNAME
  2

  9
$PUCSORG
 10
0.0
 20
0.0
 30
0.0
  9
$PUCSXDIR
 10
1.0
 20
0.0
 30
0.0
  9
$PUCSYDIR
 10
0.0
 20
1.0
 30
0.0
  9
$USERI1
 70
     0
  9
$USERI2
 70
     0
  9
$USERI3
 70
     0
  9
$USERI4
 70
     0
  9
$USERI5
 70
     0
  9
$USERR1
 40
0.0
  9
$USERR2
 40
0.0
  9
$USERR3
 40
0.0
  9
$USERR4
 40
0.0
  9
$USERR5
 40
0.0
  9
$WORLDVIEW
 70
     1
  9
$SHADEDGE
 70
     3
  9
$SHADEDIF
 70
    70
  9
$TILEMODE
 70
     1
  9
$MAXACTVP
 70
    16
  9
$PINSBASE
 10
0.0
 20
0.0
 30
0.0
  9
$PLIMCHECK
 70
     0
  9
$PEXTMIN
 10
0.0
 20
0.0
 30
0.0
  9
$PEXTMAX
 10
0.0
 20
0.0
 30
0.0
  9
$PLIMMIN
 10
0.0
 20
0.0
  9
$PLIMMAX
 10
12.0
 20
9.0
  9
$UNITMODE
 70
     0
  9
$VISRETAIN
 70
     0
  9
$PLINEGEN
 70
     0
  9
$PSLTSCALE
 70
     1
  9
$TREEDEPTH
 70
  3020
  9
$PICKSTYLE
 70
     1
  9
$CMLSTYLE
  2
STANDARD
  9
$CMLJUST
 70
     0
  9
$CMLSCALE
 40
1.0
  9
$SAVEIMAGES
 70
     1
  0
ENDSEC
  0
SECTION
  2
CLASSES
  0
CLASS
  1
ACDBDICTIONARYWDFLT
  2
AcDbDictionaryWithDefault
  3
AutoCAD 2000
 90
    32768
280
     0
281
     0
  0
CLASS
  1
ACDBPLACEHOLDER
  2
AcDbPlaceHolder
  3
AutoCAD 2000
 90
    32768
280
     0
281
     0
  0
CLASS
  1
LAYOUT
  2
AcDbLayout
  3
AutoCAD 2000
 90
    32768
280
     0
281
     0
  0
CLASS
  1
LONG_TRANSACTION
  2
AcDbLongTransaction
  3
AutoCAD 2000
 90
    32768
280
     0
281
     0
  0
CLASS
  1
LWPOLYLINE
  2
AcDbPolyline
  3
AutoCAD 2000
 90
    32768
280
     0
281
     1
  0
CLASS
  1
HATCH
  2
AcDbHatch
  3
AutoCAD 2000
 90
    32768
280
     0
281
     1
  0
CLASS
  1
XRECORD
  2
AcDbXrecord
  3
AutoCAD 2000
 90
    32768
280
     0
281
     0
  0
ENDSEC
  0
SECTION
  2
TABLES
  0
TABLE
  2
VPORT
  5
8
330
0
100
AcDbSymbolTable
 70
     4
  0
VPORT
  5
4A2
330
8
100
AcDbSymbolTableRecord
100
AcDbViewportTableRecord
  2
*ACTIVE
 70
     0
 10
0.0
 20
0.0
 11
1.0
 21
1.0
 12
-60.52494678951918
 22
28.51478674858208
 13
0.0
 23
0.0
 14
5.0
 24
5.0
 15
5.0
 25
5.0
 16
0.0
 26
0.0
 36
1.0
 17
0.0
 27
0.0
 37
0.0
 40
116.7192073873234
 41
2.256578947368421
 42
50.0
 43
0.0
 44
0.0
 50
0.0
 51
0.0
 71
     0
 72
   100
 73
     1
 74
     1
 75
     0
 76
     0
 77
     0
 78
     0
  0
ENDTAB
  0
TABLE
  2
LTYPE
  5
5
330
0
100
AcDbSymbolTable
 70
     3
  0
LTYPE
  5
12
330
5
100
AcDbSymbolTableRecord
100
AcDbLinetypeTableRecord
  2
BYBLOCK
 70
     0
  3

 72
    65
 73
     0
 40
0.0
  0
LTYPE
  5
13
330
5
100
AcDbSymbolTableRecord
100
AcDbLinetypeTableRecord
  2
BYLAYER
 70
     0
  3

 72
    65
 73
     0
 40
0.0
  0
LTYPE
  5
14
330
5
100
AcDbSymbolTableRecord
100
AcDbLinetypeTableRecord
  2
CONTINUOUS
 70
     0
  3
Solid line
 72
    65
 73
     0
 40
0.0
  0
LTYPE
  5
1F
330
5
100
AcDbSymbolTableRecord
100
AcDbLinetypeTableRecord
  2
CENTER
 70
     0
  3
____ . ____ . ____
 72
    65
 73
     4
 40
1.5
 49
1.0
 74
     0
 49
-0.25
 74
     0
 49
0.0
 74
     0
 49
-0.25
 74
     0
  0
LTYPE
  5
20
330
5
100
AcDbSymbolTableRecord
100
AcDbLinetypeTableRecord
  2
HIDDEN
 70
     0
  3
_ _ _ _ _ _ _ _ _ _ _ _ _ _ _ _ _ _ _ _ _ _ _
 72
    65
 73
     2
 40
0.375
 49
0.25
 74
     0
 49
-0.125
 74
     0
  0
ENDTAB
  0
TABLE
  2
LAYER
  5
2
330
0
100
AcDbSymbolTable
 70
    14
  0
LAYER
  5
F
330
2
100
AcDbSymbolTableRecord
100
AcDbLayerTableRecord
  2
0
 70
     0
 62
    -7
  6
CONTINUOUS
  0
LAYER
  5
23
330
2
100
AcDbSymbolTableRecord
100
AcDbLayerTableRecord
  2
1
 70
     0
 62
     4
  6
CONTINUOUS
  0
LAYER
  5
24
330
2
100
AcDbSymbolTableRecord
100
AcDbLayerTableRecord
  2
SK1
 70
     0
 62
     4
  6
CONTINUOUS
  0
LAYER
  5
25
330
2
100
AcDbSymbolTableRecord
100
AcDbLayerTableRecord
  2
2
 70
     0
 62
     7
  6
CONTINUOUS
  0
LAYER
  5
26
330
2
100
AcDbSymbolTableRecord
100
AcDbLayerTableRecord
  2
2L
 70
     0
 62
     7
  6
CONTINUOUS
  0
LAYER
  5
27
330
2
100
AcDbSymbolTableRecord
100
AcDbLayerTableRecord
  2
SK2
 70
     0
 62
     7
  6
CONTINUOUS
  0
LAYER
  5
28
330
2
100
AcDbSymbolTableRecord
100
AcDbLayerTableRecord
  2
3
 70
     0
 62
     1
  6
HIDDEN
  0
LAYER
  5
29
330
2
100
AcDbSymbolTableRecord
100
AcDbLayerTableRecord
  2
SK3
 70
     0
 62
     1
  6
HIDDEN
  0
LAYER
  5
2A
330
2
100
AcDbSymbolTableRecord
100
AcDbLayerTableRecord
  2
4
 70
     0
 62
    -2
  6
CENTER
  0
LAYER
  5
2B
330
2
100
AcDbSymbolTableRecord
100
AcDbLayerTableRecord
  2
SK4
 70
     0
 62
     2
  6
CENTER
  0
LAYER
  5
2C
330
2
100
AcDbSymbolTableRecord
100
AcDbLayerTableRecord
  2
5
 70
     0
 62
    -7
  6
CONTINUOUS
  0
LAYER
  5
2D
330
2
100
AcDbSymbolTableRecord
100
AcDbLayerTableRecord
  2
6
 70
     0
 62
     5
  6
CONTINUOUS
  0
LAYER
  5
2E
330
2
100
AcDbSymbolTableRecord
100
AcDbLayerTableRecord
  2
SK6
 70
     0
 62
     5
  6
CONTINUOUS
  0
LAYER
  5
2F
330
2
100
AcDbSymbolTableRecord
100
AcDbLayerTableRecord
  2
DEFPOINTS
 70
     0
 62
    -7
  6
CONTINUOUS
  0
ENDTAB
  0
TABLE
  2
STYLE
  5
3
330
0
100
AcDbSymbolTable
 70
     3
  0
STYLE
  5
10
330
3
100
AcDbSymbolTableRecord
100
AcDbTextStyleTableRecord
  2
STANDARD
 70
     0
 40
0.0
 41
1.0
 50
0.0
 71
     0
 42
5.0
  3
txt
  4

  0
STYLE
  5
1D
330
3
100
AcDbSymbolTableRecord
100
AcDbTextStyleTableRecord
  2
TXT
 70
     0
 40
8.0
 41
1.0
 50
0.0
 71
     0
 42
8.0
  3
txt
  4

  0
STYLE
  5
1E
330
3
100
AcDbSymbolTableRecord
100
AcDbTextStyleTableRecord
  2
SIMPLEX
 70
     0
 40
0.0
 41
1.0
 50
0.0
 71
     0
 42
4.57
  3
simplex
  4

  0
ENDTAB
  0
TABLE
  2
VIEW
  5
6
330
0
100
AcDbSymbolTable
 70
     0
  0
ENDTAB
  0
TABLE
  2
UCS
  5
7
330
0
100
AcDbSymbolTable
 70
     0
  0
ENDTAB
  0
TABLE
  2
APPID
  5
9
330
0
100
AcDbSymbolTable
 70
     1
  0
APPID
  5
11
330
9
100
AcDbSymbolTableRecord
100
AcDbRegAppTableRecord
  2
ACAD
 70
     0
  0
ENDTAB
  0
TABLE
  2
DIMSTYLE
  5
A
330
0
100
AcDbSymbolTable
 70
     1
  0
DIMSTYLE
105
3F
102
{ACAD_REACTORS
330
468
330
40E
330
3FC
330
3FA
330
3F9
102
}
330
A
100
AcDbSymbolTableRecord
100
AcDbDimStyleTableRecord
  2
STANDARD
 70
     0
  3

  4

  5

  6

  7

 40
0.0
 41
4.57
 42
0.0
 43
0.38
 44
5.0
 45
0.0
 46
0.0
 47
0.0
 48
0.0
140
4.57
141
0.09
142
0.0
143
25.4
144
1.0
145
0.0
146
1.0
147
2.299999999999999
 71
     0
 72
     0
 73
     0
 74
     0
 75
     0
 76
     0
 77
     1
 78
     8
170
     0
171
     2
172
     0
173
     0
174
     0
175
     0
176
     0
177
     0
178
     0
270
     2
271
     2
272
     4
273
     2
274
     2
340
1E
275
     0
280
     0
281
     0
282
     0
283
     1
284
     0
285
     0
286
     0
287
     3
288
     0
  0
ENDTAB
  0
TABLE
  2
BLOCK_RECORD
  5
1
330
0
100
AcDbSymbolTable
 70
     8
  0
BLOCK_RECORD
  5
18
102
{ACAD_XDICTIONARY
360
4A3
102
}
330
1
100
AcDbSymbolTableRecord
100
AcDbBlockTableRecord
  2
*MODEL_SPACE
  0
BLOCK_RECORD
  5
338
102
{ACAD_XDICTIONARY
360
4A5
102
}
330
1
100
AcDbSymbolTableRecord
100
AcDbBlockTableRecord
  2
*PAPER_SPACE
  0
BLOCK_RECORD
  5
345
330
1
100
AcDbSymbolTableRecord
100
AcDbBlockTableRecord
  2
*D0
  0
BLOCK_RECORD
  5
351
330
1
100
AcDbSymbolTableRecord
100
AcDbBlockTableRecord
  2
*D1
  0
BLOCK_RECORD
  5
35D
330
1
100
AcDbSymbolTableRecord
100
AcDbBlockTableRecord
  2
*D2
  0
BLOCK_RECORD
  5
36A
330
1
100
AcDbSymbolTableRecord
100
AcDbBlockTableRecord
  2
_DOT
  0
BLOCK_RECORD
  5
36F
330
1
100
AcDbSymbolTableRecord
100
AcDbBlockTableRecord
  2
*D4
  0
BLOCK_RECORD
  5
469
330
1
100
AcDbSymbolTableRecord
100
AcDbBlockTableRecord
  2
*D7
  0
ENDTAB
  0
ENDSEC
  0
SECTION
  2
BLOCKS
  0
BLOCK
  5
32
330
18
100
AcDbEntity
  8
0
100
AcDbBlockBegin
  2
*MODEL_SPACE
 70
     0
 10
0.0
 20
0.0
 30
0.0
  3
*MODEL_SPACE
  1

  0
ENDBLK
  5
33
330
18
100
AcDbEntity
  8
0
100
AcDbBlockEnd
  0
BLOCK
  5
339
330
338
100
AcDbEntity
 67
     1
  8
0
100
AcDbBlockBegin
  2
*PAPER_SPACE
 70
     0
 10
0.0
 20
0.0
 30
0.0
  3
*PAPER_SPACE
  1

  0
ENDBLK
  5
33A
330
338
100
AcDbEntity
 67
     1
  8
0
100
AcDbBlockEnd
  0
BLOCK
  5
34F
330
345
100
AcDbEntity
  8
0
100
AcDbBlockBegin
  2
*D0
 70
     1
 10
0.0
 20
0.0
 30
0.0
  3
*D0
  1

  0
LINE
  5
40F
330
345
100
AcDbEntity
  8
2
 62
     0
100
AcDbLine
 10
-93.40000000000001
 20
11.323529
 30
0.0
 11
-93.40000000000001
 21
80.0
 31
0.0
  0
LINE
  5
410
330
345
100
AcDbEntity
  8
2
 62
     0
100
AcDbLine
 10
-68.39999999999999
 20
11.5
 30
0.0
 11
-68.39999999999999
 21
80.0
 31
0.0
  0
LINE
  5
411
330
345
100
AcDbEntity
  8
2
 62
     0
100
AcDbLine
 10
-88.83
 20
75.0
 30
0.0
 11
-72.97
 21
75.0
 31
0.0
  0
SOLID
  5
412
330
345
100
AcDbEntity
  8
2
 62
     0
100
AcDbTrace
 10
-88.83
 20
75.76166666666667
 30
0.0
 11
-88.83
 21
74.23833333333333
 31
0.0
 12
-93.40000000000001
 22
75.0
 32
0.0
 13
-93.40000000000001
 23
75.0
 33
0.0
  0
SOLID
  5
413
330
345
100
AcDbEntity
  8
2
 62
     0
100
AcDbTrace
 10
-72.97
 20
75.76166666666667
 30
0.0
 11
-72.97
 21
74.23833333333333
 31
0.0
 12
-68.39999999999999
 22
75.0
 32
0.0
 13
-68.39999999999999
 23
75.0
 33
0.0
  0
MTEXT
  5
414
330
345
100
AcDbEntity
  8
2
 62
     0
100
AcDbMText
 10
-80.90000000000001
 20
79.58499999999999
 30
0.0
 40
4.57
 41
0.0
 71
     5
 72
     1
  1
\A1;25
  7
SIMPLEX
1001
ACAD
1000
MTEXTBEGIN
1070
    73
1070
     1
1070
    44
1040
1.0
1070
    74
1070
     0
1000
MTEXTEND
  0
POINT
  5
415
330
345
100
AcDbEntity
  8
DEFPOINTS
 62
     0
100
AcDbPoint
 10
-93.40000000000001
 20
11.323529
 30
0.0
  0
POINT
  5
416
330
345
100
AcDbEntity
  8
DEFPOINTS
 62
     0
100
AcDbPoint
 10
-68.39999999999999
 20
11.5
 30
0.0
  0
POINT
  5
417
330
345
100
AcDbEntity
  8
DEFPOINTS
 62
     0
100
AcDbPoint
 10
-68.39999999999999
 20
75.0
 30
0.0
  0
ENDBLK
  5
350
330
345
100
AcDbEntity
  8
0
100
AcDbBlockEnd
  0
BLOCK
  5
35B
330
351
100
AcDbEntity
  8
0
100
AcDbBlockBegin
  2
*D1
 70
     1
 10
0.0
 20
0.0
 30
0.0
  3
*D1
  1

  0
LINE
  5
418
330
351
100
AcDbEntity
  8
SK2
 62
     0
100
AcDbLine
 10
-68.4
 20
11.5
 30
0.0
 11
-68.4
 21
80.0
 31
0.0
  0
LINE
  5
419
330
351
100
AcDbEntity
  8
SK2
 62
     0
100
AcDbLine
 10
-40.4
 20
6.5
 30
0.0
 11
-40.39999999999999
 21
80.0
 31
0.0
  0
LINE
  5
41A
330
351
100
AcDbEntity
  8
SK2
 62
     0
100
AcDbLine
 10
-63.83
 20
75.0
 30
0.0
 11
-44.96999999999998
 21
75.0
 31
0.0
  0
SOLID
  5
41B
330
351
100
AcDbEntity
  8
SK2
 62
     0
100
AcDbTrace
 10
-63.83
 20
75.76166666666667
 30
0.0
 11
-63.83
 21
74.23833333333333
 31
0.0
 12
-68.4
 22
75.0
 32
0.0
 13
-68.4
 23
75.0
 33
0.0
  0
SOLID
  5
41C
330
351
100
AcDbEntity
  8
SK2
 62
     0
100
AcDbTrace
 10
-44.96999999999998
 20
75.76166666666667
 30
0.0
 11
-44.96999999999998
 21
74.23833333333333
 31
0.0
 12
-40.39999999999999
 22
75.0
 32
0.0
 13
-40.39999999999999
 23
75.0
 33
0.0
  0
MTEXT
  5
41D
330
351
100
AcDbEntity
  8
SK2
 62
     0
100
AcDbMText
 10
-54.4
 20
79.58499999999999
 30
0.0
 40
4.57
 41
0.0
 71
     5
 72
     1
  1
\A1;28
  7
SIMPLEX
1001
ACAD
1000
MTEXTBEGIN
1070
    73
1070
     1
1070
    44
1040
1.0
1070
    74
1070
     0
1000
MTEXTEND
  0
POINT
  5
41E
330
351
100
AcDbEntity
  8
DEFPOINTS
 62
     0
100
AcDbPoint
 10
-68.4
 20
11.5
 30
0.0
  0
POINT
  5
41F
330
351
100
AcDbEntity
  8
DEFPOINTS
 62
     0
100
AcDbPoint
 10
-40.4
 20
6.5
 30
0.0
  0
POINT
  5
420
330
351
100
AcDbEntity
  8
DEFPOINTS
 62
     0
100
AcDbPoint
 10
-40.39999999999999
 20
75.0
 30
0.0
  0
ENDBLK
  5
35C
330
351
100
AcDbEntity
  8
0
100
AcDbBlockEnd
  0
BLOCK
  5
368
330
35D
100
AcDbEntity
  8
0
100
AcDbBlockBegin
  2
*D2
 70
     1
 10
0.0
 20
0.0
 30
0.0
  3
*D2
  1

  0
LINE
  5
421
330
35D
100
AcDbEntity
  8
SK2
 62
     0
100
AcDbLine
 10
-81.99999999999999
 20
12.5
 30
0.0
 11
-81.99999999999999
 21
65.0
 31
0.0
  0
LINE
  5
422
330
35D
100
AcDbEntity
  8
SK2
 62
     0
100
AcDbLine
 10
-68.4
 20
11.5
 30
0.0
 11
-68.4
 21
65.0
 31
0.0
  0
LINE
  5
423
330
35D
100
AcDbEntity
  8
SK2
 62
     0
100
AcDbLine
 10
-86.57
 20
60.0
 30
0.0
 11
-91.13999999999998
 21
60.0
 31
0.0
  0
LINE
  5
424
330
35D
100
AcDbEntity
  8
SK2
 62
     0
100
AcDbLine
 10
-63.83
 20
60.0
 30
0.0
 11
-41.82047619047619
 21
60.0
 31
0.0
  0
SOLID
  5
425
330
35D
100
AcDbEntity
  8
SK2
 62
     0
100
AcDbTrace
 10
-86.57
 20
60.76166666666667
 30
0.0
 11
-86.57
 21
59.23833333333333
 31
0.0
 12
-81.99999999999999
 22
60.0
 32
0.0
 13
-81.99999999999999
 23
60.0
 33
0.0
  0
SOLID
  5
426
330
35D
100
AcDbEntity
  8
SK2
 62
     0
100
AcDbTrace
 10
-63.83
 20
60.76166666666667
 30
0.0
 11
-63.83
 21
59.23833333333333
 31
0.0
 12
-68.4
 22
60.0
 32
0.0
 13
-68.4
 23
60.0
 33
0.0
  0
MTEXT
  5
427
330
35D
100
AcDbEntity
  8
SK2
 62
     0
100
AcDbMText
 10
-50.54023809523809
 20
64.585
 30
0.0
 40
4.57
 41
0.0
 71
     5
 72
     1
  1
\A1;13.6
  7
SIMPLEX
1001
ACAD
1000
MTEXTBEGIN
1070
    73
1070
     1
1070
    44
1040
1.0
1070
    74
1070
     0
1000
MTEXTEND
  0
POINT
  5
428
330
35D
100
AcDbEntity
  8
DEFPOINTS
 62
     0
100
AcDbPoint
 10
-81.99999999999999
 20
12.5
 30
0.0
  0
POINT
  5
429
330
35D
100
AcDbEntity
  8
DEFPOINTS
 62
     0
100
AcDbPoint
 10
-68.4
 20
11.5
 30
0.0
  0
POINT
  5
42A
330
35D
100
AcDbEntity
  8
DEFPOINTS
 62
     0
100
AcDbPoint
 10
-68.4
 20
60.0
 30
0.0
  0
ENDBLK
  5
369
330
35D
100
AcDbEntity
  8
0
100
AcDbBlockEnd
  0
BLOCK
  5
36D
330
36A
100
AcDbEntity
  8
0
100
AcDbBlockBegin
  2
_DOT
 70
     0
 10
0.0
 20
0.0
 30
0.0
  3
_DOT
  1

  0
POLYLINE
  5
36B
330
36A
100
AcDbEntity
  8
SK2
 62
     0
100
AcDb2dPolyline
 66
     1
 10
0.0
 20
0.0
 30
0.0
 70
     1
 40
0.5
 41
0.5
  0
VERTEX
  5
4A7
330
36B
100
AcDbEntity
  8
SK2
 62
     0
100
AcDbVertex
100
AcDb2dVertex
 10
-0.25
 20
0.0
 30
0.0
 42
1.0
  0
VERTEX
  5
4A8
330
36B
100
AcDbEntity
  8
SK2
 62
     0
100
AcDbVertex
100
AcDb2dVertex
 10
0.25
 20
0.0
 30
0.0
 42
1.0
  0
SEQEND
  5
4A9
330
36B
100
AcDbEntity
  8
SK2
 62
     0
  0
LINE
  5
36C
330
36A
100
AcDbEntity
  8
SK2
 62
     0
100
AcDbLine
 10
-0.5
 20
0.0
 30
0.0
 11
-1.0
 21
0.0
 31
0.0
  0
ENDBLK
  5
36E
330
36A
100
AcDbEntity
  8
0
100
AcDbBlockEnd
  0
BLOCK
  5
37C
330
36F
100
AcDbEntity
  8
0
100
AcDbBlockBegin
  2
*D4
 70
     1
 10
0.0
 20
0.0
 30
0.0
  3
*D4
  1

  0
LINE
  5
42B
330
36F
100
AcDbEntity
  8
SK2
 62
     0
100
AcDbLine
 10
-81.99999999999999
 20
12.5
 30
0.0
 11
-82.0
 21
52.22287203260338
 31
0.0
  0
LINE
  5
42C
330
36F
100
AcDbEntity
  8
SK2
 62
     0
100
AcDbLine
 10
-81.99999999999999
 20
12.5
 30
0.0
 11
-92.28103580820819
 21
50.86934799066729
 31
0.0
  0
ARC
  5
42D
330
36F
100
AcDbEntity
  8
SK2
 62
     0
100
AcDbCircle
 10
-81.99999999999999
 20
12.5
 30
0.0
 40
34.72287203260338
100
AcDbArc
 50
74.90729298179125
 51
82.45364649089562
  0
ARC
  5
42E
330
36F
100
AcDbEntity
  8
SK2
 62
     0
100
AcDbCircle
 10
-81.99999999999999
 20
12.5
 30
0.0
 40
34.72287203260338
100
AcDbArc
 50
112.5463535091046
 51
120.092707018209
  0
SOLID
  5
42F
330
36F
100
AcDbEntity
  8
SK2
 62
     0
100
AcDbTrace
 10
-77.49002882098906
 20
46.1621194339255
 30
0.0
 11
-77.38978317704007
 21
47.68215076758731
 31
0.0
 12
-82.0
 22
47.22287203260338
 32
0.0
 13
-82.0
 23
47.22287203260338
 33
0.0
  0
SOLID
  5
430
330
36F
100
AcDbEntity
  8
SK2
 62
     0
100
AcDbTrace
 10
-95.55893816040933
 20
45.29013613497422
 30
0.0
 11
-95.06869524564176
 21
43.84784409486424
 31
0.0
 12
-90.98694058269556
 22
46.03971885922195
 32
0.0
 13
-90.98694058269556
 23
46.03971885922195
 33
0.0
  0
MTEXT
  5
431
330
36F
100
AcDbEntity
  8
SK2
 62
     0
100
AcDbMText
 10
-76.63258800258349
 20
51.43969301601532
 30
0.0
 40
4.57
 41
0.0
 71
     5
 72
     1
  1
\A1;15°
  7
SIMPLEX
 11
0.9906334533631667
 21
-0.1365480174801774
 31
0.0
1001
ACAD
1000
MTEXTBEGIN
1070
    73
1070
     1
1070
    44
1040
1.0
1070
    74
1070
     0
1000
MTEXTEND
  0
POINT
  5
432
330
36F
100
AcDbEntity
  8
DEFPOINTS
 62
     0
100
AcDbPoint
 10
-88.02956345182369
 20
46.69535358455855
 30
0.0
  0
POINT
  5
433
330
36F
100
AcDbEntity
  8
DEFPOINTS
 62
     0
100
AcDbPoint
 10
-81.99999999999999
 20
12.5
 30
0.0
  0
POINT
  5
434
330
36F
100
AcDbEntity
  8
DEFPOINTS
 62
     0
100
AcDbPoint
 10
-81.4774990747593
 20
10.54999999999999
 30
0.0
  0
POINT
  5
435
330
36F
100
AcDbEntity
  8
DEFPOINTS
 62
     0
100
AcDbPoint
 10
-81.99999999999999
 20
12.5
 30
0.0
  0
POINT
  5
436
330
36F
100
AcDbEntity
  8
DEFPOINTS
 62
     0
100
AcDbPoint
 10
-81.99999999999999
 20
-12.5
 30
0.0
  0
ENDBLK
  5
37D
330
36F
100
AcDbEntity
  8
0
100
AcDbBlockEnd
  0
BLOCK
  5
473
330
469
100
AcDbEntity
  8
0
100
AcDbBlockBegin
  2
*D7
 70
     1
 10
0.0
 20
0.0
 30
0.0
  3
*D7
  1

  0
LINE
  5
46A
330
469
100
AcDbEntity
  8
SK2
 62
     0
100
AcDbLine
 10
-92.4
 20
8.0
 30
0.0
 11
-105.0
 21
8.000000000000003
 31
0.0
  0
LINE
  5
46B
330
469
100
AcDbEntity
  8
SK2
 62
     0
100
AcDbLine
 10
-92.4
 20
-8.0
 30
0.0
 11
-105.0
 21
-7.999999999999998
 31
0.0
  0
LINE
  5
46C
330
469
100
AcDbEntity
  8
SK2
 62
     0
100
AcDbLine
 10
-100.0
 20
3.430000000000002
 30
0.0
 11
-100.0
 21
-3.429999999999998
 31
0.0
  0
SOLID
  5
46D
330
469
100
AcDbEntity
  8
SK2
 62
     0
100
AcDbTrace
 10
-100.7616666666666
 20
3.430000000000002
 30
0.0
 11
-99.23833333333334
 21
3.430000000000002
 31
0.0
 12
-100.0
 22
8.000000000000003
 32
0.0
 13
-100.0
 23
8.000000000000003
 33
0.0
  0
SOLID
  5
46E
330
469
100
AcDbEntity
  8
SK2
 62
     0
100
AcDbTrace
 10
-100.7616666666666
 20
-3.429999999999998
 30
0.0
 11
-99.23833333333334
 21
-3.429999999999998
 31
0.0
 12
-100.0
 22
-7.999999999999999
 32
0.0
 13
-100.0
 23
-7.999999999999999
 33
0.0
  0
MTEXT
  5
46F
330
469
100
AcDbEntity
  8
SK2
 62
     0
100
AcDbMText
 10
-104.5849999999999
 20
-0.0000000000000137
 30
0.0
 40
4.57
 41
0.0
 71
     5
 72
     1
  1
\A1;16
  7
SIMPLEX
 11
0.0000000000000001
 21
1.0
 31
0.0
1001
ACAD
1000
MTEXTBEGIN
1070
    73
1070
     1
1070
    44
1040
1.0
1070
    74
1070
     0
1000
MTEXTEND
  0
POINT
  5
470
330
469
100
AcDbEntity
  8
DEFPOINTS
 62
     0
100
AcDbPoint
 10
-92.4
 20
8.0
 30
0.0
  0
POINT
  5
471
330
469
100
AcDbEntity
  8
DEFPOINTS
 62
     0
100
AcDbPoint
 10
-92.4
 20
-8.0
 30
0.0
  0
POINT
  5
472
330
469
100
AcDbEntity
  8
DEFPOINTS
 62
     0
100
AcDbPoint
 10
-100.0
 20
-7.999999999999999
 30
0.0
  0
ENDBLK
  5
474
330
469
100
AcDbEntity
  8
0
100
AcDbBlockEnd
  0
ENDSEC
  0
SECTION
  2
ENTITIES
  0
LINE
  5
37E
330
18
100
AcDbEntity
  8
4
100
AcDbLine
 10
-94.40000000000001
 20
0.0
 30
0.0
 11
-68.4
 21
0.0
 31
0.0
  0
LINE
  5
37F
330
18
100
AcDbEntity
  8
SK1
100
AcDbLine
 10
-40.4
 20
6.5
 30
0.0
 11
-40.4
 21
-6.5
 31
0.0
  0
LINE
  5
380
330
18
100
AcDbEntity
  8
SK1
100
AcDbLine
 10
-66.4
 20
8.5
 30
0.0
 11
-61.4
 21
8.5
 31
0.0
  0
LINE
  5
381
330
18
100
AcDbEntity
  8
SK1
100
AcDbLine
 10
-66.4
 20
-8.5
 30
0.0
 11
-61.4
 21
-8.5
 31
0.0
  0
LINE
  5
382
330
18
100
AcDbEntity
  8
SK1
100
AcDbLine
 10
-41.9
 20
8.0
 30
0.0
 11
-53.9
 21
8.0
 31
0.0
  0
LINE
  5
383
330
18
100
AcDbEntity
  8
SK1
100
AcDbLine
 10
-53.9
 20
-8.0
 30
0.0
 11
-41.9
 21
-8.0
 31
0.0
  0
LINE
  5
384
330
18
100
AcDbEntity
  8
SK1
100
AcDbLine
 10
-53.9
 20
8.0
 30
0.0
 11
-53.9
 21
-8.0
 31
0.0
  0
LINE
  5
385
330
18
100
AcDbEntity
  8
SK1
100
AcDbLine
 10
-58.985745
 20
6.5
 30
0.0
 11
-56.67698399999999
 21
6.5
 31
0.0
  0
LINE
  5
386
330
18
100
AcDbEntity
  8
SK1
100
AcDbLine
 10
-53.9
 20
8.0
 30
0.0
 11
-56.16248800000001
 21
6.642507
 31
0.0
  0
ARC
  5
387
330
18
100
AcDbEntity
  8
SK1
100
AcDbCircle
 10
-56.67698399999999
 20
7.5
 30
0.0
 40
1.0
100
AcDbArc
 50
270.0
 51
300.9637569999999
  0
LINE
  5
388
330
18
100
AcDbEntity
  8
SK1
100
AcDbLine
 10
-61.4
 20
8.5
 30
0.0
 11
-61.4
 21
-8.5
 31
0.0
  0
LINE
  5
389
330
18
100
AcDbEntity
  8
SK3
  6
CONTINUOUS
100
AcDbLine
 10
-56.4
 20
6.0
 30
0.0
 11
-56.4
 21
-6.0
 31
0.0
  0
LINE
  5
38A
330
18
100
AcDbEntity
  8
SK3
  6
CONTINUOUS
100
AcDbLine
 10
-55.566667
 20
7.0
 30
0.0
 11
-40.89999999999999
 21
7.0
 31
0.0
  0
LINE
  5
38B
330
18
100
AcDbEntity
  8
SK3
  6
CONTINUOUS
100
AcDbLine
 10
-55.566667
 20
-7.0
 30
0.0
 11
-40.89999999999999
 21
-7.0
 31
0.0
  0
LINE
  5
38C
330
18
100
AcDbEntity
  8
SK1
100
AcDbLine
 10
-41.9
 20
8.0
 30
0.0
 11
-41.9
 21
-8.0
 31
0.0
  0
LINE
  5
38D
330
18
100
AcDbEntity
  8
SK1
100
AcDbLine
 10
-41.9
 20
-8.0
 30
0.0
 11
-40.4
 21
-6.5
 31
0.0
  0
LINE
  5
38E
330
18
100
AcDbEntity
  8
SK1
100
AcDbLine
 10
-41.9
 20
8.0
 30
0.0
 11
-40.4
 21
6.5
 31
0.0
  0
LINE
  5
38F
330
18
100
AcDbEntity
  8
SK3
100
AcDbLine
 10
-71.4
 20
3.5
 30
0.0
 11
-40.4
 21
3.5
 31
0.0
  0
LINE
  5
390
330
18
100
AcDbEntity
  8
SK3
100
AcDbLine
 10
-71.4
 20
-3.5
 30
0.0
 11
-40.4
 21
-3.5
 31
0.0
  0
LINE
  5
391
330
18
100
AcDbEntity
  8
SK4
  6
CENTER
100
AcDbLine
 10
-96.35272568941729
 20
0.0
 30
0.0
 11
-38.39999999999999
 21
0.0
 31
0.0
  0
LINE
  5
392
330
18
100
AcDbEntity
  8
SK2
100
AcDbLine
 10
-41.9
 20
-8.0
 30
0.0
 11
-31.89999999999999
 21
-8.0
 31
0.0
  0
LINE
  5
393
330
18
100
AcDbEntity
  8
SK2
100
AcDbLine
 10
-41.9
 20
8.0
 30
0.0
 11
-31.89999999999999
 21
8.0
 31
0.0
  0
LINE
  5
394
330
18
100
AcDbEntity
  8
SK2
100
AcDbLine
 10
-14.4
 20
12.572
 30
0.0
 11
-14.4
 21
17.14399999999999
 31
0.0
  0
LINE
  5
395
330
18
100
AcDbEntity
  8
SK2
100
AcDbLine
 10
-14.4
 20
-12.572
 30
0.0
 11
-14.4
 21
-17.14399999999999
 31
0.0
  0
SOLID
  5
396
330
18
100
AcDbEntity
  8
SK2
100
AcDbTrace
 10
-13.638
 20
12.572
 30
0.0
 11
-15.162
 21
12.572
 31
0.0
 12
-14.4
 22
8.0
 32
0.0
 13
-14.4
 23
8.0
 33
0.0
  0
SOLID
  5
397
330
18
100
AcDbEntity
  8
SK2
100
AcDbTrace
 10
-13.638
 20
-12.572
 30
0.0
 11
-15.162
 21
-12.572
 31
0.0
 12
-14.4
 22
-8.0
 32
0.0
 13
-14.4
 23
-8.0
 33
0.0
  0
TEXT
  5
398
330
18
100
AcDbEntity
  8
SK2
100
AcDbText
 10
-12.114
 20
-6.283999999999999
 30
0.0
 40
4.572
  1
M16
 50
90.0
  7
SIMPLEX
100
AcDbText
  0
LINE
  5
399
330
18
100
AcDbEntity
  8
SK2
100
AcDbLine
 10
-40.4
 20
-3.5
 30
0.0
 11
-24.828
 21
-3.5
 31
0.0
  0
LINE
  5
39A
330
18
100
AcDbEntity
  8
SK2
100
AcDbLine
 10
-40.4
 20
3.5
 30
0.0
 11
-24.828
 21
3.5
 31
0.0
  0
LINE
  5
39B
330
18
100
AcDbEntity
  8
SK2
100
AcDbLine
 10
-29.39999999999999
 20
8.071999999999999
 30
0.0
 11
-29.39999999999999
 21
12.644
 31
0.0
  0
LINE
  5
39C
330
18
100
AcDbEntity
  8
SK2
100
AcDbLine
 10
-29.39999999999999
 20
-8.071999999999999
 30
0.0
 11
-29.39999999999999
 21
-12.644
 31
0.0
  0
SOLID
  5
39D
330
18
100
AcDbEntity
  8
SK2
100
AcDbTrace
 10
-28.638
 20
8.071999999999999
 30
0.0
 11
-30.16199999999999
 21
8.071999999999999
 31
0.0
 12
-29.39999999999999
 22
3.5
 32
0.0
 13
-29.39999999999999
 23
3.5
 33
0.0
  0
SOLID
  5
39E
330
18
100
AcDbEntity
  8
SK2
100
AcDbTrace
 10
-28.638
 20
-8.071999999999999
 30
0.0
 11
-30.16199999999999
 21
-8.071999999999999
 31
0.0
 12
-29.39999999999999
 22
-3.5
 32
0.0
 13
-29.39999999999999
 23
-3.5
 33
0.0
  0
TEXT
  5
39F
330
18
100
AcDbEntity
  8
SK2
100
AcDbText
 10
-27.114
 20
14.21599999999999
 30
0.0
 40
4.572
  1
%%C7
 50
90.0
  7
SIMPLEX
100
AcDbText
  0
LINE
  5
3A0
330
18
100
AcDbEntity
  8
SK2
100
AcDbLine
 10
-26.4
 20
8.0
 30
0.0
 11
-9.827999999999999
 21
8.0
 31
0.0
  0
LINE
  5
3A1
330
18
100
AcDbEntity
  8
SK2
100
AcDbLine
 10
-26.4
 20
-8.0
 30
0.0
 11
-9.827999999999999
 21
-8.0
 31
0.0
  0
LINE
  5
3A2
330
18
100
AcDbEntity
  8
SK2
100
AcDbLine
 10
-61.4
 20
-8.5
 30
0.0
 11
-31.89999999999999
 21
-8.5
 31
0.0
  0
LINE
  5
3A3
330
18
100
AcDbEntity
  8
SK2
100
AcDbLine
 10
-61.4
 20
8.5
 30
0.0
 11
-31.89999999999999
 21
8.5
 31
0.0
  0
LINE
  5
3A4
330
18
100
AcDbEntity
  8
SK2
100
AcDbLine
 10
0.6
 20
13.07199999999999
 30
0.0
 11
0.6
 21
17.644
 31
0.0
  0
LINE
  5
3A5
330
18
100
AcDbEntity
  8
SK2
100
AcDbLine
 10
0.6
 20
-13.07199999999999
 30
0.0
 11
0.6
 21
-17.644
 31
0.0
  0
SOLID
  5
3A6
330
18
100
AcDbEntity
  8
SK2
100
AcDbTrace
 10
1.362
 20
13.07199999999999
 30
0.0
 11
-0.162
 21
13.07199999999999
 31
0.0
 12
0.6
 22
8.5
 32
0.0
 13
0.6
 23
8.5
 33
0.0
  0
SOLID
  5
3A7
330
18
100
AcDbEntity
  8
SK2
100
AcDbTrace
 10
1.362
 20
-13.07199999999999
 30
0.0
 11
-0.162
 21
-13.07199999999999
 31
0.0
 12
0.6
 22
-8.5
 32
0.0
 13
0.6
 23
-8.5
 33
0.0
  0
TEXT
  5
3A8
330
18
100
AcDbEntity
  8
SK2
100
AcDbText
 10
2.886
 20
-5.283999999999999
 30
0.0
 40
4.572
  1
%%C17
 50
90.0
  7
SIMPLEX
100
AcDbText
  0
LINE
  5
3A9
330
18
100
AcDbEntity
  8
SK2
100
AcDbLine
 10
-26.4
 20
8.5
 30
0.0
 11
-16.89999999999999
 21
8.5
 31
0.0
  0
LINE
  5
3AA
330
18
100
AcDbEntity
  8
SK2
100
AcDbLine
 10
-26.4
 20
-8.5
 30
0.0
 11
-16.89999999999999
 21
-8.5
 31
0.0
  0
LINE
  5
3AB
330
18
100
AcDbEntity
  8
SK2
100
AcDbLine
 10
-11.4
 20
-8.5
 30
0.0
 11
5.171999999999999
 21
-8.5
 31
0.0
  0
LINE
  5
3AC
330
18
100
AcDbEntity
  8
SK2
100
AcDbLine
 10
-11.4
 20
8.5
 30
0.0
 11
5.171999999999999
 21
8.5
 31
0.0
  0
LINE
  5
3AD
330
18
100
AcDbEntity
  8
1
100
AcDbLine
 10
-68.39999999999999
 20
11.49999999999999
 30
0.0
 11
-68.40000000000002
 21
-11.49999999999999
 31
0.0
  0
LINE
  5
3AE
330
18
100
AcDbEntity
  8
SK1
100
AcDbLine
 10
-61.4
 20
8.5
 30
0.0
 11
-59.692843
 21
6.792885
 31
0.0
  0
ARC
  5
3AF
330
18
100
AcDbEntity
  8
SK1
100
AcDbCircle
 10
-58.985745
 20
7.5
 30
0.0
 40
1.0
100
AcDbArc
 50
225.000697
 51
270.0
  0
LINE
  5
3B0
330
18
100
AcDbEntity
  8
SK1
100
AcDbLine
 10
-60.4
 20
7.500023999999999
 30
0.0
 11
-60.4
 21
-7.500023999999999
 31
0.0
  0
ARC
  5
3B1
330
18
100
AcDbEntity
  8
SK1
100
AcDbCircle
 10
-58.985745
 20
-7.5
 30
0.0
 40
1.0
100
AcDbArc
 50
90.0
 51
134.999303
  0
LINE
  5
3B2
330
18
100
AcDbEntity
  8
SK1
100
AcDbLine
 10
-61.4
 20
-8.5
 30
0.0
 11
-59.692843
 21
-6.792885
 31
0.0
  0
ARC
  5
3B3
330
18
100
AcDbEntity
  8
SK1
100
AcDbCircle
 10
-56.67698399999999
 20
-7.5
 30
0.0
 40
1.0
100
AcDbArc
 50
59.036243
 51
90.0
  0
LINE
  5
3B4
330
18
100
AcDbEntity
  8
SK1
100
AcDbLine
 10
-53.9
 20
-8.0
 30
0.0
 11
-56.16248800000001
 21
-6.642507
 31
0.0
  0
LINE
  5
3B5
330
18
100
AcDbEntity
  8
SK1
100
AcDbLine
 10
-58.985745
 20
-6.5
 30
0.0
 11
-56.67698399999999
 21
-6.5
 31
0.0
  0
LINE
  5
3B6
330
18
100
AcDbEntity
  8
SK3
  6
CONTINUOUS
100
AcDbLine
 10
-59.4
 20
6.0
 30
0.0
 11
-59.4
 21
-6.0
 31
0.0
  0
LINE
  5
3B7
330
18
100
AcDbEntity
  8
SK1
100
AcDbLine
 10
-93.40000000000001
 20
10.54999999999999
 30
0.0
 11
-86.39999999999998
 21
10.55
 31
0.0
  0
LINE
  5
3B8
330
18
100
AcDbEntity
  8
1
100
AcDbLine
 10
-81.47749907475931
 20
-10.54999999999999
 30
0.0
 11
-74.39999999999999
 21
-10.54999999999999
 31
0.0
  0
LINE
  5
3B9
330
18
100
AcDbEntity
  8
1
100
AcDbLine
 10
-93.40000000000001
 20
11.32352899999999
 30
0.0
 11
-93.40000000000001
 21
-11.32352899999999
 31
0.0
  0
LINE
  5
3BA
330
18
100
AcDbEntity
  8
1
100
AcDbLine
 10
-81.47749907475931
 20
10.55000000000002
 30
0.0
 11
-81.47749907475931
 21
-10.55000000000006
 31
0.0
  0
LINE
  5
3BB
330
18
100
AcDbEntity
  8
1
100
AcDbLine
 10
-91.39999999999998
 20
12.5
 30
0.0
 11
-81.99999999999999
 21
12.5
 31
0.0
  0
LINE
  5
3BC
330
18
100
AcDbEntity
  8
1
100
AcDbLine
 10
-91.39999999999998
 20
-12.5
 30
0.0
 11
-81.99999999999999
 21
-12.5
 31
0.0
  0
LINE
  5
3BD
330
18
100
AcDbEntity
  8
1
100
AcDbLine
 10
-81.47749907475931
 20
10.54999999999999
 30
0.0
 11
-82.0
 21
12.5
 31
0.0
  0
LINE
  5
3BE
330
18
100
AcDbEntity
  8
1
100
AcDbLine
 10
-81.47749907475931
 20
-10.54999999999999
 30
0.0
 11
-82.0
 21
-12.5
 31
0.0
  0
LINE
  5
3BF
330
18
100
AcDbEntity
  8
1
100
AcDbLine
 10
-82.0
 20
12.5
 30
0.0
 11
-82.0
 21
-12.5
 31
0.0
  0
LINE
  5
3C0
330
18
100
AcDbEntity
  8
1
100
AcDbLine
 10
-74.39999999999999
 20
11.49999999999999
 30
0.0
 11
-74.39999999999999
 21
4.477466645604465
 31
0.0
  0
LINE
  5
3C1
330
18
100
AcDbEntity
  8
1
100
AcDbLine
 10
-68.4
 20
6.40275
 30
0.0
 11
-74.40000000000001
 21
-6.40275
 31
0.0
  0
LINE
  5
3C2
330
18
100
AcDbEntity
  8
1
100
AcDbLine
 10
-74.40000000000001
 20
6.40275
 30
0.0
 11
-68.4
 21
-6.40275
 31
0.0
  0
LINE
  5
3C3
330
18
100
AcDbEntity
  8
1
100
AcDbLine
 10
-68.4
 20
11.5
 30
0.0
 11
-74.39999999999999
 21
11.5
 31
0.0
  0
LINE
  5
3C4
330
18
100
AcDbEntity
  8
1
100
AcDbLine
 10
-68.4
 20
6.40275
 30
0.0
 11
-74.40000000000001
 21
6.40275
 31
0.0
  0
LINE
  5
3C5
330
18
100
AcDbEntity
  8
1
100
AcDbLine
 10
-68.4
 20
-11.5
 30
0.0
 11
-74.39999999999999
 21
-11.5
 31
0.0
  0
LINE
  5
3C6
330
18
100
AcDbEntity
  8
1
100
AcDbLine
 10
-68.4
 20
-6.40275
 30
0.0
 11
-74.40000000000001
 21
-6.40275
 31
0.0
  0
LINE
  5
3C7
330
18
100
AcDbEntity
  8
1
100
AcDbLine
 10
-76.39999999999999
 20
4.477466645604465
 30
0.0
 11
-74.39999999999999
 21
4.477466645604465
 31
0.0
  0
LINE
  5
3C8
330
18
100
AcDbEntity
  8
1
100
AcDbLine
 10
-76.39999999999999
 20
4.477466645604465
 30
0.0
 11
-76.4
 21
-4.477466645604465
 31
0.0
  0
LINE
  5
3C9
330
18
100
AcDbEntity
  8
1
100
AcDbLine
 10
-76.40000000000002
 20
-4.477466645604465
 30
0.0
 11
-74.40000000000001
 21
-4.477466645604465
 31
0.0
  0
LINE
  5
3CA
330
18
100
AcDbEntity
  8
1
100
AcDbLine
 10
-74.40000000000001
 20
-4.477466645604465
 30
0.0
 11
-74.40000000000002
 21
-11.49999999999999
 31
0.0
  0
LINE
  5
3CB
330
18
100
AcDbEntity
  8
1
100
AcDbLine
 10
-91.4
 20
12.5
 30
0.0
 11
-93.40000000000001
 21
11.323529
 31
0.0
  0
LINE
  5
3CC
330
18
100
AcDbEntity
  8
1
100
AcDbLine
 10
-86.39999999999998
 20
12.5
 30
0.0
 11
-86.4
 21
-12.5
 31
0.0
  0
LINE
  5
3CD
330
18
100
AcDbEntity
  8
1
100
AcDbLine
 10
-91.4
 20
-12.5
 30
0.0
 11
-93.40000000000001
 21
-11.323529
 31
0.0
  0
LINE
  5
3CE
330
18
100
AcDbEntity
  8
1
100
AcDbLine
 10
-81.47749907475931
 20
10.55
 30
0.0
 11
-74.39999999999999
 21
10.54999999999999
 31
0.0
  0
LINE
  5
3CF
330
18
100
AcDbEntity
  8
SK1
100
AcDbLine
 10
-93.40000000000001
 20
-10.54999999999999
 30
0.0
 11
-86.39999999999998
 21
-10.55
 31
0.0
  0
LINE
  5
3D3
330
18
100
AcDbEntity
  8
SK6
100
AcDbLine
 10
-93.39999999999999
 20
11.21998381045566
 30
0.0
 11
-93.14853298537309
 21
11.47145082508256
 31
0.0
  0
LINE
  5
3D4
330
18
100
AcDbEntity
  8
SK6
100
AcDbLine
 10
-93.40000000000001
 20
10.77097100440219
 30
0.0
 11
-92.05807276829885
 21
12.11289823610335
 31
0.0
  0
LINE
  5
3D5
330
18
100
AcDbEntity
  8
SK6
100
AcDbLine
 10
-93.17195819834873
 20
10.54999999999999
 30
0.0
 11
-91.22195819834873
 21
12.49999999999999
 31
0.0
  0
LINE
  5
3D6
330
18
100
AcDbEntity
  8
SK6
100
AcDbLine
 10
-92.72294539229529
 20
10.54999999999999
 30
0.0
 11
-90.77294539229527
 21
12.5
 31
0.0
  0
LINE
  5
3D7
330
18
100
AcDbEntity
  8
SK6
100
AcDbLine
 10
-92.2739325862418
 20
10.55
 30
0.0
 11
-90.32393258624182
 21
12.5
 31
0.0
  0
LINE
  5
3D8
330
18
100
AcDbEntity
  8
SK6
100
AcDbLine
 10
-91.82491978018836
 20
10.54999999999999
 30
0.0
 11
-89.87491978018836
 21
12.5
 31
0.0
  0
LINE
  5
3D9
330
18
100
AcDbEntity
  8
SK6
100
AcDbLine
 10
-91.37590697413489
 20
10.55
 30
0.0
 11
-89.42590697413491
 21
12.5
 31
0.0
  0
LINE
  5
3DA
330
18
100
AcDbEntity
  8
SK6
100
AcDbLine
 10
-90.92689416808145
 20
10.54999999999999
 30
0.0
 11
-88.97689416808145
 21
12.5
 31
0.0
  0
LINE
  5
3DB
330
18
100
AcDbEntity
  8
SK6
100
AcDbLine
 10
-90.47788136202798
 20
10.54999999999999
 30
0.0
 11
-88.52788136202798
 21
12.5
 31
0.0
  0
LINE
  5
3DC
330
18
100
AcDbEntity
  8
SK6
100
AcDbLine
 10
-90.02886855597452
 20
10.55
 30
0.0
 11
-88.07886855597454
 21
12.5
 31
0.0
  0
LINE
  5
3DD
330
18
100
AcDbEntity
  8
SK6
100
AcDbLine
 10
-89.57985574992108
 20
10.55
 30
0.0
 11
-87.62985574992105
 21
12.5
 31
0.0
  0
LINE
  5
3DE
330
18
100
AcDbEntity
  8
SK6
100
AcDbLine
 10
-89.13084294386761
 20
10.55
 30
0.0
 11
-87.18084294386761
 21
12.5
 31
0.0
  0
LINE
  5
3DF
330
18
100
AcDbEntity
  8
SK6
100
AcDbLine
 10
-88.68183013781417
 20
10.55
 30
0.0
 11
-86.73183013781414
 21
12.5
 31
0.0
  0
LINE
  5
3E0
330
18
100
AcDbEntity
  8
SK6
100
AcDbLine
 10
-88.2328173317607
 20
10.54999999999999
 30
0.0
 11
-86.39999999999998
 21
12.3828173317607
 31
0.0
  0
LINE
  5
3E1
330
18
100
AcDbEntity
  8
SK6
100
AcDbLine
 10
-87.78380452570724
 20
10.54999999999999
 30
0.0
 11
-86.4
 21
11.93380452570723
 31
0.0
  0
LINE
  5
3E2
330
18
100
AcDbEntity
  8
SK6
100
AcDbLine
 10
-87.33479171965379
 20
10.55
 30
0.0
 11
-86.4
 21
11.48479171965378
 31
0.0
  0
LINE
  5
3E3
330
18
100
AcDbEntity
  8
SK6
100
AcDbLine
 10
-86.88577891360031
 20
10.55
 30
0.0
 11
-86.4
 21
11.03577891360033
 31
0.0
  0
LINE
  5
3E4
330
18
100
AcDbEntity
  8
SK6
100
AcDbLine
 10
-86.43676610754686
 20
10.55
 30
0.0
 11
-86.4
 21
10.58676610754687
 31
0.0
  0
LINE
  5
3E5
330
18
100
AcDbEntity
  8
SK6
100
AcDbLine
 10
-93.40000000000003
 20
-10.7816436861638
 30
0.0
 11
-93.16835631383622
 21
-10.54999999999999
 31
0.0
  0
LINE
  5
3E6
330
18
100
AcDbEntity
  8
SK6
100
AcDbLine
 10
-93.40000000000003
 20
-11.23065649221725
 30
0.0
 11
-92.71934350778275
 21
-10.54999999999999
 31
0.0
  0
LINE
  5
3E7
330
18
100
AcDbEntity
  8
SK6
100
AcDbLine
 10
-93.17576354497132
 20
-11.45543284324201
 30
0.0
 11
-92.27033070172929
 21
-10.54999999999998
 31
0.0
  0
LINE
  5
3E8
330
18
100
AcDbEntity
  8
SK6
100
AcDbLine
 10
-92.89305181484474
 20
-11.62173391916889
 30
0.0
 11
-91.82131789567582
 21
-10.54999999999999
 31
0.0
  0
LINE
  5
3E9
330
18
100
AcDbEntity
  8
SK6
100
AcDbLine
 10
-92.61034008471815
 20
-11.78803499509577
 30
0.0
 11
-91.37230508962238
 21
-10.54999999999999
 31
0.0
  0
LINE
  5
3EA
330
18
100
AcDbEntity
  8
SK6
100
AcDbLine
 10
-92.32762835459158
 20
-11.95433607102263
 30
0.0
 11
-90.92329228356893
 21
-10.54999999999999
 31
0.0
  0
LINE
  5
3EB
330
18
100
AcDbEntity
  8
SK6
100
AcDbLine
 10
-92.044916624465
 20
-12.12063714694951
 30
0.0
 11
-90.47427947751549
 21
-10.55
 31
0.0
  0
LINE
  5
3EC
330
18
100
AcDbEntity
  8
SK6
100
AcDbLine
 10
-91.76220489433841
 20
-12.28693822287638
 30
0.0
 11
-90.02526667146202
 21
-10.54999999999999
 31
0.0
  0
LINE
  5
3ED
330
18
100
AcDbEntity
  8
SK6
100
AcDbLine
 10
-91.47949316421181
 20
-12.45323929880326
 30
0.0
 11
-89.57625386540856
 21
-10.54999999999999
 31
0.0
  0
LINE
  5
3EE
330
18
100
AcDbEntity
  8
SK6
100
AcDbLine
 10
-91.07724105935508
 20
-12.49999999999999
 30
0.0
 11
-89.1272410593551
 21
-10.54999999999999
 31
0.0
  0
LINE
  5
3EF
330
18
100
AcDbEntity
  8
SK6
100
AcDbLine
 10
-90.62822825330163
 20
-12.49999999999999
 30
0.0
 11
-88.67822825330165
 21
-10.55
 31
0.0
  0
LINE
  5
3F0
330
18
100
AcDbEntity
  8
SK6
100
AcDbLine
 10
-90.17921544724819
 20
-12.5
 30
0.0
 11
-88.22921544724819
 21
-10.54999999999999
 31
0.0
  0
LINE
  5
3F1
330
18
100
AcDbEntity
  8
SK6
100
AcDbLine
 10
-89.73020264119472
 20
-12.49999999999999
 30
0.0
 11
-87.78020264119474
 21
-10.55
 31
0.0
  0
LINE
  5
3F2
330
18
100
AcDbEntity
  8
SK6
100
AcDbLine
 10
-89.28118983514128
 20
-12.49999999999999
 30
0.0
 11
-87.33118983514126
 21
-10.54999999999999
 31
0.0
  0
LINE
  5
3F3
330
18
100
AcDbEntity
  8
SK6
100
AcDbLine
 10
-88.8321770290878
 20
-12.49999999999998
 30
0.0
 11
-86.88217702908781
 21
-10.55
 31
0.0
  0
LINE
  5
3F4
330
18
100
AcDbEntity
  8
SK6
100
AcDbLine
 10
-88.38316422303435
 20
-12.5
 30
0.0
 11
-86.43316422303435
 21
-10.54999999999999
 31
0.0
  0
LINE
  5
3F5
330
18
100
AcDbEntity
  8
SK6
100
AcDbLine
 10
-87.93415141698089
 20
-12.49999999999999
 30
0.0
 11
-86.40000000000002
 21
-10.96584858301912
 31
0.0
  0
LINE
  5
3F6
330
18
100
AcDbEntity
  8
SK6
100
AcDbLine
 10
-87.48513861092744
 20
-12.5
 30
0.0
 11
-86.40000000000004
 21
-11.41486138907258
 31
0.0
  0
LINE
  5
3F7
330
18
100
AcDbEntity
  8
SK6
100
AcDbLine
 10
-87.036125804874
 20
-12.5
 30
0.0
 11
-86.4
 21
-11.86387419512602
 31
0.0
  0
LINE
  5
3F8
330
18
100
AcDbEntity
  8
SK6
100
AcDbLine
 10
-86.58711299882051
 20
-12.49999999999999
 30
0.0
 11
-86.4
 21
-12.31288700117948
 31
0.0
  0
LINE
  5
3FB
330
18
100
AcDbEntity
  8
1
100
AcDbLine
 10
-91.39999999999998
 20
12.5
 30
0.0
 11
-91.39999999999998
 21
-12.5
 31
0.0
  0
LINE
  5
3FD
330
18
100
AcDbEntity
  8
SK2
100
AcDbLine
 10
-81.47749907475931
 20
10.55000000000002
 30
0.0
 11
-85.39999999999999
 21
10.55000000000002
 31
0.0
  0
LINE
  5
3FE
330
18
100
AcDbEntity
  8
SK2
100
AcDbLine
 10
-81.47749907475931
 20
-10.55000000000006
 30
0.0
 11
-85.39999999999999
 21
-10.55000000000006
 31
0.0
  0
LINE
  5
3FF
330
18
100
AcDbEntity
  8
SK2
100
AcDbLine
 10
-115.0
 20
5.980000000000029
 30
0.0
 11
-115.0
 21
-5.980000000000059
 31
0.0
  0
SOLID
  5
400
330
18
100
AcDbEntity
  8
SK2
100
AcDbTrace
 10
-115.7616666666666
 20
5.980000000000029
 30
0.0
 11
-114.2383333333333
 21
5.980000000000029
 31
0.0
 12
-115.0
 22
10.55000000000003
 32
0.0
 13
-115.0
 23
10.55000000000003
 33
0.0
  0
SOLID
  5
401
330
18
100
AcDbEntity
  8
SK2
100
AcDbTrace
 10
-115.7616666666666
 20
-5.980000000000059
 30
0.0
 11
-114.2383333333333
 21
-5.980000000000059
 31
0.0
 12
-115.0
 22
-10.55000000000006
 32
0.0
 13
-115.0
 23
-10.55000000000006
 33
0.0
  0
LINE
  5
403
330
18
100
AcDbEntity
  8
SK2
100
AcDbLine
 10
-94.29419369044524
 20
10.55000000000003
 30
0.0
 11
-120.0
 21
10.55000000000003
 31
0.0
  0
LINE
  5
404
330
18
100
AcDbEntity
  8
SK2
100
AcDbLine
 10
-94.29419369044524
 20
-10.55000000000006
 30
0.0
 11
-120.0
 21
-10.55000000000005
 31
0.0
  0
POLYLINE
  5
407
330
18
100
AcDbEntity
  8
SK2
100
AcDb2dPolyline
 66
     1
 10
0.0
 20
0.0
 30
0.0
1001
ACAD
1000
DSTYLE
1002
{
1070
    41
1040
1.0
1070
   341
1005
36A
1070
   147
1040
2.299999999999999
1070
    77
1070
     0
1002
}
  0
VERTEX
  5
4AA
330
407
100
AcDbEntity
  8
SK2
100
AcDbVertex
100
AcDb2dVertex
 10
-88.87662408574124
 20
-12.3057057993486
 30
0.0
  0
VERTEX
  5
4AB
330
407
100
AcDbEntity
  8
SK2
100
AcDbVertex
100
AcDb2dVertex
 10
-83.73380087045701
 20
-21.02635833590102
 30
0.0
  0
VERTEX
  5
4AC
330
407
100
AcDbEntity
  8
SK2
100
AcDbVertex
100
AcDb2dVertex
 10
-67.85592911600763
 20
-21.02635833590102
 30
0.0
  0
SEQEND
  5
4AD
330
407
100
AcDbEntity
  8
SK2
  0
LINE
  5
408
330
18
100
AcDbEntity
  8
SK2
100
AcDbLine
 10
-91.4
 20
12.5
 30
0.0
 11
-135.0
 21
12.5
 31
0.0
  0
LINE
  5
409
330
18
100
AcDbEntity
  8
SK2
100
AcDbLine
 10
-91.4
 20
-12.5
 30
0.0
 11
-135.0
 21
-12.49999999999999
 31
0.0
  0
LINE
  5
40A
330
18
100
AcDbEntity
  8
SK2
100
AcDbLine
 10
-130.0
 20
7.93
 30
0.0
 11
-130.0
 21
-7.929999999999991
 31
0.0
  0
SOLID
  5
40B
330
18
100
AcDbEntity
  8
SK2
100
AcDbTrace
 10
-130.7616666666666
 20
7.93
 30
0.0
 11
-129.2383333333333
 21
7.93
 31
0.0
 12
-130.0
 22
12.5
 32
0.0
 13
-130.0
 23
12.5
 33
0.0
  0
SOLID
  5
40C
330
18
100
AcDbEntity
  8
SK2
100
AcDbTrace
 10
-130.7616666666666
 20
-7.929999999999991
 30
0.0
 11
-129.2383333333333
 21
-7.929999999999991
 31
0.0
 12
-130.0
 22
-12.49999999999999
 32
0.0
 13
-130.0
 23
-12.49999999999999
 33
0.0
  0
ARC
  5
43E
330
18
100
AcDbEntity
  8
SK1
100
AcDbCircle
 10
-67.393757
 20
9.504721999999999
 30
0.0
 40
1.412768999999999
100
AcDbArc
 50
224.9999999999996
 51
315.0000000000003
  0
ARC
  5
43F
330
18
100
AcDbEntity
  8
SK1
100
AcDbCircle
 10
-67.393757
 20
-9.504721999999999
 30
0.0
 40
1.412768999999999
100
AcDbArc
 50
44.99999999999956
 51
135.0000000000004
  0
LINE
  5
440
330
18
100
AcDbEntity
  8
SK1
100
AcDbLine
 10
-66.4
 20
8.5
 30
0.0
 11
-66.4
 21
-8.5
 31
0.0
  0
LINE
  5
45A
330
18
100
AcDbEntity
  8
SK3
  6
CONTINUOUS
100
AcDbLine
 10
-91.39999999999998
 20
-7.0
 30
0.0
 11
-79.90000000000001
 21
-7.0
 31
0.0
  0
LINE
  5
45C
330
18
100
AcDbEntity
  8
SK3
  6
CONTINUOUS
100
AcDbLine
 10
-92.4
 20
-8.0
 30
0.0
 11
-71.4
 21
-8.0
 31
0.0
  0
LINE
  5
45D
330
18
100
AcDbEntity
  8
SK3
  6
CONTINUOUS
100
AcDbLine
 10
-91.39999999999998
 20
7.0
 30
0.0
 11
-79.90000000000001
 21
7.0
 31
0.0
  0
LINE
  5
460
330
18
100
AcDbEntity
  8
SK3
  6
CONTINUOUS
100
AcDbLine
 10
-71.4
 20
8.0
 30
0.0
 11
-92.4
 21
8.0
 31
0.0
  0
LINE
  5
461
330
18
100
AcDbEntity
  8
SK3
  6
CONTINUOUS
100
AcDbLine
 10
-79.90000000000001
 20
7.0
 30
0.0
 11
-79.90000000000001
 21
-7.0
 31
0.0
  0
LINE
  5
462
330
18
100
AcDbEntity
  8
SK3
  6
CONTINUOUS
100
AcDbLine
 10
-71.4
 20
8.0
 30
0.0
 11
-71.4
 21
-8.0
 31
0.0
  0
LINE
  5
463
330
18
100
AcDbEntity
  8
SK3
  6
CONTINUOUS
100
AcDbLine
 10
-79.90000000000001
 20
6.999999999999992
 30
0.0
 11
-78.90000000000002
 21
8.0
 31
0.0
  0
LINE
  5
464
330
18
100
AcDbEntity
  8
SK3
  6
CONTINUOUS
100
AcDbLine
 10
-79.90000000000001
 20
-6.999999999999992
 30
0.0
 11
-78.90000000000002
 21
-8.0
 31
0.0
  0
LINE
  5
465
330
18
100
AcDbEntity
  8
SK3
  6
CONTINUOUS
100
AcDbLine
 10
-78.90000000000002
 20
8.0
 30
0.0
 11
-78.90000000000002
 21
-8.0
 31
0.0
  0
LINE
  5
466
330
18
100
AcDbEntity
  8
SK3
  6
CONTINUOUS
100
AcDbLine
 10
-91.39999999999998
 20
7.0
 30
0.0
 11
-93.40000000000001
 21
9.000000000000023
 31
0.0
  0
LINE
  5
467
330
18
100
AcDbEntity
  8
SK3
  6
CONTINUOUS
100
AcDbLine
 10
-91.39999999999998
 20
-7.0
 30
0.0
 11
-93.40000000000001
 21
-9.000000000000023
 31
0.0
  0
LINE
  5
475
330
18
100
AcDbEntity
  8
SK2
100
AcDbLine
 10
-92.4
 20
8.0
 30
0.0
 11
-105.0
 21
8.000000000000003
 31
0.0
  0
LINE
  5
476
330
18
100
AcDbEntity
  8
SK2
100
AcDbLine
 10
-92.4
 20
-8.0
 30
0.0
 11
-105.0
 21
-7.999999999999998
 31
0.0
  0
LINE
  5
477
330
18
100
AcDbEntity
  8
SK2
100
AcDbLine
 10
-100.0
 20
3.430000000000002
 30
0.0
 11
-100.0
 21
-3.429999999999998
 31
0.0
  0
SOLID
  5
478
330
18
100
AcDbEntity
  8
SK2
100
AcDbTrace
 10
-100.7616666666666
 20
3.430000000000002
 30
0.0
 11
-99.23833333333334
 21
3.430000000000002
 31
0.0
 12
-100.0
 22
8.000000000000003
 32
0.0
 13
-100.0
 23
8.000000000000003
 33
0.0
  0
SOLID
  5
479
330
18
100
AcDbEntity
  8
SK2
100
AcDbTrace
 10
-100.7616666666666
 20
-3.429999999999998
 30
0.0
 11
-99.23833333333334
 21
-3.429999999999998
 31
0.0
 12
-100.0
 22
-7.999999999999999
 32
0.0
 13
-100.0
 23
-7.999999999999999
 33
0.0
  0
POLYLINE
  5
47C
330
18
100
AcDbEntity
  8
SK2
 62
     0
100
AcDb2dPolyline
 66
     1
 10
0.0
 20
0.0
 30
0.0
 70
     1
 40
0.5
 41
0.5
  0
VERTEX
  5
4AE
330
47C
100
AcDbEntity
  8
SK2
 62
     0
100
AcDbVertex
100
AcDb2dVertex
 10
-89.25760594079887
 20
-11.65967729679097
 30
0.0
 42
1.0
  0
VERTEX
  5
4AF
330
47C
100
AcDbEntity
  8
SK2
 62
     0
100
AcDbVertex
100
AcDb2dVertex
 10
-89.51159384417062
 20
-11.22899162841922
 30
0.0
 42
1.0
  0
SEQEND
  5
4B0
330
47C
100
AcDbEntity
  8
SK2
 62
     0
  0
LINE
  5
47D
330
18
100
AcDbEntity
  8
SK2
 62
     0
100
AcDbLine
 10
-89.13061198911298
 20
-11.87502013097685
 30
0.0
 11
-88.87662408574124
 21
-12.3057057993486
 31
0.0
  0
LINE
  5
47E
330
18
100
AcDbEntity
  8
SK2
100
AcDbLine
 10
-81.99999999999999
 20
12.5
 30
0.0
 11
-82.0
 21
52.22287203260338
 31
0.0
  0
LINE
  5
47F
330
18
100
AcDbEntity
  8
SK2
100
AcDbLine
 10
-81.99999999999999
 20
12.5
 30
0.0
 11
-92.28103580820819
 21
50.86934799066729
 31
0.0
  0
ARC
  5
480
330
18
100
AcDbEntity
  8
SK2
100
AcDbCircle
 10
-81.99999999999999
 20
12.5
 30
0.0
 40
34.72287203260338
100
AcDbArc
 50
74.90729298179125
 51
82.45364649089562
  0
ARC
  5
481
330
18
100
AcDbEntity
  8
SK2
100
AcDbCircle
 10
-81.99999999999999
 20
12.5
 30
0.0
 40
34.72287203260338
100
AcDbArc
 50
112.5463535091046
 51
120.092707018209
  0
SOLID
  5
482
330
18
100
AcDbEntity
  8
SK2
100
AcDbTrace
 10
-77.49002882098906
 20
46.1621194339255
 30
0.0
 11
-77.38978317704007
 21
47.68215076758731
 31
0.0
 12
-82.0
 22
47.22287203260338
 32
0.0
 13
-82.0
 23
47.22287203260338
 33
0.0
  0
SOLID
  5
483
330
18
100
AcDbEntity
  8
SK2
100
AcDbTrace
 10
-95.55893816040933
 20
45.29013613497422
 30
0.0
 11
-95.06869524564176
 21
43.84784409486424
 31
0.0
 12
-90.98694058269556
 22
46.03971885922195
 32
0.0
 13
-90.98694058269556
 23
46.03971885922195
 33
0.0
  0
LINE
  5
485
330
18
100
AcDbEntity
  8
SK2
100
AcDbLine
 10
-81.99999999999999
 20
12.5
 30
0.0
 11
-81.99999999999999
 21
65.0
 31
0.0
  0
LINE
  5
486
330
18
100
AcDbEntity
  8
SK2
100
AcDbLine
 10
-68.4
 20
11.5
 30
0.0
 11
-68.4
 21
65.0
 31
0.0
  0
LINE
  5
487
330
18
100
AcDbEntity
  8
SK2
100
AcDbLine
 10
-86.57
 20
60.0
 30
0.0
 11
-91.13999999999998
 21
60.0
 31
0.0
  0
LINE
  5
488
330
18
100
AcDbEntity
  8
SK2
100
AcDbLine
 10
-63.83
 20
60.0
 30
0.0
 11
-41.82047619047619
 21
60.0
 31
0.0
  0
SOLID
  5
489
330
18
100
AcDbEntity
  8
SK2
100
AcDbTrace
 10
-86.57
 20
60.76166666666667
 30
0.0
 11
-86.57
 21
59.23833333333333
 31
0.0
 12
-81.99999999999999
 22
60.0
 32
0.0
 13
-81.99999999999999
 23
60.0
 33
0.0
  0
SOLID
  5
48A
330
18
100
AcDbEntity
  8
SK2
100
AcDbTrace
 10
-63.83
 20
60.76166666666667
 30
0.0
 11
-63.83
 21
59.23833333333333
 31
0.0
 12
-68.4
 22
60.0
 32
0.0
 13
-68.4
 23
60.0
 33
0.0
  0
LINE
  5
48C
330
18
100
AcDbEntity
  8
SK2
100
AcDbLine
 10
-68.4
 20
11.5
 30
0.0
 11
-68.4
 21
80.0
 31
0.0
  0
LINE
  5
48D
330
18
100
AcDbEntity
  8
SK2
100
AcDbLine
 10
-40.4
 20
6.5
 30
0.0
 11
-40.39999999999999
 21
80.0
 31
0.0
  0
LINE
  5
48E
330
18
100
AcDbEntity
  8
SK2
100
AcDbLine
 10
-63.83
 20
75.0
 30
0.0
 11
-44.96999999999998
 21
75.0
 31
0.0
  0
SOLID
  5
48F
330
18
100
AcDbEntity
  8
SK2
100
AcDbTrace
 10
-63.83
 20
75.76166666666667
 30
0.0
 11
-63.83
 21
74.23833333333333
 31
0.0
 12
-68.4
 22
75.0
 32
0.0
 13
-68.4
 23
75.0
 33
0.0
  0
SOLID
  5
490
330
18
100
AcDbEntity
  8
SK2
100
AcDbTrace
 10
-44.96999999999998
 20
75.76166666666667
 30
0.0
 11
-44.96999999999998
 21
74.23833333333333
 31
0.0
 12
-40.39999999999999
 22
75.0
 32
0.0
 13
-40.39999999999999
 23
75.0
 33
0.0
  0
LINE
  5
492
330
18
100
AcDbEntity
  8
2
100
AcDbLine
 10
-93.40000000000001
 20
11.323529
 30
0.0
 11
-93.40000000000001
 21
80.0
 31
0.0
  0
LINE
  5
493
330
18
100
AcDbEntity
  8
2
100
AcDbLine
 10
-68.39999999999999
 20
11.5
 30
0.0
 11
-68.39999999999999
 21
80.0
 31
0.0
  0
LINE
  5
494
330
18
100
AcDbEntity
  8
2
100
AcDbLine
 10
-88.83
 20
75.0
 30
0.0
 11
-72.97
 21
75.0
 31
0.0
  0
SOLID
  5
495
330
18
100
AcDbEntity
  8
2
100
AcDbTrace
 10
-88.83
 20
75.76166666666667
 30
0.0
 11
-88.83
 21
74.23833333333333
 31
0.0
 12
-93.40000000000001
 22
75.0
 32
0.0
 13
-93.40000000000001
 23
75.0
 33
0.0
  0
SOLID
  5
496
330
18
100
AcDbEntity
  8
2
100
AcDbTrace
 10
-72.97
 20
75.76166666666667
 30
0.0
 11
-72.97
 21
74.23833333333333
 31
0.0
 12
-68.39999999999999
 22
75.0
 32
0.0
 13
-68.39999999999999
 23
75.0
 33
0.0
  0
TEXT
  5
498
330
18
100
AcDbEntity
  8
2
100
AcDbText
 10
-84.59952380952382
 20
77.3
 30
0.0
 40
4.57
  1
25
  7
SIMPLEX
100
AcDbText
  0
TEXT
  5
499
330
18
100
AcDbEntity
  8
SK2
100
AcDbText
 10
-58.09952380952381
 20
77.3
 30
0.0
 40
4.57
  1
28
  7
SIMPLEX
100
AcDbText
  0
TEXT
  5
49A
330
18
100
AcDbEntity
  8
SK2
100
AcDbText
 10
-56.96
 20
62.30000000000001
 30
0.0
 40
4.57
  1
13.6
  7
SIMPLEX
100
AcDbText
  0
TEXT
  5
49B
330
18
100
AcDbEntity
  8
SK2
100
AcDbText
 10
-81.25621439573491
 20
49.77040456544659
 30
0.0
 40
4.57
  1
15°
 50
352.1518562276254
  7
SIMPLEX
100
AcDbText
  0
TEXT
  5
49C
330
18
100
AcDbEntity
  8
SK2
100
AcDbText
 10
-102.2999999999999
 20
-5.766904761904776
 30
0.0
 40
4.57
  1
M16
 50
90.0
  7
SIMPLEX
100
AcDbText
  0
TEXT
  5
49D
330
18
100
AcDbEntity
  8
SK2
100
AcDbText
 10
-132.2999999999999
 20
-5.766904761904775
 30
0.0
 40
4.57
  1
%%c
 50
90.0
  7
SIMPLEX
100
AcDbText
  0
TEXT
  5
49E
330
18
100
AcDbEntity
  8
SK2
100
AcDbText
 10
-132.2999999999999
 20
-1.63214285714287
 30
0.0
 40
4.57
  1
25
 50
90.0
  7
SIMPLEX
100
AcDbText
  0
TEXT
  5
49F
330
18
100
AcDbEntity
  8
SK2
100
AcDbText
 10
-65.55592911600763
 20
-23.31135833590102
 30
0.0
 40
4.57
  1
Schutzring aus Messing
  7
SIMPLEX
100
AcDbText
  0
TEXT
  5
4A0
330
18
100
AcDbEntity
  8
SK2
100
AcDbText
 10
-117.3
 20
-7.616666666666696
 30
0.0
 40
4.57
  1
%%c
 50
90.0
  7
SIMPLEX
100
AcDbText
  0
TEXT
  5
4A1
330
18
100
AcDbEntity
  8
SK2
100
AcDbText
 10
-117.3
 20
-3.481904761904791
 30
0.0
 40
4.57
  1
21.1
 50
90.0
  7
SIMPLEX
100
AcDbText
  0
ENDSEC
  0
SECTION
  2
OBJECTS
  0
DICTIONARY
  5
C
330
0
100
AcDbDictionary
  3
ACAD_GROUP
350
D
  3
ACAD_LAYOUT
350
301
  3
ACAD_MLINESTYLE
350
E
  3
ACAD_PLOTSETTINGS
350
302
1001
ACAD
1000
TREAT_AS_HARD
1070
     0
  0
DICTIONARY
  5
4A3
330
18
100
AcDbDictionary
  3
ACAD_LAYOUTSELFREF
350
4A4
  0
DICTIONARY
  5
4A5
330
338
100
AcDbDictionary
  3
ACAD_LAYOUTSELFREF
350
4A6
  0
DICTIONARY
  5
D
102
{ACAD_REACTORS
330
C
102
}
330
C
100
AcDbDictionary
1001
ACAD
1000
TREAT_AS_HARD
1070
     0
  0
DICTIONARY
  5
301
102
{ACAD_REACTORS
330
C
102
}
330
C
100
AcDbDictionary
1001
ACAD
1000
TREAT_AS_HARD
1070
     0
  0
DICTIONARY
  5
E
102
{ACAD_REACTORS
330
C
102
}
330
C
100
AcDbDictionary
  3
STANDARD
350
1B
1001
ACAD
1000
TREAT_AS_HARD
1070
     0
  0
DICTIONARY
  5
302
102
{ACAD_REACTORS
330
C
102
}
330
C
100
AcDbDictionary
1001
ACAD
1000
TREAT_AS_HARD
1070
     0
  0
XRECORD
  5
4A4
102
{ACAD_REACTORS
330
4A3
102
}
330
4A3
100
AcDbXrecord
340
18
  0
XRECORD
  5
4A6
102
{ACAD_REACTORS
330
4A5
102
}
330
4A5
100
AcDbXrecord
340
338
  0
MLINESTYLE
  5
1B
102
{ACAD_REACTORS
330
E
102
}
330
E
100
AcDbMlineStyle
  2
STANDARD
 70
     0
  3

 62
     0
 51
90.0
 52
90.0
 71
     2
 49
0.5
 62
   256
  6
BYLAYER
 49
-0.5
 62
   256
  6
BYLAYER
  0
ENDSEC
  0
EOF
