  0
SECTION
  2
HEADER
  9
$ACADVER
  1
AC1012
  9
$DWGCODEPAGE
  3
ANSI_1252
  9
$INSBASE
 10
0.0
 20
0.0
 30
0.0
  9
$EXTMIN
 10
-129.0191328695732
 20
-18.64440800231454
 30
-0.0015258207003583
  9
$EXTMAX
 10
5.183213286315094
 20
94.60327229299968
 30
0.0000000349246037
  9
$LIMMIN
 10
-170.0
 20
-170.0
  9
$LIMMAX
 10
519.0
 20
260.0
  9
$ORTHOMODE
 70
     0
  9
$REGENMODE
 70
     1
  9
$FILLMODE
 70
     1
  9
$QTEXTMODE
 70
     0
  9
$MIRRTEXT
 70
     0
  9
$DRAGMODE
 70
     2
  9
$LTSCALE
 40
15.0
  9
$OSMODE
 70
     0
  9
$ATTMODE
 70
     1
  9
$TEXTSIZE
 40
4.57
  9
$TRACEWID
 40
0.05
  9
$TEXTSTYLE
  7
SIMPLEX
  9
$CLAYER
  8
1
  9
$CELTYPE
  6
BYLAYER
  9
$CECOLOR
 62
   256
  9
$CELTSCALE
 40
1.0
  9
$DELOBJ
 70
     1
  9
$DISPSILH
 70
     0
  9
$DIMSCALE
 40
0.0
  9
$DIMASZ
 40
4.57
  9
$DIMEXO
 40
0.0
  9
$DIMDLI
 40
0.38
  9
$DIMRND
 40
0.0
  9
$DIMDLE
 40
0.0
  9
$DIMEXE
 40
5.0
  9
$DIMTP
 40
0.0
  9
$DIMTM
 40
0.0
  9
$DIMTXT
 40
4.57
  9
$DIMCEN
 40
0.09
  9
$DIMTSZ
 40
0.0
  9
$DIMTOL
 70
     0
  9
$DIMLIM
 70
     0
  9
$DIMTIH
 70
     0
  9
$DIMTOH
 70
     0
  9
$DIMSE1
 70
     0
  9
$DIMSE2
 70
     0
  9
$DIMTAD
 70
     1
  9
$DIMZIN
 70
     8
  9
$DIMBLK
  1

  9
$DIMASO
 70
     1
  9
$DIMSHO
 70
     1
  9
$DIMPOST
  1

  9
$DIMAPOST
  1

  9
$DIMALT
 70
     0
  9
$DIMALTD
 70
     2
  9
$DIMALTF
 40
25.4
  9
$DIMLFAC
 40
1.0
  9
$DIMTOFL
 70
     0
  9
$DIMTVP
 40
0.0
  9
$DIMTIX
 70
     0
  9
$DIMSOXD
 70
     0
  9
$DIMSAH
 70
     0
  9
$DIMBLK1
  1

  9
$DIMBLK2
  1

  9
$DIMSTYLE
  2
STANDARD
  9
$DIMCLRD
 70
     0
  9
$DIMCLRE
 70
     0
  9
$DIMCLRT
 70
     0
  9
$DIMTFAC
 40
1.0
  9
$DIMGAP
 40
2.299999999999999
  9
$DIMJUST
 70
     0
  9
$DIMSD1
 70
     0
  9
$DIMSD2
 70
     0
  9
$DIMTOLJ
 70
     1
  9
$DIMTZIN
 70
     0
  9
$DIMALTZ
 70
     0
  9
$DIMALTTZ
 70
     0
  9
$DIMFIT
 70
     3
  9
$DIMUPT
 70
     0
  9
$DIMUNIT
 70
     2
  9
$DIMDEC
 70
     2
  9
$DIMTDEC
 70
     4
  9
$DIMALTU
 70
     2
  9
$DIMALTTD
 70
     2
  9
$DIMTXSTY
  7
SIMPLEX
  9
$DIMAUNIT
 70
     0
  9
$LUNITS
 70
     2
  9
$LUPREC
 70
     2
  9
$SKETCHINC
 40
0.1
  9
$FILLETRAD
 40
0.0
  9
$AUNITS
 70
     0
  9
$AUPREC
 70
     0
  9
$MENU
  1
c:\tdm21\cad\caduti13\tdm13
  9
$ELEVATION
 40
0.0
  9
$PELEVATION
 40
0.0
  9
$THICKNESS
 40
0.0
  9
$LIMCHECK
 70
     0
  9
$BLIPMODE
 70
     1
  9
$CHAMFERA
 40
0.0
  9
$CHAMFERB
 40
0.0
  9
$CHAMFERC
 40
0.0
  9
$CHAMFERD
 40
0.0
  9
$SKPOLY
 70
     0
  9
$TDCREATE
 40
2452576.797591898
  9
$TDUPDATE
 40
2452576.797591898
  9
$TDINDWG
 40
0.0001366898
  9
$TDUSRTIMER
 40
0.0001359954
  9
$USRTIMER
 70
     1
  9
$ANGBASE
 50
0.0
  9
$ANGDIR
 70
     0
  9
$PDMODE
 70
     1
  9
$PDSIZE
 40
0.0
  9
$PLINEWID
 40
0.0
  9
$COORDS
 70
     1
  9
$SPLFRAME
 70
     0
  9
$SPLINETYPE
 70
     6
  9
$SPLINESEGS
 70
     8
  9
$ATTDIA
 70
     0
  9
$ATTREQ
 70
     1
  9
$HANDLING
 70
  4097
  9
$HANDSEED
  5
3D1
  9
$SURFTAB1
 70
     6
  9
$SURFTAB2
 70
     6
  9
$SURFTYPE
 70
     6
  9
$SURFU
 70
     6
  9
$SURFV
 70
     6
  9
$UCSNAME
  2

  9
$UCSORG
 10
0.0
 20
0.0
 30
0.0
  9
$UCSXDIR
 10
1.0
 20
0.0
 30
0.0
  9
$UCSYDIR
 10
0.0
 20
1.0
 30
0.0
  9
$PUCSNAME
  2

  9
$PUCSORG
 10
0.0
 20
0.0
 30
0.0
  9
$PUCSXDIR
 10
1.0
 20
0.0
 30
0.0
  9
$PUCSYDIR
 10
0.0
 20
1.0
 30
0.0
  9
$USERI1
 70
     0
  9
$USERI2
 70
     0
  9
$USERI3
 70
     0
  9
$USERI4
 70
     0
  9
$USERI5
 70
     0
  9
$USERR1
 40
0.0
  9
$USERR2
 40
0.0
  9
$USERR3
 40
0.0
  9
$USERR4
 40
0.0
  9
$USERR5
 40
0.0
  9
$WORLDVIEW
 70
     1
  9
$SHADEDGE
 70
     3
  9
$SHADEDIF
 70
    70
  9
$TILEMODE
 70
     1
  9
$MAXACTVP
 70
    16
  9
$PINSBASE
 10
0.0
 20
0.0
 30
0.0
  9
$PLIMCHECK
 70
     0
  9
$PEXTMIN
 10
0.0
 20
0.0
 30
0.0
  9
$PEXTMAX
 10
0.0
 20
0.0
 30
0.0
  9
$PLIMMIN
 10
0.0
 20
0.0
  9
$PLIMMAX
 10
12.0
 20
9.0
  9
$UNITMODE
 70
     0
  9
$VISRETAIN
 70
     0
  9
$PLINEGEN
 70
     0
  9
$PSLTSCALE
 70
     1
  9
$TREEDEPTH
 70
  3020
  9
$PICKSTYLE
 70
     1
  9
$CMLSTYLE
  2
STANDARD
  9
$CMLJUST
 70
     0
  9
$CMLSCALE
 40
1.0
  9
$SAVEIMAGES
 70
     1
  0
ENDSEC
  0
SECTION
  2
CLASSES
  0
CLASS
  1
ACDBDICTIONARYWDFLT
  2
AcDbDictionaryWithDefault
  3
AutoCAD 2000
 90
    32768
280
     0
281
     0
  0
CLASS
  1
ACDBPLACEHOLDER
  2
AcDbPlaceHolder
  3
AutoCAD 2000
 90
    32768
280
     0
281
     0
  0
CLASS
  1
LAYOUT
  2
AcDbLayout
  3
AutoCAD 2000
 90
    32768
280
     0
281
     0
  0
CLASS
  1
LONG_TRANSACTION
  2
AcDbLongTransaction
  3
AutoCAD 2000
 90
    32768
280
     0
281
     0
  0
CLASS
  1
LWPOLYLINE
  2
AcDbPolyline
  3
AutoCAD 2000
 90
    32768
280
     0
281
     1
  0
CLASS
  1
HATCH
  2
AcDbHatch
  3
AutoCAD 2000
 90
    32768
280
     0
281
     1
  0
CLASS
  1
XRECORD
  2
AcDbXrecord
  3
AutoCAD 2000
 90
    32768
280
     0
281
     0
  0
ENDSEC
  0
SECTION
  2
TABLES
  0
TABLE
  2
VPORT
  5
8
330
0
100
AcDbSymbolTable
 70
     3
  0
VPORT
  5
3BA
330
8
100
AcDbSymbolTableRecord
100
AcDbViewportTableRecord
  2
*ACTIVE
 70
     0
 10
0.0
 20
0.0
 11
1.0
 21
1.0
 12
-61.91795979162908
 22
37.97943214534257
 13
0.0
 23
0.0
 14
5.0
 24
5.0
 15
5.0
 25
5.0
 16
0.0
 26
0.0
 36
1.0
 17
0.0
 27
0.0
 37
0.0
 40
123.2476802953142
 41
2.256578947368421
 42
50.0
 43
0.0
 44
0.0
 50
0.0
 51
0.0
 71
     0
 72
   100
 73
     1
 74
     1
 75
     0
 76
     0
 77
     0
 78
     0
  0
ENDTAB
  0
TABLE
  2
LTYPE
  5
5
330
0
100
AcDbSymbolTable
 70
     3
  0
LTYPE
  5
12
330
5
100
AcDbSymbolTableRecord
100
AcDbLinetypeTableRecord
  2
BYBLOCK
 70
     0
  3

 72
    65
 73
     0
 40
0.0
  0
LTYPE
  5
13
330
5
100
AcDbSymbolTableRecord
100
AcDbLinetypeTableRecord
  2
BYLAYER
 70
     0
  3

 72
    65
 73
     0
 40
0.0
  0
LTYPE
  5
14
330
5
100
AcDbSymbolTableRecord
100
AcDbLinetypeTableRecord
  2
CONTINUOUS
 70
     0
  3
Solid line
 72
    65
 73
     0
 40
0.0
  0
LTYPE
  5
1F
330
5
100
AcDbSymbolTableRecord
100
AcDbLinetypeTableRecord
  2
CENTER
 70
     0
  3
____ . ____ . ____
 72
    65
 73
     4
 40
1.5
 49
1.0
 74
     0
 49
-0.25
 74
     0
 49
0.0
 74
     0
 49
-0.25
 74
     0
  0
LTYPE
  5
20
330
5
100
AcDbSymbolTableRecord
100
AcDbLinetypeTableRecord
  2
HIDDEN
 70
     0
  3
_ _ _ _ _ _ _ _ _ _ _ _ _ _ _ _ _ _ _ _ _ _ _
 72
    65
 73
     2
 40
0.375
 49
0.25
 74
     0
 49
-0.125
 74
     0
  0
ENDTAB
  0
TABLE
  2
LAYER
  5
2
330
0
100
AcDbSymbolTable
 70
    14
  0
LAYER
  5
F
330
2
100
AcDbSymbolTableRecord
100
AcDbLayerTableRecord
  2
0
 70
     0
 62
     7
  6
CONTINUOUS
  0
LAYER
  5
23
330
2
100
AcDbSymbolTableRecord
100
AcDbLayerTableRecord
  2
1
 70
     0
 62
     4
  6
CONTINUOUS
  0
LAYER
  5
24
330
2
100
AcDbSymbolTableRecord
100
AcDbLayerTableRecord
  2
SK1
 70
     0
 62
     4
  6
CONTINUOUS
  0
LAYER
  5
25
330
2
100
AcDbSymbolTableRecord
100
AcDbLayerTableRecord
  2
2
 70
     0
 62
     7
  6
CONTINUOUS
  0
LAYER
  5
26
330
2
100
AcDbSymbolTableRecord
100
AcDbLayerTableRecord
  2
2L
 70
     0
 62
     7
  6
CONTINUOUS
  0
LAYER
  5
27
330
2
100
AcDbSymbolTableRecord
100
AcDbLayerTableRecord
  2
SK2
 70
     0
 62
     7
  6
CONTINUOUS
  0
LAYER
  5
28
330
2
100
AcDbSymbolTableRecord
100
AcDbLayerTableRecord
  2
3
 70
     0
 62
     1
  6
HIDDEN
  0
LAYER
  5
29
330
2
100
AcDbSymbolTableRecord
100
AcDbLayerTableRecord
  2
SK3
 70
     0
 62
     1
  6
HIDDEN
  0
LAYER
  5
2A
330
2
100
AcDbSymbolTableRecord
100
AcDbLayerTableRecord
  2
4
 70
     0
 62
    -2
  6
CENTER
  0
LAYER
  5
2B
330
2
100
AcDbSymbolTableRecord
100
AcDbLayerTableRecord
  2
SK4
 70
     0
 62
     2
  6
CENTER
  0
LAYER
  5
2C
330
2
100
AcDbSymbolTableRecord
100
AcDbLayerTableRecord
  2
5
 70
     0
 62
    -7
  6
CONTINUOUS
  0
LAYER
  5
2D
330
2
100
AcDbSymbolTableRecord
100
AcDbLayerTableRecord
  2
6
 70
     0
 62
     5
  6
CONTINUOUS
  0
LAYER
  5
2E
330
2
100
AcDbSymbolTableRecord
100
AcDbLayerTableRecord
  2
SK6
 70
     0
 62
     5
  6
CONTINUOUS
  0
LAYER
  5
2F
330
2
100
AcDbSymbolTableRecord
100
AcDbLayerTableRecord
  2
DEFPOINTS
 70
     0
 62
     7
  6
CONTINUOUS
  0
ENDTAB
  0
TABLE
  2
STYLE
  5
3
330
0
100
AcDbSymbolTable
 70
     3
  0
STYLE
  5
10
330
3
100
AcDbSymbolTableRecord
100
AcDbTextStyleTableRecord
  2
STANDARD
 70
     0
 40
0.0
 41
1.0
 50
0.0
 71
     0
 42
5.0
  3
txt
  4

  0
STYLE
  5
1D
330
3
100
AcDbSymbolTableRecord
100
AcDbTextStyleTableRecord
  2
TXT
 70
     0
 40
8.0
 41
1.0
 50
0.0
 71
     0
 42
8.0
  3
txt
  4

  0
STYLE
  5
1E
330
3
100
AcDbSymbolTableRecord
100
AcDbTextStyleTableRecord
  2
SIMPLEX
 70
     0
 40
0.0
 41
1.0
 50
0.0
 71
     0
 42
4.57
  3
simplex
  4

  0
ENDTAB
  0
TABLE
  2
VIEW
  5
6
330
0
100
AcDbSymbolTable
 70
     0
  0
ENDTAB
  0
TABLE
  2
UCS
  5
7
330
0
100
AcDbSymbolTable
 70
     0
  0
ENDTAB
  0
TABLE
  2
APPID
  5
9
330
0
100
AcDbSymbolTable
 70
     1
  0
APPID
  5
11
330
9
100
AcDbSymbolTableRecord
100
AcDbRegAppTableRecord
  2
ACAD
 70
     0
  0
ENDTAB
  0
TABLE
  2
DIMSTYLE
  5
A
330
0
100
AcDbSymbolTable
 70
     1
  0
DIMSTYLE
105
3F
330
A
100
AcDbSymbolTableRecord
100
AcDbDimStyleTableRecord
  2
STANDARD
 70
     0
  3

  4

  5

  6

  7

 40
0.0
 41
4.57
 42
0.0
 43
0.38
 44
5.0
 45
0.0
 46
0.0
 47
0.0
 48
0.0
140
4.57
141
0.09
142
0.0
143
25.4
144
1.0
145
0.0
146
1.0
147
2.299999999999999
 71
     0
 72
     0
 73
     0
 74
     0
 75
     0
 76
     0
 77
     1
 78
     8
170
     0
171
     2
172
     0
173
     0
174
     0
175
     0
176
     0
177
     0
178
     0
270
     2
271
     2
272
     4
273
     2
274
     2
340
1E
275
     0
280
     0
281
     0
282
     0
283
     1
284
     0
285
     0
286
     0
287
     3
288
     0
  0
ENDTAB
  0
TABLE
  2
BLOCK_RECORD
  5
1
330
0
100
AcDbSymbolTable
 70
     2
  0
BLOCK_RECORD
  5
18
102
{ACAD_XDICTIONARY
360
3BB
102
}
330
1
100
AcDbSymbolTableRecord
100
AcDbBlockTableRecord
  2
*MODEL_SPACE
  0
BLOCK_RECORD
  5
338
102
{ACAD_XDICTIONARY
360
3BD
102
}
330
1
100
AcDbSymbolTableRecord
100
AcDbBlockTableRecord
  2
*PAPER_SPACE
  0
BLOCK_RECORD
  5
3BF
330
1
100
AcDbSymbolTableRecord
100
AcDbBlockTableRecord
  2
*X0
  0
BLOCK_RECORD
  5
3C8
330
1
100
AcDbSymbolTableRecord
100
AcDbBlockTableRecord
  2
*X1
  0
ENDTAB
  0
ENDSEC
  0
SECTION
  2
BLOCKS
  0
BLOCK
  5
32
330
18
100
AcDbEntity
  8
0
100
AcDbBlockBegin
  2
*MODEL_SPACE
 70
     0
 10
0.0
 20
0.0
 30
0.0
  3
*MODEL_SPACE
  1

  0
ENDBLK
  5
33
330
18
100
AcDbEntity
  8
0
100
AcDbBlockEnd
  0
BLOCK
  5
339
330
338
100
AcDbEntity
 67
     1
  8
0
100
AcDbBlockBegin
  2
*PAPER_SPACE
 70
     0
 10
0.0
 20
0.0
 30
0.0
  3
*PAPER_SPACE
  1

  0
ENDBLK
  5
33A
330
338
100
AcDbEntity
 67
     1
  8
0
100
AcDbBlockEnd
  0
BLOCK
  5
3C6
330
3BF
100
AcDbEntity
  8
0
100
AcDbBlockBegin
  2
*X0
 70
     1
 10
0.0
 20
0.0
 30
0.0
  3
*X0
  1

  0
LINE
  5
3C0
330
3BF
100
AcDbEntity
  8
0
 62
     0
100
AcDbLine
 10
-64.8778619534541
 20
-8.209251045366404
 30
0.0
 11
-64.10925104536639
 21
-8.977861953454102
 31
0.0
  0
LINE
  5
3C1
330
3BF
100
AcDbEntity
  8
0
 62
     0
100
AcDbLine
 10
-64.87221013017166
 20
-7.765890062595378
 30
0.0
 11
-63.66589006259538
 21
-8.972210130171664
 31
0.0
  0
LINE
  5
3C2
330
3BF
100
AcDbEntity
  8
0
 62
     0
100
AcDbLine
 10
-64.73671933631945
 20
-7.452368050394127
 30
0.0
 11
-63.35236805039413
 21
-8.836719336319458
 31
0.0
  0
LINE
  5
3C3
330
3BF
100
AcDbEntity
  8
0
 62
     0
100
AcDbLine
 10
-64.52260825831995
 20
-7.217466322340175
 30
0.0
 11
-63.11746632234018
 21
-8.622608258319946
 31
0.0
  0
LINE
  5
3C4
330
3BF
100
AcDbEntity
  8
0
 62
     0
100
AcDbLine
 10
-64.23373035409543
 20
-7.057331420511243
 30
0.0
 11
-62.95733142051124
 21
-8.333730354095422
 31
0.0
  0
LINE
  5
3C5
330
3BF
100
AcDbEntity
  8
0
 62
     0
100
AcDbLine
 10
-63.84026312693636
 20
-7.00178584161685
 30
0.0
 11
-62.90178584161685
 21
-7.940263126936368
 31
0.0
  0
ENDBLK
  5
3C7
330
3BF
100
AcDbEntity
  8
0
100
AcDbBlockEnd
  0
BLOCK
  5
3CF
330
3C8
100
AcDbEntity
  8
0
100
AcDbBlockBegin
  2
*X1
 70
     1
 10
0.0
 20
0.0
 30
0.0
  3
*X1
  1

  0
LINE
  5
3C9
330
3C8
100
AcDbEntity
  8
0
 62
     0
100
AcDbLine
 10
-63.84026312693638
 20
7.001785841616847
 30
0.0
 11
-62.90178584161686
 21
7.940263126936372
 31
0.0
  0
LINE
  5
3CA
330
3C8
100
AcDbEntity
  8
0
 62
     0
100
AcDbLine
 10
-64.23373035409544
 20
7.05733142051125
 30
0.0
 11
-62.95733142051126
 21
8.333730354095429
 31
0.0
  0
LINE
  5
3CB
330
3C8
100
AcDbEntity
  8
0
 62
     0
100
AcDbLine
 10
-64.52260825831996
 20
7.217466322340186
 30
0.0
 11
-63.1174663223402
 21
8.622608258319957
 31
0.0
  0
LINE
  5
3CC
330
3C8
100
AcDbEntity
  8
0
 62
     0
100
AcDbLine
 10
-64.73671933631947
 20
7.452368050394134
 30
0.0
 11
-63.35236805039414
 21
8.836719336319465
 31
0.0
  0
LINE
  5
3CD
330
3C8
100
AcDbEntity
  8
0
 62
     0
100
AcDbLine
 10
-64.87221013017168
 20
7.765890062595392
 30
0.0
 11
-63.66589006259539
 21
8.972210130171667
 31
0.0
  0
LINE
  5
3CE
330
3C8
100
AcDbEntity
  8
0
 62
     0
100
AcDbLine
 10
-64.8778619534541
 20
8.209251045366421
 30
0.0
 11
-64.10925104536642
 21
8.977861953454098
 31
0.0
  0
ENDBLK
  5
3D0
330
3C8
100
AcDbEntity
  8
0
100
AcDbBlockEnd
  0
ENDSEC
  0
SECTION
  2
ENTITIES
  0
LINE
  5
345
330
18
100
AcDbEntity
  8
1
100
AcDbLine
 10
-94.40000000000001
 20
8.323529
 30
0.0
 11
-94.40000000000001
 21
-8.323529
 31
0.0
  0
LINE
  5
346
330
18
100
AcDbEntity
  8
1
100
AcDbLine
 10
-92.4
 20
9.5
 30
0.0
 11
-92.4
 21
-9.5
 31
0.0
  0
LINE
  5
347
330
18
100
AcDbEntity
  8
1
100
AcDbLine
 10
-92.4
 20
9.5
 30
0.0
 11
-94.40000000000001
 21
8.323529
 31
0.0
  0
LINE
  5
348
330
18
100
AcDbEntity
  8
1
100
AcDbLine
 10
-92.4
 20
-9.5
 30
0.0
 11
-94.40000000000001
 21
-8.323529
 31
0.0
  0
LINE
  5
349
330
18
100
AcDbEntity
  8
1
100
AcDbLine
 10
-72.40000000000001
 20
-11.5
 30
0.0
 11
-68.4
 21
-11.5
 31
0.0
  0
LINE
  5
34A
330
18
100
AcDbEntity
  8
1
100
AcDbLine
 10
-68.4
 20
11.5
 30
0.0
 11
-72.40000000000001
 21
11.5
 31
0.0
  0
LINE
  5
34B
330
18
100
AcDbEntity
  8
1
100
AcDbLine
 10
-68.4
 20
11.5
 30
0.0
 11
-68.4
 21
-11.5
 31
0.0
  0
LINE
  5
34C
330
18
100
AcDbEntity
  8
1
100
AcDbLine
 10
-72.40000000000001
 20
11.5
 30
0.0
 11
-72.40000000000001
 21
6.40275
 31
0.0
  0
LINE
  5
34D
330
18
100
AcDbEntity
  8
1
100
AcDbLine
 10
-72.40000000000001
 20
11.5
 30
0.0
 11
-76.90000000000001
 21
7.0
 31
0.0
  0
LINE
  5
34E
330
18
100
AcDbEntity
  8
1
100
AcDbLine
 10
-87.308564
 20
7.0
 30
0.0
 11
-76.90000000000001
 21
7.0
 31
0.0
  0
LINE
  5
34F
330
18
100
AcDbEntity
  8
1
100
AcDbLine
 10
-88.40000000000001
 20
9.5
 30
0.0
 11
-87.789326
 21
7.362638999999999
 31
0.0
  0
ARC
  5
350
330
18
100
AcDbEntity
  8
1
100
AcDbCircle
 10
-87.308564
 20
7.5
 30
0.0
 40
0.5
100
AcDbArc
 50
195.9453959999999
 51
270.0
  0
ARC
  5
351
330
18
100
AcDbEntity
  8
1
100
AcDbCircle
 10
-87.308564
 20
-7.5
 30
0.0
 40
0.5
100
AcDbArc
 50
90.0
 51
164.054604
  0
LINE
  5
352
330
18
100
AcDbEntity
  8
1
100
AcDbLine
 10
-88.40000000000001
 20
-9.5
 30
0.0
 11
-87.789326
 21
-7.362638999999999
 31
0.0
  0
LINE
  5
353
330
18
100
AcDbEntity
  8
1
100
AcDbLine
 10
-87.308564
 20
-7.0
 30
0.0
 11
-76.90000000000001
 21
-7.0
 31
0.0
  0
LINE
  5
354
330
18
100
AcDbEntity
  8
1
100
AcDbLine
 10
-72.40000000000001
 20
-11.5
 30
0.0
 11
-76.90000000000001
 21
-7.0
 31
0.0
  0
LINE
  5
355
330
18
100
AcDbEntity
  8
1
100
AcDbLine
 10
-76.90000000000001
 20
7.0
 30
0.0
 11
-76.90000000000001
 21
-7.0
 31
0.0
  0
LINE
  5
356
330
18
100
AcDbEntity
  8
3
  6
CONTINUOUS
100
AcDbLine
 10
-87.398901
 20
6.862060999999999
 30
0.0
 11
-87.398901
 21
-6.824378
 31
0.0
  0
LINE
  5
357
330
18
100
AcDbEntity
  8
1
100
AcDbLine
 10
-68.4
 20
6.40275
 30
0.0
 11
-72.40000000000001
 21
6.40275
 31
0.0
  0
LINE
  5
358
330
18
100
AcDbEntity
  8
1
100
AcDbLine
 10
-68.4
 20
-6.40275
 30
0.0
 11
-72.40000000000001
 21
-6.40275
 31
0.0
  0
LINE
  5
359
330
18
100
AcDbEntity
  8
1
100
AcDbLine
 10
-88.40000000000001
 20
-9.5
 30
0.0
 11
-88.40000000000001
 21
9.5
 31
0.0
  0
LINE
  5
35A
330
18
100
AcDbEntity
  8
1
100
AcDbLine
 10
-88.40000000000001
 20
9.5
 30
0.0
 11
-92.405127
 21
9.5
 31
0.0
  0
LINE
  5
35B
330
18
100
AcDbEntity
  8
1
100
AcDbLine
 10
-88.40000000000001
 20
-9.5
 30
0.0
 11
-92.405127
 21
-9.5
 31
0.0
  0
LINE
  5
35C
330
18
100
AcDbEntity
  8
1
100
AcDbLine
 10
-72.40000000000001
 20
-6.40275
 30
0.0
 11
-72.40000000000001
 21
-11.5
 31
0.0
  0
ARC
  5
35D
330
18
100
AcDbEntity
  8
1
100
AcDbCircle
 10
-62.697336
 20
0.0
 30
0.0
 40
11.62484
100
AcDbArc
 50
146.579338
 51
213.420662
  0
LINE
  5
35E
330
18
100
AcDbEntity
  8
4
100
AcDbLine
 10
-94.40000000000001
 20
0.0
 30
0.0
 11
-68.4
 21
0.0
 31
0.0
  0
LINE
  5
35F
330
18
100
AcDbEntity
  8
SK1
100
AcDbLine
 10
-40.4
 20
6.5
 30
0.0
 11
-40.4
 21
-6.5
 31
0.0
  0
LINE
  5
360
330
18
100
AcDbEntity
  8
SK1
100
AcDbLine
 10
-66.4
 20
8.5
 30
0.0
 11
-64.90000000000001
 21
8.5
 31
0.0
  0
LINE
  5
361
330
18
100
AcDbEntity
  8
SK1
100
AcDbLine
 10
-66.4
 20
-8.5
 30
0.0
 11
-64.90000000000001
 21
-8.5
 31
0.0
  0
LINE
  5
362
330
18
100
AcDbEntity
  8
SK1
100
AcDbLine
 10
-41.9
 20
8.0
 30
0.0
 11
-53.9
 21
8.0
 31
0.0
  0
LINE
  5
363
330
18
100
AcDbEntity
  8
SK1
100
AcDbLine
 10
-53.9
 20
-8.0
 30
0.0
 11
-41.9
 21
-8.0
 31
0.0
  0
ARC
  5
364
330
18
100
AcDbEntity
  8
SK1
100
AcDbCircle
 10
-67.393757
 20
9.504721999999999
 30
0.0
 40
1.412768999999999
100
AcDbArc
 50
225.0
 51
315.0
  0
ARC
  5
365
330
18
100
AcDbEntity
  8
SK1
100
AcDbCircle
 10
-67.393757
 20
-9.504721999999999
 30
0.0
 40
1.412768999999999
100
AcDbArc
 50
45.0
 51
135.0
  0
LINE
  5
366
330
18
100
AcDbEntity
  8
SK1
100
AcDbLine
 10
-53.9
 20
8.0
 30
0.0
 11
-53.9
 21
-8.0
 31
0.0
  0
LINE
  5
367
330
18
100
AcDbEntity
  8
SK1
100
AcDbLine
 10
-60.4
 20
6.5
 30
0.0
 11
-56.67698399999999
 21
6.5
 31
0.0
  0
LINE
  5
368
330
18
100
AcDbEntity
  8
SK1
100
AcDbLine
 10
-53.9
 20
8.0
 30
0.0
 11
-56.16248800000001
 21
6.642507
 31
0.0
  0
ARC
  5
369
330
18
100
AcDbEntity
  8
SK1
100
AcDbCircle
 10
-60.4
 20
7.5
 30
0.0
 40
1.0
100
AcDbArc
 50
180.0
 51
270.0
  0
ARC
  5
36A
330
18
100
AcDbEntity
  8
SK1
100
AcDbCircle
 10
-56.67698399999999
 20
7.5
 30
0.0
 40
1.0
100
AcDbArc
 50
270.0
 51
300.9637569999999
  0
ARC
  5
36B
330
18
100
AcDbEntity
  8
SK1
100
AcDbCircle
 10
-56.67698399999999
 20
-7.5
 30
0.0
 40
1.0
100
AcDbArc
 50
59.036243
 51
90.0
  0
ARC
  5
36C
330
18
100
AcDbEntity
  8
SK1
100
AcDbCircle
 10
-60.4
 20
-7.5
 30
0.0
 40
1.0
100
AcDbArc
 50
90.0
 51
180.0
  0
LINE
  5
36D
330
18
100
AcDbEntity
  8
SK1
100
AcDbLine
 10
-53.9
 20
-8.0
 30
0.0
 11
-56.16248800000001
 21
-6.642507
 31
0.0
  0
LINE
  5
36E
330
18
100
AcDbEntity
  8
SK1
100
AcDbLine
 10
-60.4
 20
-6.5
 30
0.0
 11
-56.67698399999999
 21
-6.5
 31
0.0
  0
LINE
  5
36F
330
18
100
AcDbEntity
  8
SK1
100
AcDbLine
 10
-61.4
 20
8.5
 30
0.0
 11
-61.4
 21
-8.5
 31
0.0
  0
LINE
  5
370
330
18
100
AcDbEntity
  8
SK3
  6
CONTINUOUS
100
AcDbLine
 10
-56.4
 20
6.0
 30
0.0
 11
-56.4
 21
-6.0
 31
0.0
  0
LINE
  5
371
330
18
100
AcDbEntity
  8
SK3
  6
CONTINUOUS
100
AcDbLine
 10
-55.566667
 20
7.0
 30
0.0
 11
-40.89999999999999
 21
7.0
 31
0.0
  0
LINE
  5
372
330
18
100
AcDbEntity
  8
SK3
  6
CONTINUOUS
100
AcDbLine
 10
-55.566667
 20
-7.0
 30
0.0
 11
-40.89999999999999
 21
-7.0
 31
0.0
  0
LINE
  5
373
330
18
100
AcDbEntity
  8
SK1
100
AcDbLine
 10
-41.9
 20
8.0
 30
0.0
 11
-41.9
 21
-8.0
 31
0.0
  0
LINE
  5
374
330
18
100
AcDbEntity
  8
SK1
100
AcDbLine
 10
-41.9
 20
-8.0
 30
0.0
 11
-40.4
 21
-6.5
 31
0.0
  0
LINE
  5
375
330
18
100
AcDbEntity
  8
SK1
100
AcDbLine
 10
-41.9
 20
8.0
 30
0.0
 11
-40.4
 21
6.5
 31
0.0
  0
LINE
  5
376
330
18
100
AcDbEntity
  8
SK4
100
AcDbLine
 10
-96.90000000000001
 20
0.0
 30
0.0
 11
-38.39999999999999
 21
0.0
 31
0.0
  0
LINE
  5
377
330
18
100
AcDbEntity
  8
SK2
100
AcDbLine
 10
-14.4
 20
12.572
 30
0.0
 11
-14.4
 21
17.14399999999999
 31
0.0
  0
LINE
  5
378
330
18
100
AcDbEntity
  8
SK2
100
AcDbLine
 10
-14.4
 20
-12.572
 30
0.0
 11
-14.4
 21
-17.14399999999999
 31
0.0
  0
SOLID
  5
379
330
18
100
AcDbEntity
  8
SK2
100
AcDbTrace
 10
-13.638
 20
12.572
 30
0.0
 11
-15.162
 21
12.572
 31
0.0
 12
-14.4
 22
8.0
 32
0.0
 13
-14.4
 23
8.0
 33
0.0
  0
SOLID
  5
37A
330
18
100
AcDbEntity
  8
SK2
100
AcDbTrace
 10
-13.638
 20
-12.572
 30
0.0
 11
-15.162
 21
-12.572
 31
0.0
 12
-14.4
 22
-8.0
 32
0.0
 13
-14.4
 23
-8.0
 33
0.0
  0
TEXT
  5
37B
330
18
100
AcDbEntity
  8
SK2
100
AcDbText
 10
-12.114
 20
-6.283999999999999
 30
0.0
 40
4.572
  1
M16
 50
90.0
  7
SIMPLEX
100
AcDbText
  0
LINE
  5
37C
330
18
100
AcDbEntity
  8
SK2
100
AcDbLine
 10
-41.9
 20
8.0
 30
0.0
 11
-9.827999999999999
 21
8.0
 31
0.0
  0
LINE
  5
37D
330
18
100
AcDbEntity
  8
SK2
100
AcDbLine
 10
-41.9
 20
-8.0
 30
0.0
 11
-9.827999999999999
 21
-8.0
 31
0.0
  0
LINE
  5
37E
330
18
100
AcDbEntity
  8
SK2
100
AcDbLine
 10
0.6
 20
13.07199999999999
 30
0.0
 11
0.6
 21
17.644
 31
0.0
  0
LINE
  5
37F
330
18
100
AcDbEntity
  8
SK2
100
AcDbLine
 10
0.6
 20
-13.07199999999999
 30
0.0
 11
0.6
 21
-17.644
 31
0.0
  0
SOLID
  5
380
330
18
100
AcDbEntity
  8
SK2
100
AcDbTrace
 10
1.362
 20
13.07199999999999
 30
0.0
 11
-0.162
 21
13.07199999999999
 31
0.0
 12
0.6
 22
8.5
 32
0.0
 13
0.6
 23
8.5
 33
0.0
  0
SOLID
  5
381
330
18
100
AcDbEntity
  8
SK2
100
AcDbTrace
 10
1.362
 20
-13.07199999999999
 30
0.0
 11
-0.162
 21
-13.07199999999999
 31
0.0
 12
0.6
 22
-8.5
 32
0.0
 13
0.6
 23
-8.5
 33
0.0
  0
TEXT
  5
382
330
18
100
AcDbEntity
  8
SK2
100
AcDbText
 10
2.886
 20
-5.283999999999999
 30
0.0
 40
4.572
  1
%%C17
 50
90.0
  7
SIMPLEX
100
AcDbText
  0
LINE
  5
383
330
18
100
AcDbEntity
  8
SK2
100
AcDbLine
 10
-61.4
 20
8.5
 30
0.0
 11
-16.89999999999999
 21
8.5
 31
0.0
  0
LINE
  5
384
330
18
100
AcDbEntity
  8
SK2
100
AcDbLine
 10
-61.4
 20
-8.5
 30
0.0
 11
-16.89999999999999
 21
-8.5
 31
0.0
  0
LINE
  5
385
330
18
100
AcDbEntity
  8
SK2
100
AcDbLine
 10
-11.4
 20
-8.5
 30
0.0
 11
5.171999999999999
 21
-8.5
 31
0.0
  0
LINE
  5
386
330
18
100
AcDbEntity
  8
SK2
100
AcDbLine
 10
-11.4
 20
8.5
 30
0.0
 11
5.171999999999999
 21
8.5
 31
0.0
  0
LINE
  5
387
330
18
100
AcDbEntity
  8
SK2
100
AcDbLine
 10
-87.308564
 20
7.0
 30
0.0
 11
-113.972
 21
7.0
 31
0.0
  0
LINE
  5
388
330
18
100
AcDbEntity
  8
SK2
100
AcDbLine
 10
-87.308564
 20
-7.0
 30
0.0
 11
-113.972
 21
-7.0
 31
0.0
  0
LINE
  5
389
330
18
100
AcDbEntity
  8
SK2
100
AcDbLine
 10
-109.4
 20
-11.572
 30
0.0
 11
-109.4
 21
-16.14399999999999
 31
0.0
  0
LINE
  5
38A
330
18
100
AcDbEntity
  8
SK2
100
AcDbLine
 10
-109.4
 20
11.572
 30
0.0
 11
-109.4
 21
16.14399999999999
 31
0.0
  0
SOLID
  5
38B
330
18
100
AcDbEntity
  8
SK2
100
AcDbTrace
 10
-108.638
 20
-11.572
 30
0.0
 11
-110.162
 21
-11.572
 31
0.0
 12
-109.4
 22
-7.0
 32
0.0
 13
-109.4
 23
-7.0
 33
0.0
  0
SOLID
  5
38C
330
18
100
AcDbEntity
  8
SK2
100
AcDbTrace
 10
-108.638
 20
11.572
 30
0.0
 11
-110.162
 21
11.572
 31
0.0
 12
-109.4
 22
7.0
 32
0.0
 13
-109.4
 23
7.0
 33
0.0
  0
TEXT
  5
38D
330
18
100
AcDbEntity
  8
SK2
100
AcDbText
 10
-107.1139999999999
 20
-5.101714
 30
0.0
 40
4.572
  1
%%C14
 50
90.0
  7
SIMPLEX
100
AcDbText
  0
LINE
  5
38E
330
18
100
AcDbEntity
  8
SK2
100
AcDbLine
 10
-92.405127
 20
-9.5
 30
0.0
 11
-106.4
 21
-9.5
 31
0.0
  0
LINE
  5
38F
330
18
100
AcDbEntity
  8
SK2
100
AcDbLine
 10
-92.4
 20
9.5
 30
0.0
 11
-106.4
 21
9.5
 31
0.0
  0
LINE
  5
390
330
18
100
AcDbEntity
  8
SK2
100
AcDbLine
 10
-124.3999999999999
 20
14.072
 30
0.0
 11
-124.3999999999999
 21
18.64399999999999
 31
0.0
  0
LINE
  5
391
330
18
100
AcDbEntity
  8
SK2
100
AcDbLine
 10
-124.3999999999999
 20
-14.072
 30
0.0
 11
-124.3999999999999
 21
-18.64399999999999
 31
0.0
  0
SOLID
  5
392
330
18
100
AcDbEntity
  8
SK2
100
AcDbTrace
 10
-123.638
 20
14.072
 30
0.0
 11
-125.162
 21
14.072
 31
0.0
 12
-124.3999999999999
 22
9.5
 32
0.0
 13
-124.3999999999999
 23
9.5
 33
0.0
  0
SOLID
  5
393
330
18
100
AcDbEntity
  8
SK2
100
AcDbTrace
 10
-123.638
 20
-14.072
 30
0.0
 11
-125.162
 21
-14.072
 31
0.0
 12
-124.3999999999999
 22
-9.5
 32
0.0
 13
-124.3999999999999
 23
-9.5
 33
0.0
  0
TEXT
  5
394
330
18
100
AcDbEntity
  8
SK2
100
AcDbText
 10
-122.114
 20
-5.283999999999999
 30
0.0
 40
4.572
  1
%%C19
 50
90.0
  7
SIMPLEX
100
AcDbText
  0
LINE
  5
395
330
18
100
AcDbEntity
  8
SK2
100
AcDbLine
 10
-112.9
 20
9.5
 30
0.0
 11
-128.972
 21
9.5
 31
0.0
  0
LINE
  5
396
330
18
100
AcDbEntity
  8
SK2
100
AcDbLine
 10
-112.4
 20
-9.5
 30
0.0
 11
-128.972
 21
-9.5
 31
0.0
  0
LINE
  5
397
330
18
100
AcDbEntity
  8
SK1
100
AcDbLine
 10
-66.4
 20
8.5
 30
0.0
 11
-66.4
 21
-8.5
 31
0.0
  0
LINE
  5
398
330
18
100
AcDbEntity
  8
SK2
100
AcDbLine
 10
-68.4
 20
11.5
 30
0.0
 11
-68.4
 21
79.572
 31
0.0
  0
LINE
  5
399
330
18
100
AcDbEntity
  8
SK2
100
AcDbLine
 10
-89.82800000000001
 20
75.0
 30
0.0
 11
-86.90000000000001
 21
75.0
 31
0.0
  0
LINE
  5
39A
330
18
100
AcDbEntity
  8
SK2
100
AcDbLine
 10
-72.972
 20
75.0
 30
0.0
 11
-75.9
 21
75.0
 31
0.0
  0
SOLID
  5
39B
330
18
100
AcDbEntity
  8
SK2
100
AcDbTrace
 10
-89.82800000000001
 20
74.23799999999999
 30
0.0
 11
-89.82800000000001
 21
75.762
 31
0.0
 12
-94.40000000000001
 22
75.0
 32
0.0
 13
-94.40000000000001
 23
75.0
 33
0.0
  0
SOLID
  5
39C
330
18
100
AcDbEntity
  8
SK2
100
AcDbTrace
 10
-72.972
 20
74.23799999999999
 30
0.0
 11
-72.972
 21
75.762
 31
0.0
 12
-68.4
 22
75.0
 32
0.0
 13
-68.4
 23
75.0
 33
0.0
  0
TEXT
  5
39D
330
18
100
AcDbEntity
  8
SK2
100
AcDbText
 10
-85.684
 20
72.71399999999999
 30
0.0
 40
4.572
  1
26
  7
SIMPLEX
100
AcDbText
  0
LINE
  5
39E
330
18
100
AcDbEntity
  8
SK2
100
AcDbLine
 10
-94.40000000000001
 20
8.323529
 30
0.0
 11
-94.40000000000001
 21
27.113637
 31
0.0
  0
LINE
  5
39F
330
18
100
AcDbEntity
  8
SK2
100
AcDbLine
 10
-40.4
 20
6.5
 30
0.0
 11
-40.4
 21
94.572
 31
0.0
  0
LINE
  5
3A0
330
18
100
AcDbEntity
  8
SK2
100
AcDbLine
 10
-89.82800000000001
 20
90.0
 30
0.0
 11
-75.78199999999999
 21
90.0
 31
0.0
  0
LINE
  5
3A1
330
18
100
AcDbEntity
  8
SK2
100
AcDbLine
 10
-44.972
 20
90.0
 30
0.0
 11
-59.018
 21
90.0
 31
0.0
  0
SOLID
  5
3A2
330
18
100
AcDbEntity
  8
SK2
100
AcDbTrace
 10
-89.82800000000001
 20
89.23799999999999
 30
0.0
 11
-89.82800000000001
 21
90.762
 31
0.0
 12
-94.40000000000001
 22
90.0
 32
0.0
 13
-94.40000000000001
 23
90.0
 33
0.0
  0
SOLID
  5
3A3
330
18
100
AcDbEntity
  8
SK2
100
AcDbTrace
 10
-44.972
 20
89.23799999999999
 30
0.0
 11
-44.972
 21
90.762
 31
0.0
 12
-40.4
 22
90.0
 32
0.0
 13
-40.4
 23
90.0
 33
0.0
  0
TEXT
  5
3A4
330
18
100
AcDbEntity
  8
SK2
100
AcDbText
 10
-71.20999999999999
 20
87.71399999999999
 30
0.0
 40
4.572
  1
54
  7
SIMPLEX
100
AcDbText
  0
LINE
  5
3A6
330
18
100
AcDbEntity
  8
SK2
100
AcDbLine
 10
-88.40000000000001
 20
9.5
 30
0.0
 11
-96.4
 21
39.0
 31
0.0
  0
LINE
  5
3A7
330
18
100
AcDbEntity
  8
SK2
100
AcDbLine
 10
-87.789326
 20
7.362638999999999
 30
0.0
 11
-87.789326
 21
41.5
 31
0.0
  0
ARC
  5
3A8
330
18
100
AcDbEntity
  8
SK2
100
AcDbCircle
 10
-89.28932600000001
 20
12.748138
 30
0.0
 40
24.946562
100
AcDbArc
 50
115.688365
 51
126.203814
  0
ARC
  5
3A9
330
18
100
AcDbEntity
  8
SK2
100
AcDbCircle
 10
-87.789326
 20
14.248138
 30
0.0
 40
24.946562
100
AcDbArc
 50
68.96910099999999
 51
79.484551
  0
SOLID
  5
3AA
330
18
100
AcDbEntity
  8
SK2
100
AcDbTrace
 10
-99.83707
 20
34.515042
 30
0.0
 11
-100.3690579999999
 21
35.94317499999999
 31
0.0
 12
-95.81866299999999
 22
36.825071
 32
0.0
 13
-95.81866299999999
 23
36.825071
 33
0.0
  0
SOLID
  5
3AB
330
18
100
AcDbEntity
  8
SK2
100
AcDbTrace
 10
-83.306388
 20
38.016947
 30
0.0
 11
-83.166735
 21
39.534535
 31
0.0
 12
-87.789326
 22
39.1947
 32
0.0
 13
-87.789326
 23
39.1947
 33
0.0
  0
TEXT
  5
3AC
330
18
100
AcDbEntity
  8
SK2
100
AcDbText
 10
-105.2603139999999
 20
34.51538999999999
 30
0.0
 40
4.572
  1
15%%d
 50
28.189588
  7
SIMPLEX
100
AcDbText
  0
LINE
  5
3AD
330
18
100
AcDbEntity
  8
SK2
100
AcDbLine
 10
-94.40000000000001
 20
38.236891
 30
0.0
 11
-94.40000000000001
 21
94.572
 31
0.0
  0
LINE
  5
3AE
330
18
100
AcDbEntity
  8
SK2
100
AcDbLine
 10
-94.40000000000001
 20
8.323529
 30
0.0
 11
-94.40000000000001
 21
79.572
 31
0.0
  0
LINE
  5
3AF
330
18
100
AcDbEntity
  8
SK1
100
AcDbLine
 10
-64.90000000000001
 20
8.5
 30
0.0
 11
-64.90000000000001
 21
-8.5
 31
0.0
  0
LINE
  5
3B0
330
18
100
AcDbEntity
  8
SK1
100
AcDbLine
 10
-62.9
 20
8.5
 30
0.0
 11
-62.9
 21
-8.5
 31
0.0
  0
LINE
  5
3B1
330
18
100
AcDbEntity
  8
SK1
100
AcDbLine
 10
-64.90000000000001
 20
-6.999999999999999
 30
0.0
 11
-62.9
 21
-7.0
 31
0.0
  0
CIRCLE
  5
3B2
330
18
100
AcDbEntity
  8
SK1
100
AcDbCircle
 10
-63.9
 20
-8.0
 30
0.0
 40
1.0
1001
ACAD
1000
ASC_BOUNDS
1002
{
1070
    19
1005
3B3
1002
}
  0
INSERT
  5
3B3
330
18
100
AcDbEntity
  8
SK6
  6
CONTINUOUS
100
AcDbBlockReference
  2
*X0
 10
0.0
 20
0.0
 30
0.0
1001
ACAD
1000
HATCH
1002
{
1070
    19
1000
ANSI31
1040
0.1
1040
0.0
1000
ASC_BOUNDS
1070
     1
1070
     1
1070
     1
1005
3B2
1000
ASC_SEEDPOINT
1011
-63.84628501028124
1021
-8.195040267609783
1031
0.0
1000
R14_HATCH_DATA
1000
3B3
1011
1.0
1021
0.0
1031
0.0
1011
0.0
1021
1.0
1031
0.0
1011
0.0
1021
0.0
1031
1.0
1040
0.0
1010
0.0
1020
0.0
1030
1.0
1000
ANSI31
1070
     0
1070
     1
1071
        1
1071
        7
1070
     1
1070
     1
1071
        2
1040
-62.9
1040
-8.0
1040
1.0
1040
-64.90000000000001
1040
-8.0
1040
1.0
1071
        1
1005
3B2
1070
     0
1070
     1
1040
0.0
1040
0.1
1070
     0
1070
     1
1040
5.497787143782137
1040
1.0
1040
0.0
1040
-0.2245064030267288
1040
-0.2245064030267288
1070
     0
1040
0.0297756597179875
1071
        1
1040
-63.84628501028124
1040
-8.195040267609783
1040
0.0
1002
}
  0
INSERT
  5
3B4
330
18
100
AcDbEntity
  8
SK6
  6
CONTINUOUS
100
AcDbBlockReference
  2
*X1
 10
0.0
 20
0.0
 30
0.0
1001
ACAD
1000
HATCH
1002
{
1070
    19
1000
ANSI31
1040
0.1
1040
0.0
1000
ASC_BOUNDS
1070
     1
1070
     1
1070
     1
1005
3B5
1000
ASC_SEEDPOINT
1011
-63.84628501028124
1021
8.195040267609783
1031
0.0
1000
R14_HATCH_DATA
1000
3B4
1011
1.0
1021
0.0
1031
0.0
1011
0.0
1021
1.0
1031
0.0
1011
0.0
1021
0.0
1031
1.0
1040
0.0
1010
0.0
1020
0.0
1030
1.0
1000
ANSI31
1070
     0
1070
     1
1071
        1
1071
        7
1070
     1
1070
     1
1071
        2
1040
-64.90000000000001
1040
8.0
1040
1.0
1040
-62.9
1040
8.0
1040
1.0
1071
        1
1005
3B5
1070
     0
1070
     1
1040
0.0
1040
0.1
1070
     0
1070
     1
1040
0.7853981633974483
1040
1.0
1040
0.0
1040
-0.2245064030267288
1040
0.2245064030267288
1070
     0
1040
0.0297756597179875
1071
        1
1040
-63.84628501028124
1040
8.195040267609783
1040
0.0
1002
}
  0
CIRCLE
  5
3B5
330
18
100
AcDbEntity
  8
SK1
100
AcDbCircle
 10
-63.9
 20
8.0
 30
0.0
 40
1.0
1001
ACAD
1000
ASC_BOUNDS
1002
{
1070
    19
1005
3B4
1002
}
  0
LINE
  5
3B6
330
18
100
AcDbEntity
  8
SK1
100
AcDbLine
 10
-64.90000000000001
 20
6.999999999999999
 30
0.0
 11
-62.9
 21
7.0
 31
0.0
  0
LINE
  5
3B7
330
18
100
AcDbEntity
  8
SK1
100
AcDbLine
 10
-62.9
 20
8.5
 30
0.0
 11
-61.4
 21
8.5
 31
0.0
  0
LINE
  5
3B8
330
18
100
AcDbEntity
  8
SK1
100
AcDbLine
 10
-62.9
 20
-8.5
 30
0.0
 11
-61.4
 21
-8.5
 31
0.0
  0
ENDSEC
  0
SECTION
  2
OBJECTS
  0
DICTIONARY
  5
C
330
0
100
AcDbDictionary
  3
ACAD_GROUP
350
D
  3
ACAD_LAYOUT
350
301
  3
ACAD_MLINESTYLE
350
E
  3
ACAD_PLOTSETTINGS
350
302
1001
ACAD
1000
TREAT_AS_HARD
1070
     0
  0
DICTIONARY
  5
3BB
330
18
100
AcDbDictionary
  3
ACAD_LAYOUTSELFREF
350
3BC
  0
DICTIONARY
  5
3BD
330
338
100
AcDbDictionary
  3
ACAD_LAYOUTSELFREF
350
3BE
  0
DICTIONARY
  5
D
102
{ACAD_REACTORS
330
C
102
}
330
C
100
AcDbDictionary
1001
ACAD
1000
TREAT_AS_HARD
1070
     0
  0
DICTIONARY
  5
301
102
{ACAD_REACTORS
330
C
102
}
330
C
100
AcDbDictionary
1001
ACAD
1000
TREAT_AS_HARD
1070
     0
  0
DICTIONARY
  5
E
102
{ACAD_REACTORS
330
C
102
}
330
C
100
AcDbDictionary
  3
STANDARD
350
1B
1001
ACAD
1000
TREAT_AS_HARD
1070
     0
  0
DICTIONARY
  5
302
102
{ACAD_REACTORS
330
C
102
}
330
C
100
AcDbDictionary
1001
ACAD
1000
TREAT_AS_HARD
1070
     0
  0
XRECORD
  5
3BC
102
{ACAD_REACTORS
330
3BB
102
}
330
3BB
100
AcDbXrecord
340
18
  0
XRECORD
  5
3BE
102
{ACAD_REACTORS
330
3BD
102
}
330
3BD
100
AcDbXrecord
340
338
  0
MLINESTYLE
  5
1B
102
{ACAD_REACTORS
330
E
102
}
330
E
100
AcDbMlineStyle
  2
STANDARD
 70
     0
  3

 62
     0
 51
90.0
 52
90.0
 71
     2
 49
0.5
 62
   256
  6
BYLAYER
 49
-0.5
 62
   256
  6
BYLAYER
  0
ENDSEC
  0
EOF
