  0
SECTION
  2
HEADER
  9
$ACADVER
  1
AC1012
  9
$DWGCODEPAGE
  3
ANSI_1252
  9
$INSBASE
 10
0.0
 20
0.0
 30
0.0
  9
$EXTMIN
 10
-66.88549632263084
 20
-65.03265268522387
 30
-0.0015258207003583
  9
$EXTMAX
 10
140.0163585848831
 20
81.8743904422438
 30
0.0000000349246037
  9
$LIMMIN
 10
-170.0
 20
-170.0
  9
$LIMMAX
 10
519.0
 20
260.0
  9
$ORTHOMODE
 70
     0
  9
$REGENMODE
 70
     1
  9
$FILLMODE
 70
     1
  9
$QTEXTMODE
 70
     0
  9
$MIRRTEXT
 70
     0
  9
$DRAGMODE
 70
     2
  9
$LTSCALE
 40
15.0
  9
$OSMODE
 70
     0
  9
$ATTMODE
 70
     1
  9
$TEXTSIZE
 40
4.57
  9
$TRACEWID
 40
0.05
  9
$TEXTSTYLE
  7
SIMPLEX
  9
$CLAYER
  8
SK2
  9
$CELTYPE
  6
BYLAYER
  9
$CECOLOR
 62
   256
  9
$CELTSCALE
 40
1.0
  9
$DELOBJ
 70
     1
  9
$DISPSILH
 70
     0
  9
$DIMSCALE
 40
0.0
  9
$DIMASZ
 40
4.57
  9
$DIMEXO
 40
0.0
  9
$DIMDLI
 40
0.38
  9
$DIMRND
 40
0.0
  9
$DIMDLE
 40
0.0
  9
$DIMEXE
 40
5.0
  9
$DIMTP
 40
0.0
  9
$DIMTM
 40
0.0
  9
$DIMTXT
 40
4.57
  9
$DIMCEN
 40
0.09
  9
$DIMTSZ
 40
0.0
  9
$DIMTOL
 70
     0
  9
$DIMLIM
 70
     0
  9
$DIMTIH
 70
     0
  9
$DIMTOH
 70
     0
  9
$DIMSE1
 70
     0
  9
$DIMSE2
 70
     0
  9
$DIMTAD
 70
     1
  9
$DIMZIN
 70
     8
  9
$DIMBLK
  1

  9
$DIMASO
 70
     1
  9
$DIMSHO
 70
     1
  9
$DIMPOST
  1

  9
$DIMAPOST
  1

  9
$DIMALT
 70
     0
  9
$DIMALTD
 70
     2
  9
$DIMALTF
 40
25.4
  9
$DIMLFAC
 40
1.0
  9
$DIMTOFL
 70
     0
  9
$DIMTVP
 40
0.0
  9
$DIMTIX
 70
     0
  9
$DIMSOXD
 70
     0
  9
$DIMSAH
 70
     0
  9
$DIMBLK1
  1

  9
$DIMBLK2
  1

  9
$DIMSTYLE
  2
STANDARD
  9
$DIMCLRD
 70
     0
  9
$DIMCLRE
 70
     0
  9
$DIMCLRT
 70
     0
  9
$DIMTFAC
 40
1.0
  9
$DIMGAP
 40
2.299999999999999
  9
$DIMJUST
 70
     0
  9
$DIMSD1
 70
     0
  9
$DIMSD2
 70
     0
  9
$DIMTOLJ
 70
     1
  9
$DIMTZIN
 70
     0
  9
$DIMALTZ
 70
     0
  9
$DIMALTTZ
 70
     0
  9
$DIMFIT
 70
     3
  9
$DIMUPT
 70
     0
  9
$DIMUNIT
 70
     2
  9
$DIMDEC
 70
     2
  9
$DIMTDEC
 70
     4
  9
$DIMALTU
 70
     2
  9
$DIMALTTD
 70
     2
  9
$DIMTXSTY
  7
SIMPLEX
  9
$DIMAUNIT
 70
     0
  9
$LUNITS
 70
     2
  9
$LUPREC
 70
     2
  9
$SKETCHINC
 40
0.1
  9
$FILLETRAD
 40
0.0
  9
$AUNITS
 70
     0
  9
$AUPREC
 70
     0
  9
$MENU
  1
c:\tdm21\cad\caduti13\tdm13
  9
$ELEVATION
 40
0.0
  9
$PELEVATION
 40
0.0
  9
$THICKNESS
 40
0.0
  9
$LIMCHECK
 70
     0
  9
$BLIPMODE
 70
     0
  9
$CHAMFERA
 40
0.0
  9
$CHAMFERB
 40
0.0
  9
$CHAMFERC
 40
0.0
  9
$CHAMFERD
 40
0.0
  9
$SKPOLY
 70
     0
  9
$TDCREATE
 40
2452473.324399768
  9
$TDUPDATE
 40
2452473.324399768
  9
$TDINDWG
 40
0.0002072917
  9
$TDUSRTIMER
 40
0.0002072917
  9
$USRTIMER
 70
     1
  9
$ANGBASE
 50
0.0
  9
$ANGDIR
 70
     0
  9
$PDMODE
 70
     1
  9
$PDSIZE
 40
0.0
  9
$PLINEWID
 40
0.0
  9
$COORDS
 70
     1
  9
$SPLFRAME
 70
     0
  9
$SPLINETYPE
 70
     6
  9
$SPLINESEGS
 70
     8
  9
$ATTDIA
 70
     0
  9
$ATTREQ
 70
     1
  9
$HANDLING
 70
  4097
  9
$HANDSEED
  5
449
  9
$SURFTAB1
 70
     6
  9
$SURFTAB2
 70
     6
  9
$SURFTYPE
 70
     6
  9
$SURFU
 70
     6
  9
$SURFV
 70
     6
  9
$UCSNAME
  2

  9
$UCSORG
 10
0.0
 20
0.0
 30
0.0
  9
$UCSXDIR
 10
1.0
 20
0.0
 30
0.0
  9
$UCSYDIR
 10
0.0
 20
1.0
 30
0.0
  9
$PUCSNAME
  2

  9
$PUCSORG
 10
0.0
 20
0.0
 30
0.0
  9
$PUCSXDIR
 10
1.0
 20
0.0
 30
0.0
  9
$PUCSYDIR
 10
0.0
 20
1.0
 30
0.0
  9
$USERI1
 70
     0
  9
$USERI2
 70
     0
  9
$USERI3
 70
     0
  9
$USERI4
 70
     0
  9
$USERI5
 70
     0
  9
$USERR1
 40
0.0
  9
$USERR2
 40
0.0
  9
$USERR3
 40
0.0
  9
$USERR4
 40
0.0
  9
$USERR5
 40
0.0
  9
$WORLDVIEW
 70
     1
  9
$SHADEDGE
 70
     3
  9
$SHADEDIF
 70
    70
  9
$TILEMODE
 70
     1
  9
$MAXACTVP
 70
    16
  9
$PINSBASE
 10
0.0
 20
0.0
 30
0.0
  9
$PLIMCHECK
 70
     0
  9
$PEXTMIN
 10
0.0
 20
0.0
 30
0.0
  9
$PEXTMAX
 10
0.0
 20
0.0
 30
0.0
  9
$PLIMMIN
 10
0.0
 20
0.0
  9
$PLIMMAX
 10
12.0
 20
9.0
  9
$UNITMODE
 70
     0
  9
$VISRETAIN
 70
     0
  9
$PLINEGEN
 70
     0
  9
$PSLTSCALE
 70
     1
  9
$TREEDEPTH
 70
  3020
  9
$PICKSTYLE
 70
     1
  9
$CMLSTYLE
  2
STANDARD
  9
$CMLJUST
 70
     0
  9
$CMLSCALE
 40
1.0
  9
$SAVEIMAGES
 70
     1
  0
ENDSEC
  0
SECTION
  2
CLASSES
  0
CLASS
  1
ACDBDICTIONARYWDFLT
  2
AcDbDictionaryWithDefault
  3
AutoCAD 2000
 90
    32768
280
     0
281
     0
  0
CLASS
  1
ACDBPLACEHOLDER
  2
AcDbPlaceHolder
  3
AutoCAD 2000
 90
    32768
280
     0
281
     0
  0
CLASS
  1
LAYOUT
  2
AcDbLayout
  3
AutoCAD 2000
 90
    32768
280
     0
281
     0
  0
CLASS
  1
LONG_TRANSACTION
  2
AcDbLongTransaction
  3
AutoCAD 2000
 90
    32768
280
     0
281
     0
  0
CLASS
  1
LWPOLYLINE
  2
AcDbPolyline
  3
AutoCAD 2000
 90
    32768
280
     0
281
     1
  0
CLASS
  1
HATCH
  2
AcDbHatch
  3
AutoCAD 2000
 90
    32768
280
     0
281
     1
  0
CLASS
  1
XRECORD
  2
AcDbXrecord
  3
AutoCAD 2000
 90
    32768
280
     0
281
     0
  0
ENDSEC
  0
SECTION
  2
TABLES
  0
TABLE
  2
VPORT
  5
8
330
0
100
AcDbSymbolTable
 70
     3
  0
VPORT
  5
432
330
8
100
AcDbSymbolTableRecord
100
AcDbViewportTableRecord
  2
*ACTIVE
 70
     0
 10
0.0
 20
0.0
 11
1.0
 21
1.0
 12
36.56543113112616
 22
8.420868878509963
 13
0.0
 23
0.0
 14
5.0
 24
5.0
 15
5.0
 25
5.0
 16
0.0
 26
0.0
 36
1.0
 17
0.0
 27
0.0
 37
0.0
 40
156.9070431274676
 41
2.184713375796178
 42
50.0
 43
0.0
 44
0.0
 50
0.0
 51
0.0
 71
     0
 72
   100
 73
     1
 74
     1
 75
     0
 76
     0
 77
     0
 78
     0
  0
ENDTAB
  0
TABLE
  2
LTYPE
  5
5
330
0
100
AcDbSymbolTable
 70
     3
  0
LTYPE
  5
12
330
5
100
AcDbSymbolTableRecord
100
AcDbLinetypeTableRecord
  2
BYBLOCK
 70
     0
  3

 72
    65
 73
     0
 40
0.0
  0
LTYPE
  5
13
330
5
100
AcDbSymbolTableRecord
100
AcDbLinetypeTableRecord
  2
BYLAYER
 70
     0
  3

 72
    65
 73
     0
 40
0.0
  0
LTYPE
  5
14
330
5
100
AcDbSymbolTableRecord
100
AcDbLinetypeTableRecord
  2
CONTINUOUS
 70
     0
  3
Solid line
 72
    65
 73
     0
 40
0.0
  0
LTYPE
  5
1F
330
5
100
AcDbSymbolTableRecord
100
AcDbLinetypeTableRecord
  2
CENTER
 70
     0
  3
____ . ____ . ____
 72
    65
 73
     4
 40
1.5
 49
1.0
 74
     0
 49
-0.25
 74
     0
 49
0.0
 74
     0
 49
-0.25
 74
     0
  0
LTYPE
  5
20
330
5
100
AcDbSymbolTableRecord
100
AcDbLinetypeTableRecord
  2
HIDDEN
 70
     0
  3
_ _ _ _ _ _ _ _ _ _ _ _ _ _ _ _ _ _ _ _ _ _ _
 72
    65
 73
     2
 40
0.375
 49
0.25
 74
     0
 49
-0.125
 74
     0
  0
ENDTAB
  0
TABLE
  2
LAYER
  5
2
330
0
100
AcDbSymbolTable
 70
    16
  0
LAYER
  5
F
330
2
100
AcDbSymbolTableRecord
100
AcDbLayerTableRecord
  2
0
 70
     0
 62
     7
  6
CONTINUOUS
  0
LAYER
  5
23
330
2
100
AcDbSymbolTableRecord
100
AcDbLayerTableRecord
  2
1
 70
     0
 62
     4
  6
CONTINUOUS
  0
LAYER
  5
24
330
2
100
AcDbSymbolTableRecord
100
AcDbLayerTableRecord
  2
SK1
 70
     0
 62
     4
  6
CONTINUOUS
  0
LAYER
  5
25
330
2
100
AcDbSymbolTableRecord
100
AcDbLayerTableRecord
  2
2
 70
     0
 62
     7
  6
CONTINUOUS
  0
LAYER
  5
26
330
2
100
AcDbSymbolTableRecord
100
AcDbLayerTableRecord
  2
2L
 70
     0
 62
     7
  6
CONTINUOUS
  0
LAYER
  5
27
330
2
100
AcDbSymbolTableRecord
100
AcDbLayerTableRecord
  2
SK2
 70
     0
 62
     7
  6
CONTINUOUS
  0
LAYER
  5
28
330
2
100
AcDbSymbolTableRecord
100
AcDbLayerTableRecord
  2
3
 70
     0
 62
     1
  6
HIDDEN
  0
LAYER
  5
29
330
2
100
AcDbSymbolTableRecord
100
AcDbLayerTableRecord
  2
SK3
 70
     0
 62
     1
  6
HIDDEN
  0
LAYER
  5
2A
330
2
100
AcDbSymbolTableRecord
100
AcDbLayerTableRecord
  2
4
 70
     0
 62
    -2
  6
CENTER
  0
LAYER
  5
2B
330
2
100
AcDbSymbolTableRecord
100
AcDbLayerTableRecord
  2
SK4
 70
     0
 62
     2
  6
CENTER
  0
LAYER
  5
2C
330
2
100
AcDbSymbolTableRecord
100
AcDbLayerTableRecord
  2
5
 70
     0
 62
    -7
  6
CONTINUOUS
  0
LAYER
  5
2D
330
2
100
AcDbSymbolTableRecord
100
AcDbLayerTableRecord
  2
6
 70
     0
 62
     5
  6
CONTINUOUS
  0
LAYER
  5
2E
330
2
100
AcDbSymbolTableRecord
100
AcDbLayerTableRecord
  2
SK6
 70
     0
 62
     5
  6
CONTINUOUS
  0
LAYER
  5
2F
330
2
100
AcDbSymbolTableRecord
100
AcDbLayerTableRecord
  2
DEFPOINTS
 70
     0
 62
     7
  6
CONTINUOUS
  0
LAYER
  5
397
330
2
100
AcDbSymbolTableRecord
100
AcDbLayerTableRecord
  2
1__1
 70
     0
 62
     1
  6
CONTINUOUS
  0
LAYER
  5
398
330
2
100
AcDbSymbolTableRecord
100
AcDbLayerTableRecord
  2
BEMASS
 70
     0
 62
     1
  6
CONTINUOUS
  0
ENDTAB
  0
TABLE
  2
STYLE
  5
3
330
0
100
AcDbSymbolTable
 70
     3
  0
STYLE
  5
10
330
3
100
AcDbSymbolTableRecord
100
AcDbTextStyleTableRecord
  2
STANDARD
 70
     0
 40
0.0
 41
1.0
 50
0.0
 71
     0
 42
5.0
  3
txt
  4

  0
STYLE
  5
1D
330
3
100
AcDbSymbolTableRecord
100
AcDbTextStyleTableRecord
  2
TXT
 70
     0
 40
8.0
 41
1.0
 50
0.0
 71
     0
 42
8.0
  3
txt
  4

  0
STYLE
  5
1E
330
3
100
AcDbSymbolTableRecord
100
AcDbTextStyleTableRecord
  2
SIMPLEX
 70
     0
 40
0.0
 41
1.0
 50
0.0
 71
     0
 42
4.57
  3
simplex
  4

  0
ENDTAB
  0
TABLE
  2
VIEW
  5
6
330
0
100
AcDbSymbolTable
 70
     0
  0
ENDTAB
  0
TABLE
  2
UCS
  5
7
330
0
100
AcDbSymbolTable
 70
     0
  0
ENDTAB
  0
TABLE
  2
APPID
  5
9
330
0
100
AcDbSymbolTable
 70
     1
  0
APPID
  5
11
330
9
100
AcDbSymbolTableRecord
100
AcDbRegAppTableRecord
  2
ACAD
 70
     0
  0
ENDTAB
  0
TABLE
  2
DIMSTYLE
  5
A
330
0
100
AcDbSymbolTable
 70
     1
  0
DIMSTYLE
105
3F
102
{ACAD_REACTORS
330
3DB
330
3B6
330
3B5
330
3B4
102
}
330
A
100
AcDbSymbolTableRecord
100
AcDbDimStyleTableRecord
  2
STANDARD
 70
     0
  3

  4

  5

  6

  7

 40
0.0
 41
4.57
 42
0.0
 43
0.38
 44
5.0
 45
0.0
 46
0.0
 47
0.0
 48
0.0
140
4.57
141
0.09
142
0.0
143
25.4
144
1.0
145
0.0
146
1.0
147
2.299999999999999
 71
     0
 72
     0
 73
     0
 74
     0
 75
     0
 76
     0
 77
     1
 78
     8
170
     0
171
     2
172
     0
173
     0
174
     0
175
     0
176
     0
177
     0
178
     0
270
     2
271
     2
272
     4
273
     2
274
     2
340
1E
275
     0
280
     0
281
     0
282
     0
283
     1
284
     0
285
     0
286
     0
287
     3
288
     0
  0
ENDTAB
  0
TABLE
  2
BLOCK_RECORD
  5
1
330
0
100
AcDbSymbolTable
 70
    14
  0
BLOCK_RECORD
  5
18
102
{ACAD_XDICTIONARY
360
433
102
}
330
1
100
AcDbSymbolTableRecord
100
AcDbBlockTableRecord
  2
*MODEL_SPACE
  0
BLOCK_RECORD
  5
338
102
{ACAD_XDICTIONARY
360
435
102
}
330
1
100
AcDbSymbolTableRecord
100
AcDbBlockTableRecord
  2
*PAPER_SPACE
  0
BLOCK_RECORD
  5
345
330
1
100
AcDbSymbolTableRecord
100
AcDbBlockTableRecord
  2
G_FBA4
  0
BLOCK_RECORD
  5
348
330
1
100
AcDbSymbolTableRecord
100
AcDbBlockTableRecord
  2
G_FB9F
  0
BLOCK_RECORD
  5
34B
330
1
100
AcDbSymbolTableRecord
100
AcDbBlockTableRecord
  2
G_FB9A
  0
BLOCK_RECORD
  5
34E
330
1
100
AcDbSymbolTableRecord
100
AcDbBlockTableRecord
  2
G_FB95
  0
BLOCK_RECORD
  5
351
330
1
100
AcDbSymbolTableRecord
100
AcDbBlockTableRecord
  2
G_FB90
  0
BLOCK_RECORD
  5
354
330
1
100
AcDbSymbolTableRecord
100
AcDbBlockTableRecord
  2
G_FB86
  0
BLOCK_RECORD
  5
357
330
1
100
AcDbSymbolTableRecord
100
AcDbBlockTableRecord
  2
G_FB81
  0
BLOCK_RECORD
  5
35A
330
1
100
AcDbSymbolTableRecord
100
AcDbBlockTableRecord
  2
G_FB7C
  0
BLOCK_RECORD
  5
35D
330
1
100
AcDbSymbolTableRecord
100
AcDbBlockTableRecord
  2
G_FB77
  0
BLOCK_RECORD
  5
360
330
1
100
AcDbSymbolTableRecord
100
AcDbBlockTableRecord
  2
G_FB72
  0
BLOCK_RECORD
  5
363
330
1
100
AcDbSymbolTableRecord
100
AcDbBlockTableRecord
  2
*D10
  0
BLOCK_RECORD
  5
36F
330
1
100
AcDbSymbolTableRecord
100
AcDbBlockTableRecord
  2
*D11
  0
BLOCK_RECORD
  5
37B
330
1
100
AcDbSymbolTableRecord
100
AcDbBlockTableRecord
  2
*D12
  0
BLOCK_RECORD
  5
38B
330
1
100
AcDbSymbolTableRecord
100
AcDbBlockTableRecord
  2
*D13
  0
ENDTAB
  0
ENDSEC
  0
SECTION
  2
BLOCKS
  0
BLOCK
  5
32
330
18
100
AcDbEntity
  8
0
100
AcDbBlockBegin
  2
*MODEL_SPACE
 70
     0
 10
0.0
 20
0.0
 30
0.0
  3
*MODEL_SPACE
  1

  0
ENDBLK
  5
33
330
18
100
AcDbEntity
  8
0
100
AcDbBlockEnd
  0
BLOCK
  5
339
330
338
100
AcDbEntity
 67
     1
  8
0
100
AcDbBlockBegin
  2
*PAPER_SPACE
 70
     0
 10
0.0
 20
0.0
 30
0.0
  3
*PAPER_SPACE
  1

  0
ENDBLK
  5
33A
330
338
100
AcDbEntity
 67
     1
  8
0
100
AcDbBlockEnd
  0
BLOCK
  5
346
330
345
100
AcDbEntity
  8
1__1
 62
     3
100
AcDbBlockBegin
  2
G_FBA4
 70
     0
 10
0.0
 20
0.0
 30
0.0
  3
G_FBA4
  1

  0
ENDBLK
  5
347
330
345
100
AcDbEntity
  8
0
100
AcDbBlockEnd
  0
BLOCK
  5
349
330
348
100
AcDbEntity
  8
1__1
 62
     3
100
AcDbBlockBegin
  2
G_FB9F
 70
     0
 10
0.0
 20
0.0
 30
0.0
  3
G_FB9F
  1

  0
ENDBLK
  5
34A
330
348
100
AcDbEntity
  8
0
100
AcDbBlockEnd
  0
BLOCK
  5
34C
330
34B
100
AcDbEntity
  8
1__1
 62
     3
100
AcDbBlockBegin
  2
G_FB9A
 70
     0
 10
0.0
 20
0.0
 30
0.0
  3
G_FB9A
  1

  0
ENDBLK
  5
34D
330
34B
100
AcDbEntity
  8
0
100
AcDbBlockEnd
  0
BLOCK
  5
34F
330
34E
100
AcDbEntity
  8
1__1
 62
     3
100
AcDbBlockBegin
  2
G_FB95
 70
     0
 10
0.0
 20
0.0
 30
0.0
  3
G_FB95
  1

  0
ENDBLK
  5
350
330
34E
100
AcDbEntity
  8
0
100
AcDbBlockEnd
  0
BLOCK
  5
352
330
351
100
AcDbEntity
  8
1__1
 62
     3
100
AcDbBlockBegin
  2
G_FB90
 70
     0
 10
0.0
 20
0.0
 30
0.0
  3
G_FB90
  1

  0
ENDBLK
  5
353
330
351
100
AcDbEntity
  8
0
100
AcDbBlockEnd
  0
BLOCK
  5
355
330
354
100
AcDbEntity
  8
1__1
 62
     3
100
AcDbBlockBegin
  2
G_FB86
 70
     0
 10
0.0
 20
0.0
 30
0.0
  3
G_FB86
  1

  0
ENDBLK
  5
356
330
354
100
AcDbEntity
  8
0
100
AcDbBlockEnd
  0
BLOCK
  5
358
330
357
100
AcDbEntity
  8
1__1
 62
     3
100
AcDbBlockBegin
  2
G_FB81
 70
     0
 10
0.0
 20
0.0
 30
0.0
  3
G_FB81
  1

  0
ENDBLK
  5
359
330
357
100
AcDbEntity
  8
0
100
AcDbBlockEnd
  0
BLOCK
  5
35B
330
35A
100
AcDbEntity
  8
1__1
 62
     3
100
AcDbBlockBegin
  2
G_FB7C
 70
     0
 10
0.0
 20
0.0
 30
0.0
  3
G_FB7C
  1

  0
ENDBLK
  5
35C
330
35A
100
AcDbEntity
  8
0
100
AcDbBlockEnd
  0
BLOCK
  5
35E
330
35D
100
AcDbEntity
  8
1__1
 62
     3
100
AcDbBlockBegin
  2
G_FB77
 70
     0
 10
0.0
 20
0.0
 30
0.0
  3
G_FB77
  1

  0
ENDBLK
  5
35F
330
35D
100
AcDbEntity
  8
0
100
AcDbBlockEnd
  0
BLOCK
  5
361
330
360
100
AcDbEntity
  8
1__1
 62
     3
100
AcDbBlockBegin
  2
G_FB72
 70
     0
 10
0.0
 20
0.0
 30
0.0
  3
G_FB72
  1

  0
ENDBLK
  5
362
330
360
100
AcDbEntity
  8
0
100
AcDbBlockEnd
  0
BLOCK
  5
36D
330
363
100
AcDbEntity
  8
0
100
AcDbBlockBegin
  2
*D10
 70
     1
 10
0.0
 20
0.0
 30
0.0
  3
*D10
  1

  0
LINE
  5
3DC
330
363
100
AcDbEntity
  8
2
 62
     0
100
AcDbLine
 10
-0.0000000000000071
 20
8.001000000000001
 30
0.0
 11
-0.0000000000000027
 21
80.0
 31
0.0
  0
LINE
  5
3DD
330
363
100
AcDbEntity
  8
2
 62
     0
100
AcDbLine
 10
109.9999999999895
 20
3.950003966260721
 30
0.0
 11
109.9999999999895
 21
80.0
 31
0.0
  0
LINE
  5
3DE
330
363
100
AcDbEntity
  8
2
 62
     0
100
AcDbLine
 10
4.569999999999997
 20
75.0
 30
0.0
 11
105.4299999999895
 21
75.0
 31
0.0
  0
SOLID
  5
3DF
330
363
100
AcDbEntity
  8
2
 62
     0
100
AcDbTrace
 10
4.569999999999997
 20
75.76166666666667
 30
0.0
 11
4.569999999999997
 21
74.23833333333333
 31
0.0
 12
-0.000000000000003
 22
75.0
 32
0.0
 13
-0.000000000000003
 23
75.0
 33
0.0
  0
SOLID
  5
3E0
330
363
100
AcDbEntity
  8
2
 62
     0
100
AcDbTrace
 10
105.4299999999895
 20
75.76166666666667
 30
0.0
 11
105.4299999999895
 21
74.23833333333333
 31
0.0
 12
109.9999999999895
 22
75.0
 32
0.0
 13
109.9999999999895
 23
75.0
 33
0.0
  0
MTEXT
  5
3E1
330
363
100
AcDbEntity
  8
2
 62
     0
100
AcDbMText
 10
54.99999999999475
 20
79.58499999999999
 30
0.0
 40
4.57
 41
0.0
 71
     5
 72
     1
  1
\A1;110
  7
SIMPLEX
1001
ACAD
1000
MTEXTBEGIN
1070
    73
1070
     1
1070
    44
1040
1.0
1070
    74
1070
     0
1000
MTEXTEND
  0
POINT
  5
3E2
330
363
100
AcDbEntity
  8
DEFPOINTS
 62
     0
100
AcDbPoint
 10
-0.0000000000000071
 20
8.001000000000001
 30
0.0
  0
POINT
  5
3E3
330
363
100
AcDbEntity
  8
DEFPOINTS
 62
     0
100
AcDbPoint
 10
109.9999999999895
 20
3.950003966260721
 30
0.0
  0
POINT
  5
3E4
330
363
100
AcDbEntity
  8
DEFPOINTS
 62
     0
100
AcDbPoint
 10
109.9999999999895
 20
75.0
 30
0.0
  0
ENDBLK
  5
36E
330
363
100
AcDbEntity
  8
0
100
AcDbBlockEnd
  0
BLOCK
  5
379
330
36F
100
AcDbEntity
  8
0
100
AcDbBlockBegin
  2
*D11
 70
     1
 10
0.0
 20
0.0
 30
0.0
  3
*D11
  1

  0
LINE
  5
404
330
36F
100
AcDbEntity
  8
SK2
 62
     0
100
AcDbLine
 10
-50.0
 20
-7.461999999999999
 30
0.0
 11
-50.0
 21
-45.0
 31
0.0
  0
LINE
  5
405
330
36F
100
AcDbEntity
  8
SK2
 62
     0
100
AcDbLine
 10
109.999
 20
-4.256999999999997
 30
0.0
 11
109.999
 21
-45.0
 31
0.0
  0
LINE
  5
406
330
36F
100
AcDbEntity
  8
SK2
 62
     0
100
AcDbLine
 10
-45.43000000000001
 20
-40.0
 30
0.0
 11
105.4289999999999
 21
-40.0
 31
0.0
  0
SOLID
  5
407
330
36F
100
AcDbEntity
  8
SK2
 62
     0
100
AcDbTrace
 10
-45.43000000000001
 20
-39.23833333333332
 30
0.0
 11
-45.43000000000001
 21
-40.76166666666667
 31
0.0
 12
-50.0
 22
-40.0
 32
0.0
 13
-50.0
 23
-40.0
 33
0.0
  0
SOLID
  5
408
330
36F
100
AcDbEntity
  8
SK2
 62
     0
100
AcDbTrace
 10
105.4289999999999
 20
-39.23833333333332
 30
0.0
 11
105.4289999999999
 21
-40.76166666666667
 31
0.0
 12
109.999
 22
-40.0
 32
0.0
 13
109.999
 23
-40.0
 33
0.0
  0
MTEXT
  5
409
330
36F
100
AcDbEntity
  8
SK2
 62
     0
100
AcDbMText
 10
29.9995
 20
-35.415
 30
0.0
 40
4.57
 41
0.0
 71
     5
 72
     1
  1
\A1;160
  7
SIMPLEX
1001
ACAD
1000
MTEXTBEGIN
1070
    73
1070
     1
1070
    44
1040
1.0
1070
    74
1070
     0
1000
MTEXTEND
  0
POINT
  5
40A
330
36F
100
AcDbEntity
  8
DEFPOINTS
 62
     0
100
AcDbPoint
 10
-50.0
 20
-7.461999999999999
 30
0.0
  0
POINT
  5
40B
330
36F
100
AcDbEntity
  8
DEFPOINTS
 62
     0
100
AcDbPoint
 10
109.999
 20
-4.256999999999997
 30
0.0
  0
POINT
  5
40C
330
36F
100
AcDbEntity
  8
DEFPOINTS
 62
     0
100
AcDbPoint
 10
109.999
 20
-40.0
 30
0.0
  0
ENDBLK
  5
37A
330
36F
100
AcDbEntity
  8
0
100
AcDbBlockEnd
  0
BLOCK
  5
389
330
37B
100
AcDbEntity
  8
0
100
AcDbBlockBegin
  2
*D12
 70
     1
 10
0.0
 20
0.0
 30
0.0
  3
*D12
  1

  0
LINE
  5
3EE
330
37B
100
AcDbEntity
  8
SK2
 62
     0
100
AcDbLine
 10
71.87299999999997
 20
8.001000000000001
 30
0.0
 11
15.23116436510506
 21
12.45944826749834
 31
0.0
  0
ARC
  5
3EF
330
37B
100
AcDbEntity
  8
SK2
 62
     0
100
AcDbCircle
 10
71.87299999999997
 20
8.001000000000001
 30
0.0
 40
51.8170335818794
100
AcDbArc
 50
165.3798142596012
 51
175.4993574761254
  0
LINE
  5
3F0
330
37B
100
AcDbEntity
  8
SK2
 62
     0
100
AcDbLine
 10
21.73378618883311
 20
21.08015164006102
 30
0.0
 11
25.86105475351084
 21
36.90212593284616
 31
0.0
  0
ARC
  5
3F1
330
37B
100
AcDbEntity
  8
SK2
 62
     0
100
AcDbCircle
 10
71.87299999999997
 20
8.001000000000001
 30
0.0
 40
51.8170335818794
100
AcDbArc
 50
165.3896838443353
 51
170.4445206602304
  0
ARC
  5
3F2
330
37B
100
AcDbEntity
  8
SK2
 62
     0
100
AcDbCircle
 10
71.87299999999997
 20
8.001000000000001
 30
0.0
 40
51.8170335818794
100
AcDbArc
 50
185.054836815895
 51
190.10967363179
  0
SOLID
  5
3F3
330
37B
100
AcDbEntity
  8
SK2
 62
     0
100
AcDbTrace
 10
21.53085473410115
 20
16.50956543857431
 30
0.0
 11
20.01896719974012
 21
16.69595354948315
 31
0.0
 12
20.21574663419414
 22
12.06709689094563
 32
0.0
 13
20.21574663419414
 23
12.06709689094563
 33
0.0
  0
SOLID
  5
3F4
330
37B
100
AcDbEntity
  8
SK2
 62
     0
100
AcDbTrace
 10
19.49656610577194
 20
3.401857971136873
 30
0.0
 11
21.01841759147613
 21
3.469033114638022
 31
0.0
 12
20.05596641812058
 22
8.001000000000013
 32
0.0
 13
20.05596641812058
 23
8.001000000000013
 33
0.0
  0
MTEXT
  5
3F5
330
37B
100
AcDbEntity
  8
SK2
 62
     0
100
AcDbMText
 10
19.36088137518264
 20
30.14843989237122
 30
0.0
 40
4.57
 41
0.0
 71
     5
 72
     1
  1
\A1;4.5°
  7
SIMPLEX
 11
0.2524102739187853
 21
0.9676203044687744
 31
0.0
1001
ACAD
1000
MTEXTBEGIN
1070
    73
1070
     1
1070
    44
1040
1.0
1070
    74
1070
     0
1000
MTEXTEND
  0
POINT
  5
3F6
330
37B
100
AcDbEntity
  8
DEFPOINTS
 62
     0
100
AcDbPoint
 10
20.07372789207008
 20
9.357605437941945
 30
0.0
  0
POINT
  5
3F7
330
37B
100
AcDbEntity
  8
DEFPOINTS
 62
     0
100
AcDbPoint
 10
-0.0000000000000072
 20
8.001000000000001
 30
0.0
  0
POINT
  5
3F8
330
37B
100
AcDbEntity
  8
DEFPOINTS
 62
     0
100
AcDbPoint
 10
71.87299999999997
 20
8.001000000000001
 30
0.0
  0
POINT
  5
3F9
330
37B
100
AcDbEntity
  8
DEFPOINTS
 62
     0
100
AcDbPoint
 10
109.2619999999999
 20
5.058000000000004
 30
0.0
  0
POINT
  5
3FA
330
37B
100
AcDbEntity
  8
DEFPOINTS
 62
     0
100
AcDbPoint
 10
71.87299999999997
 20
8.001000000000001
 30
0.0
  0
ENDBLK
  5
38A
330
37B
100
AcDbEntity
  8
0
100
AcDbBlockEnd
  0
BLOCK
  5
395
330
38B
100
AcDbEntity
  8
0
100
AcDbBlockBegin
  2
*D13
 70
     1
 10
0.0
 20
0.0
 30
0.0
  3
*D13
  1

  0
LINE
  5
3FB
330
38B
100
AcDbEntity
  8
SK2
 62
     0
100
AcDbLine
 10
85.0
 20
-4.774502827456217
 30
0.0
 11
85.0
 21
-30.0
 31
0.0
  0
LINE
  5
3FC
330
38B
100
AcDbEntity
  8
SK2
 62
     0
100
AcDbLine
 10
109.999
 20
-3.947999999999996
 30
0.0
 11
109.999
 21
-30.0
 31
0.0
  0
LINE
  5
3FD
330
38B
100
AcDbEntity
  8
SK2
 62
     0
100
AcDbLine
 10
89.56999999999998
 20
-25.0
 30
0.0
 11
105.4289999999999
 21
-25.0
 31
0.0
  0
SOLID
  5
3FE
330
38B
100
AcDbEntity
  8
SK2
 62
     0
100
AcDbTrace
 10
89.56999999999998
 20
-24.23833333333333
 30
0.0
 11
89.56999999999998
 21
-25.76166666666666
 31
0.0
 12
85.0
 22
-25.0
 32
0.0
 13
85.0
 23
-25.0
 33
0.0
  0
SOLID
  5
3FF
330
38B
100
AcDbEntity
  8
SK2
 62
     0
100
AcDbTrace
 10
105.4289999999999
 20
-24.23833333333333
 30
0.0
 11
105.4289999999999
 21
-25.76166666666666
 31
0.0
 12
109.999
 22
-25.0
 32
0.0
 13
109.999
 23
-25.0
 33
0.0
  0
MTEXT
  5
400
330
38B
100
AcDbEntity
  8
SK2
 62
     0
100
AcDbMText
 10
97.4995
 20
-20.415
 30
0.0
 40
4.57
 41
0.0
 71
     5
 72
     1
  1
\A1;25
  7
SIMPLEX
1001
ACAD
1000
MTEXTBEGIN
1070
    73
1070
     1
1070
    44
1040
1.0
1070
    74
1070
     0
1000
MTEXTEND
  0
POINT
  5
401
330
38B
100
AcDbEntity
  8
DEFPOINTS
 62
     0
100
AcDbPoint
 10
85.0
 20
-4.774502827456217
 30
0.0
  0
POINT
  5
402
330
38B
100
AcDbEntity
  8
DEFPOINTS
 62
     0
100
AcDbPoint
 10
109.999
 20
-3.947999999999996
 30
0.0
  0
POINT
  5
403
330
38B
100
AcDbEntity
  8
DEFPOINTS
 62
     0
100
AcDbPoint
 10
109.999
 20
-25.0
 30
0.0
  0
ENDBLK
  5
396
330
38B
100
AcDbEntity
  8
0
100
AcDbBlockEnd
  0
ENDSEC
  0
SECTION
  2
ENTITIES
  0
LINE
  5
399
330
18
100
AcDbEntity
  8
4
100
AcDbLine
 10
-0.0000000000000071
 20
0.0010000000000012
 30
0.0
 11
109.999
 21
0.0010000000000012
 31
0.0
  0
ARC
  5
39A
330
18
100
AcDbEntity
  8
1
100
AcDbCircle
 10
109.1999999999999
 20
4.260000000000001
 30
0.0
 40
0.7990000000000001
100
AcDbArc
 50
0.0
 51
85.480598
  0
LINE
  5
39B
330
18
100
AcDbEntity
  8
1
100
AcDbLine
 10
109.999
 20
-4.256999999999997
 30
0.0
 11
109.999
 21
4.260000000000001
 31
0.0
  0
LINE
  5
39C
330
18
100
AcDbEntity
  8
SK1
100
AcDbLine
 10
-50.0
 20
7.464000000000002
 30
0.0
 11
-50.0
 21
-7.461999999999999
 31
0.0
  0
LINE
  5
3A7
330
18
100
AcDbEntity
  8
1
100
AcDbLine
 10
-0.0000000000000071
 20
8.001000000000001
 30
0.0
 11
71.87299999999999
 21
8.001000000000001
 31
0.0
  0
LINE
  5
3A8
330
18
100
AcDbEntity
  8
1
100
AcDbLine
 10
71.87299999999999
 20
8.001000000000001
 30
0.0
 11
109.2619999999999
 21
5.058000000000003
 31
0.0
  0
ARC
  5
3A9
330
18
100
AcDbEntity
  8
1
100
AcDbCircle
 10
109.1989999999999
 20
4.260999999999999
 30
0.0
 40
0.7990000000000001
100
AcDbArc
 50
359.9685359999997
 51
85.48077400000039
  0
LINE
  5
3AA
330
18
100
AcDbEntity
  8
SK1
100
AcDbLine
 10
-50.0
 20
7.464999999999999
 30
0.0
 11
-48.0
 21
8.001000000000001
 31
0.0
  0
LINE
  5
3AB
330
18
100
AcDbEntity
  8
1
100
AcDbLine
 10
-0.0000000000000071
 20
-7.998999999999998
 30
0.0
 11
71.875
 21
-7.998999999999998
 31
0.0
  0
LINE
  5
3AC
330
18
100
AcDbEntity
  8
1
100
AcDbLine
 10
71.875
 20
-7.998999999999998
 30
0.0
 11
109.2619999999999
 21
-5.056999999999998
 31
0.0
  0
ARC
  5
3AD
330
18
100
AcDbEntity
  8
1
100
AcDbCircle
 10
109.1989999999999
 20
-4.256999999999997
 30
0.0
 40
0.8
100
AcDbArc
 50
274.5162050000002
 51
0.0354130000001875
  0
LINE
  5
3AE
330
18
100
AcDbEntity
  8
SK1
100
AcDbLine
 10
-50.0
 20
-7.464999999999999
 30
0.0
 11
-48.0
 21
-8.001000000000001
 31
0.0
  0
LINE
  5
3AF
330
18
100
AcDbEntity
  8
SK1
100
AcDbLine
 10
-48.0
 20
8.001000000000001
 30
0.0
 11
-0.0000000000000071
 21
8.001000000000001
 31
0.0
  0
LINE
  5
3B0
330
18
100
AcDbEntity
  8
SK1
100
AcDbLine
 10
-48.0
 20
-8.001000000000001
 30
0.0
 11
-0.0000000000000071
 21
-7.998999999999998
 31
0.0
  0
LINE
  5
3B1
330
18
100
AcDbEntity
  8
SK4
100
AcDbLine
 10
-52.92900000000003
 20
0.0
 30
0.0
 11
112.9529999999999
 21
0.0
 31
0.0
  0
LINE
  5
3B2
330
18
100
AcDbEntity
  8
1
100
AcDbLine
 10
71.87299999999999
 20
8.001000000000001
 30
0.0
 11
71.87299999999999
 21
-7.998999999999998
 31
0.0
  0
LINE
  5
3B3
330
18
100
AcDbEntity
  8
SK1
100
AcDbLine
 10
-48.0
 20
8.001000000000001
 30
0.0
 11
-48.0
 21
-7.998999999999998
 31
0.0
  0
LINE
  5
3B7
330
18
100
AcDbEntity
  8
SK2
100
AcDbLine
 10
106.9989999999999
 20
3.001000000000001
 30
0.0
 11
125.0
 21
3.000999999999995
 31
0.0
  0
LINE
  5
3B8
330
18
100
AcDbEntity
  8
SK2
100
AcDbLine
 10
106.9999999999999
 20
-3.0
 30
0.0
 11
125.0
 21
-3.000000000000005
 31
0.0
  0
LINE
  5
3B9
330
18
100
AcDbEntity
  8
SK2
100
AcDbLine
 10
120.0
 20
7.570999999999997
 30
0.0
 11
120.0
 21
12.14099999999999
 31
0.0
  0
LINE
  5
3BA
330
18
100
AcDbEntity
  8
SK2
100
AcDbLine
 10
120.0
 20
-7.570000000000003
 30
0.0
 11
120.0
 21
-19.56904761904762
 31
0.0
  0
SOLID
  5
3BB
330
18
100
AcDbEntity
  8
SK2
100
AcDbTrace
 10
119.2383333333333
 20
7.570999999999997
 30
0.0
 11
120.7616666666666
 21
7.570999999999997
 31
0.0
 12
120.0
 22
3.000999999999997
 32
0.0
 13
120.0
 23
3.000999999999997
 33
0.0
  0
SOLID
  5
3BC
330
18
100
AcDbEntity
  8
SK2
100
AcDbTrace
 10
119.2383333333333
 20
-7.570000000000003
 30
0.0
 11
120.7616666666666
 21
-7.570000000000003
 31
0.0
 12
120.0
 22
-3.000000000000003
 32
0.0
 13
120.0
 23
-3.000000000000003
 33
0.0
  0
LINE
  5
3BE
330
18
100
AcDbEntity
  8
SK2
100
AcDbLine
 10
109.9999999999895
 20
5.001000000000001
 30
0.0
 11
140.0
 21
5.000999999999992
 31
0.0
  0
LINE
  5
3BF
330
18
100
AcDbEntity
  8
SK2
100
AcDbLine
 10
110.0
 20
-5.001000000000001
 30
0.0
 11
140.0
 21
-5.001000000000009
 31
0.0
  0
LINE
  5
3C0
330
18
100
AcDbEntity
  8
SK2
100
AcDbLine
 10
135.0
 20
9.570999999999992
 30
0.0
 11
135.0
 21
14.14099999999999
 31
0.0
  0
LINE
  5
3C1
330
18
100
AcDbEntity
  8
SK2
100
AcDbLine
 10
135.0
 20
-9.571000000000008
 30
0.0
 11
135.0
 21
-25.26957142857144
 31
0.0
  0
SOLID
  5
3C2
330
18
100
AcDbEntity
  8
SK2
100
AcDbTrace
 10
134.2383333333333
 20
9.570999999999992
 30
0.0
 11
135.7616666666666
 21
9.570999999999992
 31
0.0
 12
135.0
 22
5.000999999999993
 32
0.0
 13
135.0
 23
5.000999999999993
 33
0.0
  0
SOLID
  5
3C3
330
18
100
AcDbEntity
  8
SK2
100
AcDbTrace
 10
134.2383333333333
 20
-9.571000000000008
 30
0.0
 11
135.7616666666666
 21
-9.571000000000008
 31
0.0
 12
135.0
 22
-5.001000000000008
 32
0.0
 13
135.0
 23
-5.001000000000008
 33
0.0
  0
LINE
  5
3C5
330
18
100
AcDbEntity
  8
SK2
100
AcDbLine
 10
-48.0
 20
8.001000000000001
 30
0.0
 11
-65.0
 21
8.001000000000006
 31
0.0
  0
LINE
  5
3C6
330
18
100
AcDbEntity
  8
SK2
100
AcDbLine
 10
-48.0
 20
-8.001000000000001
 30
0.0
 11
-65.0
 21
-8.000999999999995
 31
0.0
  0
LINE
  5
3C7
330
18
100
AcDbEntity
  8
SK2
100
AcDbLine
 10
-60.0
 20
3.431000000000003
 30
0.0
 11
-60.0
 21
-3.430999999999998
 31
0.0
  0
SOLID
  5
3C8
330
18
100
AcDbEntity
  8
SK2
100
AcDbTrace
 10
-60.76166666666667
 20
3.431000000000003
 30
0.0
 11
-59.23833333333333
 21
3.431000000000003
 31
0.0
 12
-60.0
 22
8.001000000000004
 32
0.0
 13
-60.0
 23
8.001000000000004
 33
0.0
  0
SOLID
  5
3C9
330
18
100
AcDbEntity
  8
SK2
100
AcDbTrace
 10
-60.76166666666667
 20
-3.430999999999998
 30
0.0
 11
-59.23833333333333
 21
-3.430999999999998
 31
0.0
 12
-60.0
 22
-8.000999999999997
 32
0.0
 13
-60.0
 23
-8.000999999999997
 33
0.0
  0
LINE
  5
3CB
330
18
100
AcDbEntity
  8
SK3
100
AcDbLine
 10
-48.99999999999997
 20
3.650000000000002
 30
0.0
 11
-48.99999999999997
 21
-3.648999999999997
 31
0.0
  0
POLYLINE
  5
3CC
330
18
100
AcDbEntity
  8
SK3
100
AcDb2dPolyline
 66
     1
 10
0.0
 20
0.0
 30
0.0
  0
VERTEX
  5
437
330
3CC
100
AcDbEntity
  8
SK3
100
AcDbVertex
100
AcDb2dVertex
 10
84.99900000000002
 20
3.001000000000001
 30
0.0
  0
VERTEX
  5
438
330
3CC
100
AcDbEntity
  8
SK3
100
AcDbVertex
100
AcDb2dVertex
 10
84.625
 20
3.650000000000002
 30
0.0
  0
VERTEX
  5
439
330
3CC
100
AcDbEntity
  8
SK3
100
AcDbVertex
100
AcDb2dVertex
 10
-48.99999999999997
 20
3.650000000000002
 30
0.0
  0
VERTEX
  5
43A
330
3CC
100
AcDbEntity
  8
SK3
100
AcDbVertex
100
AcDb2dVertex
 10
-49.99999999999997
 20
4.227
 30
0.0
  0
SEQEND
  5
43B
330
3CC
100
AcDbEntity
  8
SK3
  0
POLYLINE
  5
3CD
330
18
100
AcDbEntity
  8
SK3
100
AcDb2dPolyline
 66
     1
 10
0.0
 20
0.0
 30
0.0
  0
VERTEX
  5
43C
330
3CD
100
AcDbEntity
  8
SK3
100
AcDbVertex
100
AcDb2dVertex
 10
84.99900000000002
 20
-3.0
 30
0.0
  0
VERTEX
  5
43D
330
3CD
100
AcDbEntity
  8
SK3
100
AcDbVertex
100
AcDb2dVertex
 10
84.625
 20
-3.647999999999999
 30
0.0
  0
VERTEX
  5
43E
330
3CD
100
AcDbEntity
  8
SK3
100
AcDbVertex
100
AcDb2dVertex
 10
-48.99999999999997
 20
-3.647999999999999
 30
0.0
  0
VERTEX
  5
43F
330
3CD
100
AcDbEntity
  8
SK3
100
AcDbVertex
100
AcDb2dVertex
 10
-49.99999999999997
 20
-4.225000000000001
 30
0.0
  0
SEQEND
  5
440
330
3CD
100
AcDbEntity
  8
SK3
  0
POLYLINE
  5
3CE
330
18
100
AcDbEntity
  8
SK3
100
AcDb2dPolyline
 66
     1
 10
0.0
 20
0.0
 30
0.0
  0
VERTEX
  5
441
330
3CE
100
AcDbEntity
  8
SK3
100
AcDbVertex
100
AcDb2dVertex
 10
109.315
 20
-3.201999999999998
 30
0.0
  0
VERTEX
  5
442
330
3CE
100
AcDbEntity
  8
SK3
100
AcDbVertex
100
AcDb2dVertex
 10
107.0
 20
-3.0
 30
0.0
  0
VERTEX
  5
443
330
3CE
100
AcDbEntity
  8
SK3
100
AcDbVertex
100
AcDb2dVertex
 10
85.0
 20
-3.0
 30
0.0
  0
SEQEND
  5
444
330
3CE
100
AcDbEntity
  8
SK3
  0
POLYLINE
  5
3CF
330
18
100
AcDbEntity
  8
SK3
100
AcDb2dPolyline
 66
     1
 10
0.0
 20
0.0
 30
0.0
  0
VERTEX
  5
445
330
3CF
100
AcDbEntity
  8
SK3
100
AcDbVertex
100
AcDb2dVertex
 10
84.99900000000002
 20
3.001000000000001
 30
0.0
  0
VERTEX
  5
446
330
3CF
100
AcDbEntity
  8
SK3
100
AcDbVertex
100
AcDb2dVertex
 10
106.999
 20
3.001000000000001
 30
0.0
  0
VERTEX
  5
447
330
3CF
100
AcDbEntity
  8
SK3
100
AcDbVertex
100
AcDb2dVertex
 10
109.315
 20
3.202999999999999
 30
0.0
  0
SEQEND
  5
448
330
3CF
100
AcDbEntity
  8
SK3
  0
LINE
  5
3D0
330
18
100
AcDbEntity
  8
SK3
100
AcDbLine
 10
84.624
 20
3.650000000000002
 30
0.0
 11
84.624
 21
-3.648999999999997
 31
0.0
  0
LINE
  5
3D1
330
18
100
AcDbEntity
  8
SK3
100
AcDbLine
 10
84.99900000000002
 20
-3.0
 30
0.0
 11
84.99900000000002
 21
2.999999999999996
 31
0.0
  0
LINE
  5
3D2
330
18
100
AcDbEntity
  8
SK3
100
AcDbLine
 10
106.999
 20
3.001000000000001
 30
0.0
 11
106.999
 21
-2.998999999999998
 31
0.0
  0
LINE
  5
3D3
330
18
100
AcDbEntity
  8
BEMASS
  6
CONTINUOUS
 62
     3
100
AcDbLine
 10
106.999
 20
-3.0
 30
0.0
 11
107.0
 21
-3.0
 31
0.0
  0
LINE
  5
3D4
330
18
100
AcDbEntity
  8
BEMASS
  6
CONTINUOUS
 62
     3
100
AcDbLine
 10
106.999
 20
3.001000000000001
 30
0.0
 11
107.0
 21
3.001000000000001
 31
0.0
  0
LINE
  5
3D5
330
18
100
AcDbEntity
  8
1__1
  6
CONTINUOUS
 62
     7
100
AcDbLine
 10
109.999
 20
-3.947999999999996
 30
0.0
 11
109.999
 21
3.949000000000001
 31
0.0
  0
ARC
  5
3D6
330
18
100
AcDbEntity
  8
SK3
100
AcDbCircle
 10
109.249
 20
3.949000000000001
 30
0.0
 40
0.75
100
AcDbArc
 50
274.9724729999998
 51
0.0003030000000036
  0
LINE
  5
3D7
330
18
100
AcDbEntity
  8
BEMASS
  6
CONTINUOUS
 62
     3
100
AcDbLine
 10
109.999
 20
-3.947999999999996
 30
0.0
 11
109.999
 21
-3.947999999999996
 31
0.0
  0
LINE
  5
3D8
330
18
100
AcDbEntity
  8
1__1
  6
CONTINUOUS
 62
     7
100
AcDbLine
 10
109.999
 20
-3.947999999999996
 30
0.0
 11
109.999
 21
-4.256999999999997
 31
0.0
  0
ARC
  5
3D9
330
18
100
AcDbEntity
  8
SK3
100
AcDbCircle
 10
109.249
 20
-3.947999999999996
 30
0.0
 40
0.75
100
AcDbArc
 50
0.0
 51
85.02784000000032
  0
LINE
  5
3DA
330
18
100
AcDbEntity
  8
1__1
  6
CONTINUOUS
 62
     7
100
AcDbLine
 10
109.999
 20
3.949000000000001
 30
0.0
 11
109.999
 21
4.260000000000001
 31
0.0
  0
LINE
  5
40E
330
18
100
AcDbEntity
  8
SK2
100
AcDbLine
 10
85.0
 20
-4.774502827456217
 30
0.0
 11
85.0
 21
-30.0
 31
0.0
  0
LINE
  5
40F
330
18
100
AcDbEntity
  8
SK2
100
AcDbLine
 10
109.999
 20
-3.947999999999996
 30
0.0
 11
109.999
 21
-30.0
 31
0.0
  0
LINE
  5
410
330
18
100
AcDbEntity
  8
SK2
100
AcDbLine
 10
89.56999999999998
 20
-25.0
 30
0.0
 11
105.4289999999999
 21
-25.0
 31
0.0
  0
SOLID
  5
411
330
18
100
AcDbEntity
  8
SK2
100
AcDbTrace
 10
89.56999999999998
 20
-24.23833333333333
 30
0.0
 11
89.56999999999998
 21
-25.76166666666666
 31
0.0
 12
85.0
 22
-25.0
 32
0.0
 13
85.0
 23
-25.0
 33
0.0
  0
SOLID
  5
412
330
18
100
AcDbEntity
  8
SK2
100
AcDbTrace
 10
105.4289999999999
 20
-24.23833333333333
 30
0.0
 11
105.4289999999999
 21
-25.76166666666666
 31
0.0
 12
109.999
 22
-25.0
 32
0.0
 13
109.999
 23
-25.0
 33
0.0
  0
LINE
  5
414
330
18
100
AcDbEntity
  8
SK2
100
AcDbLine
 10
71.87299999999997
 20
8.001000000000001
 30
0.0
 11
15.23116436510506
 21
12.45944826749834
 31
0.0
  0
ARC
  5
415
330
18
100
AcDbEntity
  8
SK2
100
AcDbCircle
 10
71.87299999999997
 20
8.001000000000001
 30
0.0
 40
51.8170335818794
100
AcDbArc
 50
165.3798142596012
 51
175.4993574761254
  0
LINE
  5
416
330
18
100
AcDbEntity
  8
SK2
100
AcDbLine
 10
21.73378618883311
 20
21.08015164006102
 30
0.0
 11
25.86105475351084
 21
36.90212593284616
 31
0.0
  0
ARC
  5
417
330
18
100
AcDbEntity
  8
SK2
100
AcDbCircle
 10
71.87299999999997
 20
8.001000000000001
 30
0.0
 40
51.8170335818794
100
AcDbArc
 50
165.3896838443353
 51
170.4445206602304
  0
ARC
  5
418
330
18
100
AcDbEntity
  8
SK2
100
AcDbCircle
 10
71.87299999999997
 20
8.001000000000001
 30
0.0
 40
51.8170335818794
100
AcDbArc
 50
185.054836815895
 51
190.10967363179
  0
SOLID
  5
419
330
18
100
AcDbEntity
  8
SK2
100
AcDbTrace
 10
21.53085473410115
 20
16.50956543857431
 30
0.0
 11
20.01896719974012
 21
16.69595354948315
 31
0.0
 12
20.21574663419414
 22
12.06709689094563
 32
0.0
 13
20.21574663419414
 23
12.06709689094563
 33
0.0
  0
SOLID
  5
41A
330
18
100
AcDbEntity
  8
SK2
100
AcDbTrace
 10
19.49656610577194
 20
3.401857971136873
 30
0.0
 11
21.01841759147613
 21
3.469033114638022
 31
0.0
 12
20.05596641812058
 22
8.001000000000013
 32
0.0
 13
20.05596641812058
 23
8.001000000000013
 33
0.0
  0
LINE
  5
41C
330
18
100
AcDbEntity
  8
SK2
100
AcDbLine
 10
-50.0
 20
-7.461999999999999
 30
0.0
 11
-50.0
 21
-45.0
 31
0.0
  0
LINE
  5
41D
330
18
100
AcDbEntity
  8
SK2
100
AcDbLine
 10
109.999
 20
-4.256999999999997
 30
0.0
 11
109.999
 21
-45.0
 31
0.0
  0
LINE
  5
41E
330
18
100
AcDbEntity
  8
SK2
100
AcDbLine
 10
-45.43000000000001
 20
-40.0
 30
0.0
 11
105.4289999999999
 21
-40.0
 31
0.0
  0
SOLID
  5
41F
330
18
100
AcDbEntity
  8
SK2
100
AcDbTrace
 10
-45.43000000000001
 20
-39.23833333333332
 30
0.0
 11
-45.43000000000001
 21
-40.76166666666667
 31
0.0
 12
-50.0
 22
-40.0
 32
0.0
 13
-50.0
 23
-40.0
 33
0.0
  0
SOLID
  5
420
330
18
100
AcDbEntity
  8
SK2
100
AcDbTrace
 10
105.4289999999999
 20
-39.23833333333332
 30
0.0
 11
105.4289999999999
 21
-40.76166666666667
 31
0.0
 12
109.999
 22
-40.0
 32
0.0
 13
109.999
 23
-40.0
 33
0.0
  0
LINE
  5
422
330
18
100
AcDbEntity
  8
2
100
AcDbLine
 10
-0.0000000000000071
 20
8.001000000000001
 30
0.0
 11
-0.0000000000000027
 21
80.0
 31
0.0
  0
LINE
  5
423
330
18
100
AcDbEntity
  8
2
100
AcDbLine
 10
109.9999999999895
 20
3.950003966260721
 30
0.0
 11
109.9999999999895
 21
80.0
 31
0.0
  0
LINE
  5
424
330
18
100
AcDbEntity
  8
2
100
AcDbLine
 10
4.569999999999997
 20
75.0
 30
0.0
 11
105.4299999999895
 21
75.0
 31
0.0
  0
SOLID
  5
425
330
18
100
AcDbEntity
  8
2
100
AcDbTrace
 10
4.569999999999997
 20
75.76166666666667
 30
0.0
 11
4.569999999999997
 21
74.23833333333333
 31
0.0
 12
-0.000000000000003
 22
75.0
 32
0.0
 13
-0.000000000000003
 23
75.0
 33
0.0
  0
SOLID
  5
426
330
18
100
AcDbEntity
  8
2
100
AcDbTrace
 10
105.4299999999895
 20
75.76166666666667
 30
0.0
 11
105.4299999999895
 21
74.23833333333333
 31
0.0
 12
109.9999999999895
 22
75.0
 32
0.0
 13
109.9999999999895
 23
75.0
 33
0.0
  0
TEXT
  5
428
330
18
100
AcDbEntity
  8
2
100
AcDbText
 10
49.99476190475665
 20
77.3
 30
0.0
 40
4.57
  1
110
  7
SIMPLEX
100
AcDbText
  0
TEXT
  5
429
330
18
100
AcDbEntity
  8
SK2
100
AcDbText
 10
24.5590238095238
 20
-37.7
 30
0.0
 40
4.57
  1
160
  7
SIMPLEX
100
AcDbText
  0
TEXT
  5
42A
330
18
100
AcDbEntity
  8
SK2
100
AcDbText
 10
20.08880311856813
 20
23.88622197035241
 30
0.0
 40
4.57
  1
4.5°
 50
75.37981425960116
  7
SIMPLEX
100
AcDbText
  0
TEXT
  5
42B
330
18
100
AcDbEntity
  8
SK2
100
AcDbText
 10
93.79997619047619
 20
-22.7
 30
0.0
 40
4.57
  1
25
  7
SIMPLEX
100
AcDbText
  0
TEXT
  5
42C
330
18
100
AcDbEntity
  8
SK2
100
AcDbText
 10
-62.3
 20
-5.22285714285715
 30
0.0
 40
4.57
  1
%%c
 50
90.0
  7
SIMPLEX
100
AcDbText
  0
TEXT
  5
42D
330
18
100
AcDbEntity
  8
SK2
100
AcDbText
 10
-62.3
 20
-1.088095238095245
 30
0.0
 40
4.57
  1
16
 50
90.0
  7
SIMPLEX
100
AcDbText
  0
TEXT
  5
42E
330
18
100
AcDbEntity
  8
SK2
100
AcDbText
 10
132.6999999999999
 20
-25.03695238095236
 30
0.0
 40
4.57
  1
%%c
 50
90.0
  7
SIMPLEX
100
AcDbText
  0
TEXT
  5
42F
330
18
100
AcDbEntity
  8
SK2
100
AcDbText
 10
132.6999999999999
 20
-20.90219047619046
 30
0.0
 40
4.57
  1
10
 50
90.0
  7
SIMPLEX
100
AcDbText
  0
TEXT
  5
430
330
18
100
AcDbEntity
  8
SK2
100
AcDbText
 10
117.7
 20
-19.33642857142855
 30
0.0
 40
4.57
  1
%%c
 50
90.0
  7
SIMPLEX
100
AcDbText
  0
TEXT
  5
431
330
18
100
AcDbEntity
  8
SK2
100
AcDbText
 10
117.7
 20
-15.20166666666665
 30
0.0
 40
4.57
  1
6
 50
90.0
  7
SIMPLEX
100
AcDbText
  0
ENDSEC
  0
SECTION
  2
OBJECTS
  0
DICTIONARY
  5
C
330
0
100
AcDbDictionary
  3
ACAD_GROUP
350
D
  3
ACAD_LAYOUT
350
301
  3
ACAD_MLINESTYLE
350
E
  3
ACAD_PLOTSETTINGS
350
302
1001
ACAD
1000
TREAT_AS_HARD
1070
     0
  0
DICTIONARY
  5
433
330
18
100
AcDbDictionary
  3
ACAD_LAYOUTSELFREF
350
434
  0
DICTIONARY
  5
435
330
338
100
AcDbDictionary
  3
ACAD_LAYOUTSELFREF
350
436
  0
DICTIONARY
  5
D
102
{ACAD_REACTORS
330
C
102
}
330
C
100
AcDbDictionary
1001
ACAD
1000
TREAT_AS_HARD
1070
     0
  0
DICTIONARY
  5
301
102
{ACAD_REACTORS
330
C
102
}
330
C
100
AcDbDictionary
1001
ACAD
1000
TREAT_AS_HARD
1070
     0
  0
DICTIONARY
  5
E
102
{ACAD_REACTORS
330
C
102
}
330
C
100
AcDbDictionary
  3
STANDARD
350
1B
1001
ACAD
1000
TREAT_AS_HARD
1070
     0
  0
DICTIONARY
  5
302
102
{ACAD_REACTORS
330
C
102
}
330
C
100
AcDbDictionary
1001
ACAD
1000
TREAT_AS_HARD
1070
     0
  0
XRECORD
  5
434
102
{ACAD_REACTORS
330
433
102
}
330
433
100
AcDbXrecord
340
18
  0
XRECORD
  5
436
102
{ACAD_REACTORS
330
435
102
}
330
435
100
AcDbXrecord
340
338
  0
MLINESTYLE
  5
1B
102
{ACAD_REACTORS
330
E
102
}
330
E
100
AcDbMlineStyle
  2
STANDARD
 70
     0
  3

 62
     0
 51
90.0
 52
90.0
 71
     2
 49
0.5
 62
   256
  6
BYLAYER
 49
-0.5
 62
   256
  6
BYLAYER
  0
ENDSEC
  0
EOF
