  0
SECTION
  2
HEADER
  9
$ACADVER
  1
AC1012
  9
$DWGCODEPAGE
  3
ANSI_1252
  9
$INSBASE
 10
0.0
 20
0.0
 30
0.0
  9
$EXTMIN
 10
-58.47485178158945
 20
-50.00732307788837
 30
-0.0015258207003583
  9
$EXTMAX
 10
110.0008708790419
 20
81.8743904422438
 30
0.0000000349246037
  9
$LIMMIN
 10
-170.0
 20
-170.0
  9
$LIMMAX
 10
519.0
 20
260.0
  9
$ORTHOMODE
 70
     1
  9
$REGENMODE
 70
     1
  9
$FILLMODE
 70
     1
  9
$QTEXTMODE
 70
     0
  9
$MIRRTEXT
 70
     0
  9
$DRAGMODE
 70
     2
  9
$LTSCALE
 40
15.0
  9
$OSMODE
 70
     0
  9
$ATTMODE
 70
     1
  9
$TEXTSIZE
 40
4.57
  9
$TRACEWID
 40
0.05
  9
$TEXTSTYLE
  7
SIMPLEX
  9
$CLAYER
  8
SK2
  9
$CELTYPE
  6
BYLAYER
  9
$CECOLOR
 62
   256
  9
$CELTSCALE
 40
1.0
  9
$DELOBJ
 70
     1
  9
$DISPSILH
 70
     0
  9
$DIMSCALE
 40
0.0
  9
$DIMASZ
 40
4.57
  9
$DIMEXO
 40
0.0
  9
$DIMDLI
 40
0.38
  9
$DIMRND
 40
0.0
  9
$DIMDLE
 40
0.0
  9
$DIMEXE
 40
5.0
  9
$DIMTP
 40
0.0
  9
$DIMTM
 40
0.0
  9
$DIMTXT
 40
4.57
  9
$DIMCEN
 40
0.09
  9
$DIMTSZ
 40
0.0
  9
$DIMTOL
 70
     0
  9
$DIMLIM
 70
     0
  9
$DIMTIH
 70
     0
  9
$DIMTOH
 70
     0
  9
$DIMSE1
 70
     0
  9
$DIMSE2
 70
     0
  9
$DIMTAD
 70
     1
  9
$DIMZIN
 70
     8
  9
$DIMBLK
  1

  9
$DIMASO
 70
     1
  9
$DIMSHO
 70
     1
  9
$DIMPOST
  1

  9
$DIMAPOST
  1

  9
$DIMALT
 70
     0
  9
$DIMALTD
 70
     2
  9
$DIMALTF
 40
25.4
  9
$DIMLFAC
 40
1.0
  9
$DIMTOFL
 70
     0
  9
$DIMTVP
 40
0.0
  9
$DIMTIX
 70
     0
  9
$DIMSOXD
 70
     0
  9
$DIMSAH
 70
     0
  9
$DIMBLK1
  1

  9
$DIMBLK2
  1

  9
$DIMSTYLE
  2
STANDARD
  9
$DIMCLRD
 70
     0
  9
$DIMCLRE
 70
     0
  9
$DIMCLRT
 70
     0
  9
$DIMTFAC
 40
1.0
  9
$DIMGAP
 40
2.299999999999999
  9
$DIMJUST
 70
     0
  9
$DIMSD1
 70
     0
  9
$DIMSD2
 70
     0
  9
$DIMTOLJ
 70
     1
  9
$DIMTZIN
 70
     0
  9
$DIMALTZ
 70
     0
  9
$DIMALTTZ
 70
     0
  9
$DIMFIT
 70
     3
  9
$DIMUPT
 70
     0
  9
$DIMUNIT
 70
     2
  9
$DIMDEC
 70
     2
  9
$DIMTDEC
 70
     4
  9
$DIMALTU
 70
     2
  9
$DIMALTTD
 70
     2
  9
$DIMTXSTY
  7
SIMPLEX
  9
$DIMAUNIT
 70
     0
  9
$LUNITS
 70
     2
  9
$LUPREC
 70
     2
  9
$SKETCHINC
 40
0.1
  9
$FILLETRAD
 40
0.0
  9
$AUNITS
 70
     0
  9
$AUPREC
 70
     0
  9
$MENU
  1
c:\tdm21\cad\caduti13\tdm13
  9
$ELEVATION
 40
0.0
  9
$PELEVATION
 40
0.0
  9
$THICKNESS
 40
0.0
  9
$LIMCHECK
 70
     0
  9
$BLIPMODE
 70
     0
  9
$CHAMFERA
 40
0.0
  9
$CHAMFERB
 40
0.0
  9
$CHAMFERC
 40
0.0
  9
$CHAMFERD
 40
0.0
  9
$SKPOLY
 70
     0
  9
$TDCREATE
 40
2452518.610402083
  9
$TDUPDATE
 40
2452518.610402083
  9
$TDINDWG
 40
0.0049700231
  9
$TDUSRTIMER
 40
0.0049700231
  9
$USRTIMER
 70
     1
  9
$ANGBASE
 50
0.0
  9
$ANGDIR
 70
     0
  9
$PDMODE
 70
     1
  9
$PDSIZE
 40
0.0
  9
$PLINEWID
 40
0.0
  9
$COORDS
 70
     1
  9
$SPLFRAME
 70
     0
  9
$SPLINETYPE
 70
     6
  9
$SPLINESEGS
 70
     8
  9
$ATTDIA
 70
     0
  9
$ATTREQ
 70
     1
  9
$HANDLING
 70
  4097
  9
$HANDSEED
  5
55F
  9
$SURFTAB1
 70
     6
  9
$SURFTAB2
 70
     6
  9
$SURFTYPE
 70
     6
  9
$SURFU
 70
     6
  9
$SURFV
 70
     6
  9
$UCSNAME
  2

  9
$UCSORG
 10
0.0
 20
0.0
 30
0.0
  9
$UCSXDIR
 10
1.0
 20
0.0
 30
0.0
  9
$UCSYDIR
 10
0.0
 20
1.0
 30
0.0
  9
$PUCSNAME
  2

  9
$PUCSORG
 10
0.0
 20
0.0
 30
0.0
  9
$PUCSXDIR
 10
1.0
 20
0.0
 30
0.0
  9
$PUCSYDIR
 10
0.0
 20
1.0
 30
0.0
  9
$USERI1
 70
     0
  9
$USERI2
 70
     0
  9
$USERI3
 70
     0
  9
$USERI4
 70
     0
  9
$USERI5
 70
     0
  9
$USERR1
 40
0.0
  9
$USERR2
 40
0.0
  9
$USERR3
 40
0.0
  9
$USERR4
 40
0.0
  9
$USERR5
 40
0.0
  9
$WORLDVIEW
 70
     1
  9
$SHADEDGE
 70
     3
  9
$SHADEDIF
 70
    70
  9
$TILEMODE
 70
     1
  9
$MAXACTVP
 70
    16
  9
$PINSBASE
 10
0.0
 20
0.0
 30
0.0
  9
$PLIMCHECK
 70
     0
  9
$PEXTMIN
 10
0.0
 20
0.0
 30
0.0
  9
$PEXTMAX
 10
0.0
 20
0.0
 30
0.0
  9
$PLIMMIN
 10
0.0
 20
0.0
  9
$PLIMMAX
 10
12.0
 20
9.0
  9
$UNITMODE
 70
     0
  9
$VISRETAIN
 70
     0
  9
$PLINEGEN
 70
     0
  9
$PSLTSCALE
 70
     1
  9
$TREEDEPTH
 70
  3020
  9
$PICKSTYLE
 70
     1
  9
$CMLSTYLE
  2
STANDARD
  9
$CMLJUST
 70
     0
  9
$CMLSCALE
 40
1.0
  9
$SAVEIMAGES
 70
     1
  0
ENDSEC
  0
SECTION
  2
CLASSES
  0
CLASS
  1
ACDBDICTIONARYWDFLT
  2
AcDbDictionaryWithDefault
  3
AutoCAD 2000
 90
    32768
280
     0
281
     0
  0
CLASS
  1
ACDBPLACEHOLDER
  2
AcDbPlaceHolder
  3
AutoCAD 2000
 90
    32768
280
     0
281
     0
  0
CLASS
  1
LAYOUT
  2
AcDbLayout
  3
AutoCAD 2000
 90
    32768
280
     0
281
     0
  0
CLASS
  1
LONG_TRANSACTION
  2
AcDbLongTransaction
  3
AutoCAD 2000
 90
    32768
280
     0
281
     0
  0
CLASS
  1
LWPOLYLINE
  2
AcDbPolyline
  3
AutoCAD 2000
 90
    32768
280
     0
281
     1
  0
CLASS
  1
HATCH
  2
AcDbHatch
  3
AutoCAD 2000
 90
    32768
280
     0
281
     1
  0
CLASS
  1
XRECORD
  2
AcDbXrecord
  3
AutoCAD 2000
 90
    32768
280
     0
281
     0
  0
ENDSEC
  0
SECTION
  2
TABLES
  0
TABLE
  2
VPORT
  5
8
330
0
100
AcDbSymbolTable
 70
     3
  0
VPORT
  5
4ED
330
8
100
AcDbSymbolTableRecord
100
AcDbViewportTableRecord
  2
*ACTIVE
 70
     0
 10
0.0
 20
0.0
 11
1.0
 21
1.0
 12
25.76300954872623
 22
15.93353368217771
 13
0.0
 23
0.0
 14
5.0
 24
5.0
 15
5.0
 25
5.0
 16
0.0
 26
0.0
 36
1.0
 17
0.0
 27
0.0
 37
0.0
 40
141.8817135201321
 41
2.184713375796178
 42
50.0
 43
0.0
 44
0.0
 50
0.0
 51
0.0
 71
     0
 72
   100
 73
     1
 74
     1
 75
     0
 76
     0
 77
     0
 78
     0
  0
ENDTAB
  0
TABLE
  2
LTYPE
  5
5
330
0
100
AcDbSymbolTable
 70
     3
  0
LTYPE
  5
12
330
5
100
AcDbSymbolTableRecord
100
AcDbLinetypeTableRecord
  2
BYBLOCK
 70
     0
  3

 72
    65
 73
     0
 40
0.0
  0
LTYPE
  5
13
330
5
100
AcDbSymbolTableRecord
100
AcDbLinetypeTableRecord
  2
BYLAYER
 70
     0
  3

 72
    65
 73
     0
 40
0.0
  0
LTYPE
  5
14
330
5
100
AcDbSymbolTableRecord
100
AcDbLinetypeTableRecord
  2
CONTINUOUS
 70
     0
  3
Solid line
 72
    65
 73
     0
 40
0.0
  0
LTYPE
  5
1F
330
5
100
AcDbSymbolTableRecord
100
AcDbLinetypeTableRecord
  2
CENTER
 70
     0
  3
____ . ____ . ____
 72
    65
 73
     4
 40
1.5
 49
1.0
 74
     0
 49
-0.25
 74
     0
 49
0.0
 74
     0
 49
-0.25
 74
     0
  0
LTYPE
  5
20
330
5
100
AcDbSymbolTableRecord
100
AcDbLinetypeTableRecord
  2
HIDDEN
 70
     0
  3
_ _ _ _ _ _ _ _ _ _ _ _ _ _ _ _ _ _ _ _ _ _ _
 72
    65
 73
     2
 40
0.375
 49
0.25
 74
     0
 49
-0.125
 74
     0
  0
ENDTAB
  0
TABLE
  2
LAYER
  5
2
330
0
100
AcDbSymbolTable
 70
    16
  0
LAYER
  5
F
330
2
100
AcDbSymbolTableRecord
100
AcDbLayerTableRecord
  2
0
 70
     0
 62
    -7
  6
CONTINUOUS
  0
LAYER
  5
23
330
2
100
AcDbSymbolTableRecord
100
AcDbLayerTableRecord
  2
1
 70
     0
 62
     4
  6
CONTINUOUS
  0
LAYER
  5
24
330
2
100
AcDbSymbolTableRecord
100
AcDbLayerTableRecord
  2
SK1
 70
     0
 62
     4
  6
CONTINUOUS
  0
LAYER
  5
25
330
2
100
AcDbSymbolTableRecord
100
AcDbLayerTableRecord
  2
2
 70
     0
 62
     7
  6
CONTINUOUS
  0
LAYER
  5
26
330
2
100
AcDbSymbolTableRecord
100
AcDbLayerTableRecord
  2
2L
 70
     0
 62
     7
  6
CONTINUOUS
  0
LAYER
  5
27
330
2
100
AcDbSymbolTableRecord
100
AcDbLayerTableRecord
  2
SK2
 70
     0
 62
     7
  6
CONTINUOUS
  0
LAYER
  5
28
330
2
100
AcDbSymbolTableRecord
100
AcDbLayerTableRecord
  2
3
 70
     0
 62
     1
  6
HIDDEN
  0
LAYER
  5
29
330
2
100
AcDbSymbolTableRecord
100
AcDbLayerTableRecord
  2
SK3
 70
     0
 62
     1
  6
HIDDEN
  0
LAYER
  5
2A
330
2
100
AcDbSymbolTableRecord
100
AcDbLayerTableRecord
  2
4
 70
     0
 62
    -2
  6
CENTER
  0
LAYER
  5
2B
330
2
100
AcDbSymbolTableRecord
100
AcDbLayerTableRecord
  2
SK4
 70
     0
 62
     2
  6
CENTER
  0
LAYER
  5
2C
330
2
100
AcDbSymbolTableRecord
100
AcDbLayerTableRecord
  2
5
 70
     0
 62
    -7
  6
CONTINUOUS
  0
LAYER
  5
2D
330
2
100
AcDbSymbolTableRecord
100
AcDbLayerTableRecord
  2
6
 70
     0
 62
     5
  6
CONTINUOUS
  0
LAYER
  5
2E
330
2
100
AcDbSymbolTableRecord
100
AcDbLayerTableRecord
  2
SK6
 70
     0
 62
     5
  6
CONTINUOUS
  0
LAYER
  5
2F
330
2
100
AcDbSymbolTableRecord
100
AcDbLayerTableRecord
  2
DEFPOINTS
 70
     0
 62
    -7
  6
CONTINUOUS
  0
LAYER
  5
38D
330
2
100
AcDbSymbolTableRecord
100
AcDbLayerTableRecord
  2
1__1
 70
     0
 62
    -1
  6
CONTINUOUS
  0
LAYER
  5
472
330
2
100
AcDbSymbolTableRecord
100
AcDbLayerTableRecord
  2
BEMASS
 70
     0
 62
    -1
  6
CONTINUOUS
  0
ENDTAB
  0
TABLE
  2
STYLE
  5
3
330
0
100
AcDbSymbolTable
 70
     3
  0
STYLE
  5
10
330
3
100
AcDbSymbolTableRecord
100
AcDbTextStyleTableRecord
  2
STANDARD
 70
     0
 40
0.0
 41
1.0
 50
0.0
 71
     0
 42
5.0
  3
txt
  4

  0
STYLE
  5
1D
330
3
100
AcDbSymbolTableRecord
100
AcDbTextStyleTableRecord
  2
TXT
 70
     0
 40
8.0
 41
1.0
 50
0.0
 71
     0
 42
8.0
  3
txt
  4

  0
STYLE
  5
1E
330
3
100
AcDbSymbolTableRecord
100
AcDbTextStyleTableRecord
  2
SIMPLEX
 70
     0
 40
0.0
 41
1.0
 50
0.0
 71
     0
 42
4.57
  3
simplex
  4

  0
ENDTAB
  0
TABLE
  2
VIEW
  5
6
330
0
100
AcDbSymbolTable
 70
     0
  0
ENDTAB
  0
TABLE
  2
UCS
  5
7
330
0
100
AcDbSymbolTable
 70
     0
  0
ENDTAB
  0
TABLE
  2
APPID
  5
9
330
0
100
AcDbSymbolTable
 70
     1
  0
APPID
  5
11
330
9
100
AcDbSymbolTableRecord
100
AcDbRegAppTableRecord
  2
ACAD
 70
     0
  0
ENDTAB
  0
TABLE
  2
DIMSTYLE
  5
A
330
0
100
AcDbSymbolTable
 70
     1
  0
DIMSTYLE
105
3F
102
{ACAD_REACTORS
330
43A
330
3C5
330
3C4
330
3C3
330
3B6
330
3B5
102
}
330
A
100
AcDbSymbolTableRecord
100
AcDbDimStyleTableRecord
  2
STANDARD
 70
     0
  3

  4

  5

  6

  7

 40
0.0
 41
4.57
 42
0.0
 43
0.38
 44
5.0
 45
0.0
 46
0.0
 47
0.0
 48
0.0
140
4.57
141
0.09
142
0.0
143
25.4
144
1.0
145
0.0
146
1.0
147
2.299999999999999
 71
     0
 72
     0
 73
     0
 74
     0
 75
     0
 76
     0
 77
     1
 78
     8
170
     0
171
     2
172
     0
173
     0
174
     0
175
     0
176
     0
177
     0
178
     0
270
     2
271
     2
272
     4
273
     2
274
     2
340
1E
275
     0
280
     0
281
     0
282
     0
283
     1
284
     0
285
     0
286
     0
287
     3
288
     0
  0
ENDTAB
  0
TABLE
  2
BLOCK_RECORD
  5
1
330
0
100
AcDbSymbolTable
 70
     7
  0
BLOCK_RECORD
  5
18
102
{ACAD_XDICTIONARY
360
4EE
102
}
330
1
100
AcDbSymbolTableRecord
100
AcDbBlockTableRecord
  2
*MODEL_SPACE
  0
BLOCK_RECORD
  5
338
102
{ACAD_XDICTIONARY
360
4F0
102
}
330
1
100
AcDbSymbolTableRecord
100
AcDbBlockTableRecord
  2
*PAPER_SPACE
  0
BLOCK_RECORD
  5
345
330
1
100
AcDbSymbolTableRecord
100
AcDbBlockTableRecord
  2
*D0
  0
BLOCK_RECORD
  5
351
330
1
100
AcDbSymbolTableRecord
100
AcDbBlockTableRecord
  2
*D1
  0
BLOCK_RECORD
  5
35D
330
1
100
AcDbSymbolTableRecord
100
AcDbBlockTableRecord
  2
*D2
  0
BLOCK_RECORD
  5
369
330
1
100
AcDbSymbolTableRecord
100
AcDbBlockTableRecord
  2
*D3
  0
BLOCK_RECORD
  5
375
330
1
100
AcDbSymbolTableRecord
100
AcDbBlockTableRecord
  2
*D4
  0
BLOCK_RECORD
  5
381
330
1
100
AcDbSymbolTableRecord
100
AcDbBlockTableRecord
  2
*D5
  0
ENDTAB
  0
ENDSEC
  0
SECTION
  2
BLOCKS
  0
BLOCK
  5
32
330
18
100
AcDbEntity
  8
0
100
AcDbBlockBegin
  2
*MODEL_SPACE
 70
     0
 10
0.0
 20
0.0
 30
0.0
  3
*MODEL_SPACE
  1

  0
ENDBLK
  5
33
330
18
100
AcDbEntity
  8
0
100
AcDbBlockEnd
  0
BLOCK
  5
339
330
338
100
AcDbEntity
 67
     1
  8
0
100
AcDbBlockBegin
  2
*PAPER_SPACE
 70
     0
 10
0.0
 20
0.0
 30
0.0
  3
*PAPER_SPACE
  1

  0
ENDBLK
  5
33A
330
338
100
AcDbEntity
 67
     1
  8
0
100
AcDbBlockEnd
  0
BLOCK
  5
34F
330
345
100
AcDbEntity
  8
0
100
AcDbBlockBegin
  2
*D0
 70
     1
 10
0.0
 20
0.0
 30
0.0
  3
*D0
  1

  0
LINE
  5
43C
330
345
100
AcDbEntity
  8
SK2
 62
     0
100
AcDbLine
 10
77.0
 20
-7.000000000000003
 30
0.0
 11
77.0
 21
-35.0
 31
0.0
  0
LINE
  5
43D
330
345
100
AcDbEntity
  8
SK2
 62
     0
100
AcDbLine
 10
60.0
 20
-16.0
 30
0.0
 11
60.0
 21
-35.0
 31
0.0
  0
LINE
  5
43E
330
345
100
AcDbEntity
  8
SK2
 62
     0
100
AcDbLine
 10
72.43000000000001
 20
-30.0
 30
0.0
 11
64.56999999999999
 21
-30.0
 31
0.0
  0
SOLID
  5
43F
330
345
100
AcDbEntity
  8
SK2
 62
     0
100
AcDbTrace
 10
72.43000000000001
 20
-29.23833333333333
 30
0.0
 11
72.43000000000001
 21
-30.76166666666666
 31
0.0
 12
77.0
 22
-30.0
 32
0.0
 13
77.0
 23
-30.0
 33
0.0
  0
SOLID
  5
440
330
345
100
AcDbEntity
  8
SK2
 62
     0
100
AcDbTrace
 10
64.56999999999999
 20
-29.23833333333333
 30
0.0
 11
64.56999999999999
 21
-30.76166666666666
 31
0.0
 12
60.0
 22
-30.0
 32
0.0
 13
60.0
 23
-30.0
 33
0.0
  0
MTEXT
  5
441
330
345
100
AcDbEntity
  8
SK2
 62
     0
100
AcDbMText
 10
68.5
 20
-25.415
 30
0.0
 40
4.57
 41
0.0
 71
     5
 72
     1
  1
\A1;17
  7
SIMPLEX
1001
ACAD
1000
MTEXTBEGIN
1070
    73
1070
     1
1070
    44
1040
1.0
1070
    74
1070
     0
1000
MTEXTEND
  0
POINT
  5
442
330
345
100
AcDbEntity
  8
DEFPOINTS
 62
     0
100
AcDbPoint
 10
77.0
 20
-7.000000000000003
 30
0.0
  0
POINT
  5
443
330
345
100
AcDbEntity
  8
DEFPOINTS
 62
     0
100
AcDbPoint
 10
60.0
 20
-16.0
 30
0.0
  0
POINT
  5
444
330
345
100
AcDbEntity
  8
DEFPOINTS
 62
     0
100
AcDbPoint
 10
60.0
 20
-30.0
 30
0.0
  0
ENDBLK
  5
350
330
345
100
AcDbEntity
  8
0
100
AcDbBlockEnd
  0
BLOCK
  5
35B
330
351
100
AcDbEntity
  8
0
100
AcDbBlockBegin
  2
*D1
 70
     1
 10
0.0
 20
0.0
 30
0.0
  3
*D1
  1

  0
LINE
  5
445
330
351
100
AcDbEntity
  8
SK2
 62
     0
100
AcDbLine
 10
77.0
 20
-7.000000000000003
 30
0.0
 11
77.0
 21
-50.0
 31
0.0
  0
LINE
  5
446
330
351
100
AcDbEntity
  8
SK2
 62
     0
100
AcDbLine
 10
50.0
 20
-16.0
 30
0.0
 11
50.0
 21
-50.0
 31
0.0
  0
LINE
  5
447
330
351
100
AcDbEntity
  8
SK2
 62
     0
100
AcDbLine
 10
72.43000000000001
 20
-45.0
 30
0.0
 11
54.56999999999999
 21
-45.0
 31
0.0
  0
SOLID
  5
448
330
351
100
AcDbEntity
  8
SK2
 62
     0
100
AcDbTrace
 10
72.43000000000001
 20
-44.23833333333333
 30
0.0
 11
72.43000000000001
 21
-45.76166666666667
 31
0.0
 12
77.0
 22
-45.0
 32
0.0
 13
77.0
 23
-45.0
 33
0.0
  0
SOLID
  5
449
330
351
100
AcDbEntity
  8
SK2
 62
     0
100
AcDbTrace
 10
54.56999999999999
 20
-44.23833333333333
 30
0.0
 11
54.56999999999999
 21
-45.76166666666667
 31
0.0
 12
50.0
 22
-45.0
 32
0.0
 13
50.0
 23
-45.0
 33
0.0
  0
MTEXT
  5
44A
330
351
100
AcDbEntity
  8
SK2
 62
     0
100
AcDbMText
 10
63.5
 20
-40.415
 30
0.0
 40
4.57
 41
0.0
 71
     5
 72
     1
  1
\A1;27
  7
SIMPLEX
1001
ACAD
1000
MTEXTBEGIN
1070
    73
1070
     1
1070
    44
1040
1.0
1070
    74
1070
     0
1000
MTEXTEND
  0
POINT
  5
44B
330
351
100
AcDbEntity
  8
DEFPOINTS
 62
     0
100
AcDbPoint
 10
77.0
 20
-7.000000000000003
 30
0.0
  0
POINT
  5
44C
330
351
100
AcDbEntity
  8
DEFPOINTS
 62
     0
100
AcDbPoint
 10
50.0
 20
-16.0
 30
0.0
  0
POINT
  5
44D
330
351
100
AcDbEntity
  8
DEFPOINTS
 62
     0
100
AcDbPoint
 10
50.0
 20
-45.0
 30
0.0
  0
ENDBLK
  5
35C
330
351
100
AcDbEntity
  8
0
100
AcDbBlockEnd
  0
BLOCK
  5
367
330
35D
100
AcDbEntity
  8
0
100
AcDbBlockBegin
  2
*D2
 70
     1
 10
0.0
 20
0.0
 30
0.0
  3
*D2
  1

  0
LINE
  5
44E
330
35D
100
AcDbEntity
  8
SK2
 62
     0
100
AcDbLine
 10
-32.00000000000001
 20
20.63973716363725
 30
0.0
 11
-32.0
 21
80.0
 31
0.0
  0
LINE
  5
44F
330
35D
100
AcDbEntity
  8
SK2
 62
     0
100
AcDbLine
 10
0.0000000000000039
 20
31.5
 30
0.0
 11
0.0000000000000068
 21
80.0
 31
0.0
  0
LINE
  5
450
330
35D
100
AcDbEntity
  8
SK2
 62
     0
100
AcDbLine
 10
-27.43
 20
75.0
 30
0.0
 11
-4.569999999999994
 21
75.0
 31
0.0
  0
SOLID
  5
451
330
35D
100
AcDbEntity
  8
SK2
 62
     0
100
AcDbTrace
 10
-27.43
 20
75.76166666666667
 30
0.0
 11
-27.43
 21
74.23833333333333
 31
0.0
 12
-32.00000000000001
 22
75.0
 32
0.0
 13
-32.00000000000001
 23
75.0
 33
0.0
  0
SOLID
  5
452
330
35D
100
AcDbEntity
  8
SK2
 62
     0
100
AcDbTrace
 10
-4.569999999999994
 20
75.76166666666667
 30
0.0
 11
-4.569999999999994
 21
74.23833333333333
 31
0.0
 12
0.0000000000000065
 22
75.0
 32
0.0
 13
0.0000000000000065
 23
75.0
 33
0.0
  0
MTEXT
  5
453
330
35D
100
AcDbEntity
  8
SK2
 62
     0
100
AcDbMText
 10
-16.0
 20
79.58499999999999
 30
0.0
 40
4.57
 41
0.0
 71
     5
 72
     1
  1
\A1;32
  7
SIMPLEX
1001
ACAD
1000
MTEXTBEGIN
1070
    73
1070
     1
1070
    44
1040
1.0
1070
    74
1070
     0
1000
MTEXTEND
  0
POINT
  5
454
330
35D
100
AcDbEntity
  8
DEFPOINTS
 62
     0
100
AcDbPoint
 10
-32.00000000000001
 20
20.63973716363725
 30
0.0
  0
POINT
  5
455
330
35D
100
AcDbEntity
  8
DEFPOINTS
 62
     0
100
AcDbPoint
 10
0.0000000000000039
 20
31.5
 30
0.0
  0
POINT
  5
456
330
35D
100
AcDbEntity
  8
DEFPOINTS
 62
     0
100
AcDbPoint
 10
0.0000000000000065
 20
75.0
 30
0.0
  0
ENDBLK
  5
368
330
35D
100
AcDbEntity
  8
0
100
AcDbBlockEnd
  0
BLOCK
  5
373
330
369
100
AcDbEntity
  8
0
100
AcDbBlockBegin
  2
*D3
 70
     1
 10
0.0
 20
0.0
 30
0.0
  3
*D3
  1

  0
LINE
  5
457
330
369
100
AcDbEntity
  8
2
 62
     0
100
AcDbLine
 10
0.0000000000000039
 20
31.5
 30
0.0
 11
0.0000000000000059
 21
65.0
 31
0.0
  0
LINE
  5
458
330
369
100
AcDbEntity
  8
2
 62
     0
100
AcDbLine
 10
26.0
 20
31.49999999999999
 30
0.0
 11
26.0
 21
65.0
 31
0.0
  0
LINE
  5
459
330
369
100
AcDbEntity
  8
2
 62
     0
100
AcDbLine
 10
4.570000000000005
 20
60.0
 30
0.0
 11
21.43
 21
60.0
 31
0.0
  0
SOLID
  5
45A
330
369
100
AcDbEntity
  8
2
 62
     0
100
AcDbTrace
 10
4.570000000000005
 20
60.76166666666667
 30
0.0
 11
4.570000000000005
 21
59.23833333333333
 31
0.0
 12
0.0000000000000056
 22
60.0
 32
0.0
 13
0.0000000000000056
 23
60.0
 33
0.0
  0
SOLID
  5
45B
330
369
100
AcDbEntity
  8
2
 62
     0
100
AcDbTrace
 10
21.43
 20
60.76166666666667
 30
0.0
 11
21.43
 21
59.23833333333333
 31
0.0
 12
26.0
 22
60.0
 32
0.0
 13
26.0
 23
60.0
 33
0.0
  0
MTEXT
  5
45C
330
369
100
AcDbEntity
  8
2
 62
     0
100
AcDbMText
 10
13.0
 20
64.585
 30
0.0
 40
4.57
 41
0.0
 71
     5
 72
     1
  1
\A1;26
  7
SIMPLEX
1001
ACAD
1000
MTEXTBEGIN
1070
    73
1070
     1
1070
    44
1040
1.0
1070
    74
1070
     0
1000
MTEXTEND
  0
POINT
  5
45D
330
369
100
AcDbEntity
  8
DEFPOINTS
 62
     0
100
AcDbPoint
 10
0.0000000000000039
 20
31.5
 30
0.0
  0
POINT
  5
45E
330
369
100
AcDbEntity
  8
DEFPOINTS
 62
     0
100
AcDbPoint
 10
26.0
 20
31.49999999999999
 30
0.0
  0
POINT
  5
45F
330
369
100
AcDbEntity
  8
DEFPOINTS
 62
     0
100
AcDbPoint
 10
26.0
 20
60.0
 30
0.0
  0
ENDBLK
  5
374
330
369
100
AcDbEntity
  8
0
100
AcDbBlockEnd
  0
BLOCK
  5
37F
330
375
100
AcDbEntity
  8
0
100
AcDbBlockBegin
  2
*D4
 70
     1
 10
0.0
 20
0.0
 30
0.0
  3
*D4
  1

  0
LINE
  5
460
330
375
100
AcDbEntity
  8
SK2
 62
     0
100
AcDbLine
 10
-0.0000000000000039
 20
-31.49999999999999
 30
0.0
 11
-56.57200000000001
 21
-31.49999999999998
 31
0.0
  0
LINE
  5
461
330
375
100
AcDbEntity
  8
SK2
 62
     0
100
AcDbLine
 10
0.0000000000000039
 20
31.5
 30
0.0
 11
-56.57199999999999
 21
31.50000000000002
 31
0.0
  0
LINE
  5
462
330
375
100
AcDbEntity
  8
SK2
 62
     0
100
AcDbLine
 10
-51.57200000000001
 20
-26.92999999999998
 30
0.0
 11
-51.57199999999999
 21
26.93000000000001
 31
0.0
  0
SOLID
  5
463
330
375
100
AcDbEntity
  8
SK2
 62
     0
100
AcDbTrace
 10
-52.33366666666668
 20
-26.92999999999998
 30
0.0
 11
-50.81033333333333
 21
-26.92999999999998
 31
0.0
 12
-51.57200000000001
 22
-31.49999999999998
 32
0.0
 13
-51.57200000000001
 23
-31.49999999999998
 33
0.0
  0
SOLID
  5
464
330
375
100
AcDbEntity
  8
SK2
 62
     0
100
AcDbTrace
 10
-52.33366666666666
 20
26.93000000000001
 30
0.0
 11
-50.81033333333333
 21
26.93000000000001
 31
0.0
 12
-51.57199999999999
 22
31.50000000000001
 32
0.0
 13
-51.57199999999999
 23
31.50000000000001
 33
0.0
  0
MTEXT
  5
465
330
375
100
AcDbEntity
  8
SK2
 62
     0
100
AcDbMText
 10
-56.157
 20
0.0000000000000064
 30
0.0
 40
4.57
 41
0.0
 71
     5
 72
     1
  1
\A1;%%C63
  7
SIMPLEX
 11
0.0000000000000001
 21
1.0
 31
0.0
1001
ACAD
1000
MTEXTBEGIN
1070
    73
1070
     1
1070
    44
1040
1.0
1070
    74
1070
     0
1000
MTEXTEND
  0
POINT
  5
466
330
375
100
AcDbEntity
  8
DEFPOINTS
 62
     0
100
AcDbPoint
 10
-0.0000000000000039
 20
-31.49999999999999
 30
0.0
  0
POINT
  5
467
330
375
100
AcDbEntity
  8
DEFPOINTS
 62
     0
100
AcDbPoint
 10
0.0000000000000039
 20
31.5
 30
0.0
  0
POINT
  5
468
330
375
100
AcDbEntity
  8
DEFPOINTS
 62
     0
100
AcDbPoint
 10
-51.57199999999999
 20
31.50000000000001
 30
0.0
  0
ENDBLK
  5
380
330
375
100
AcDbEntity
  8
0
100
AcDbBlockEnd
  0
BLOCK
  5
38B
330
381
100
AcDbEntity
  8
0
100
AcDbBlockBegin
  2
*D5
 70
     1
 10
0.0
 20
0.0
 30
0.0
  3
*D5
  1

  0
LINE
  5
469
330
381
100
AcDbEntity
  8
2
 62
     0
100
AcDbLine
 10
0.0000000000000039
 20
31.5
 30
0.0
 11
0.0000000000000068
 21
80.0
 31
0.0
  0
LINE
  5
46A
330
381
100
AcDbEntity
  8
2
 62
     0
100
AcDbLine
 10
60.0
 20
16.0
 30
0.0
 11
60.0
 21
80.0
 31
0.0
  0
LINE
  5
46B
330
381
100
AcDbEntity
  8
2
 62
     0
100
AcDbLine
 10
4.570000000000006
 20
75.0
 30
0.0
 11
55.43
 21
75.0
 31
0.0
  0
SOLID
  5
46C
330
381
100
AcDbEntity
  8
2
 62
     0
100
AcDbTrace
 10
4.570000000000006
 20
75.76166666666667
 30
0.0
 11
4.570000000000006
 21
74.23833333333333
 31
0.0
 12
0.0000000000000065
 22
75.0
 32
0.0
 13
0.0000000000000065
 23
75.0
 33
0.0
  0
SOLID
  5
46D
330
381
100
AcDbEntity
  8
2
 62
     0
100
AcDbTrace
 10
55.43
 20
75.76166666666667
 30
0.0
 11
55.43
 21
74.23833333333333
 31
0.0
 12
60.0
 22
75.0
 32
0.0
 13
60.0
 23
75.0
 33
0.0
  0
MTEXT
  5
46E
330
381
100
AcDbEntity
  8
2
 62
     0
100
AcDbMText
 10
30.0
 20
79.58499999999999
 30
0.0
 40
4.57
 41
0.0
 71
     5
 72
     1
  1
\A1;60
  7
SIMPLEX
1001
ACAD
1000
MTEXTBEGIN
1070
    73
1070
     1
1070
    44
1040
1.0
1070
    74
1070
     0
1000
MTEXTEND
  0
POINT
  5
46F
330
381
100
AcDbEntity
  8
DEFPOINTS
 62
     0
100
AcDbPoint
 10
0.0000000000000039
 20
31.5
 30
0.0
  0
POINT
  5
470
330
381
100
AcDbEntity
  8
DEFPOINTS
 62
     0
100
AcDbPoint
 10
60.0
 20
16.0
 30
0.0
  0
POINT
  5
471
330
381
100
AcDbEntity
  8
DEFPOINTS
 62
     0
100
AcDbPoint
 10
60.0
 20
75.0
 30
0.0
  0
ENDBLK
  5
38C
330
381
100
AcDbEntity
  8
0
100
AcDbBlockEnd
  0
ENDSEC
  0
SECTION
  2
ENTITIES
  0
LINE
  5
38E
330
18
100
AcDbEntity
  8
SK1
100
AcDbLine
 10
76.0
 20
8.0
 30
0.0
 11
60.0
 21
8.001000000000004
 31
0.0
  0
LINE
  5
38F
330
18
100
AcDbEntity
  8
SK1
100
AcDbLine
 10
76.0
 20
-8.000000000000003
 30
0.0
 11
60.0
 21
-8.001000000000001
 31
0.0
  0
ARC
  5
390
330
18
100
AcDbEntity
  8
1
100
AcDbCircle
 10
33.99999999999972
 20
-24.0
 30
0.0
 40
8.0
100
AcDbArc
 50
90.000031
 51
180.000015
  0
LINE
  5
391
330
18
100
AcDbEntity
  8
1
100
AcDbLine
 10
33.99999999999972
 20
-16.0
 30
0.0
 11
48.99999999999999
 21
-16.0
 31
0.0
  0
ARC
  5
392
330
18
100
AcDbEntity
  8
1
100
AcDbCircle
 10
48.99999999999999
 20
-15.0
 30
0.0
 40
1.0
100
AcDbArc
 50
270.0
 51
0.0
  0
LINE
  5
393
330
18
100
AcDbEntity
  8
1
100
AcDbLine
 10
33.99999999999972
 20
16.0
 30
0.0
 11
48.99999999999999
 21
16.0
 31
0.0
  0
ARC
  5
394
330
18
100
AcDbEntity
  8
1
100
AcDbCircle
 10
48.99999999999999
 20
15.0
 30
0.0
 40
1.0
100
AcDbArc
 50
0.000008
 51
90.0
  0
ARC
  5
395
330
18
100
AcDbEntity
  8
1
100
AcDbCircle
 10
33.99999999999972
 20
24.0
 30
0.0
 40
8.0
100
AcDbArc
 50
179.999985
 51
269.999969
  0
LINE
  5
396
330
18
100
AcDbEntity
  8
SK1
100
AcDbLine
 10
76.0
 20
-8.000000000000003
 30
0.0
 11
76.0
 21
8.0
 31
0.0
  0
LINE
  5
397
330
18
100
AcDbEntity
  8
SK1
100
AcDbLine
 10
77.0
 20
0.0
 30
0.0
 11
77.0
 21
-5.75
 31
0.0
  0
LINE
  5
398
330
18
100
AcDbEntity
  8
4
100
AcDbLine
 10
-32.00000000000001
 20
0.0
 30
0.0
 11
65.0
 21
0.0
 31
0.0
  0
POINT
  5
399
330
18
100
AcDbEntity
  8
1__1
 62
     7
100
AcDbPoint
 10
60.0
 20
0.0
 30
0.0
  0
LINE
  5
39A
330
18
100
AcDbEntity
  8
SK3
100
AcDbLine
 10
56.99999999999999
 20
-2.0
 30
0.0
 11
73.0
 21
-2.0
 31
0.0
  0
LINE
  5
39B
330
18
100
AcDbEntity
  8
SK3
100
AcDbLine
 10
56.99999999999999
 20
2.0
 30
0.0
 11
73.0
 21
2.0
 31
0.0
  0
ARC
  5
39C
330
18
100
AcDbEntity
  8
SK3
100
AcDbCircle
 10
56.99999999999999
 20
0.0
 30
0.0
 40
2.0
100
AcDbArc
 50
90.0
 51
269.999969
  0
ARC
  5
39D
330
18
100
AcDbEntity
  8
SK3
100
AcDbCircle
 10
73.0
 20
0.0
 30
0.0
 40
2.0
100
AcDbArc
 50
270.0
 51
89.999962
  0
LINE
  5
39E
330
18
100
AcDbEntity
  8
SK4
100
AcDbLine
 10
56.99999999999999
 20
-4.0
 30
0.0
 11
56.99999999999999
 21
4.0
 31
0.0
  0
POINT
  5
3A0
330
18
100
AcDbEntity
  8
1__1
 62
     7
100
AcDbPoint
 10
0.0
 20
0.0
 30
0.0
  0
LINE
  5
3A1
330
18
100
AcDbEntity
  8
1
100
AcDbLine
 10
64.40000000000001
 20
4.0
 30
0.0
 11
64.40000000000001
 21
-4.0
 31
0.0
  0
LINE
  5
3A2
330
18
100
AcDbEntity
  8
1
100
AcDbLine
 10
60.0
 20
4.0
 30
0.0
 11
64.40000000000001
 21
4.0
 31
0.0
  0
LINE
  5
3A3
330
18
100
AcDbEntity
  8
1
100
AcDbLine
 10
64.40000000000001
 20
4.0
 30
0.0
 11
65.0
 21
3.399999999999998
 31
0.0
  0
LINE
  5
3A4
330
18
100
AcDbEntity
  8
1
100
AcDbLine
 10
65.0
 20
3.399999999999998
 30
0.0
 11
65.0
 21
-3.399999999999998
 31
0.0
  0
LINE
  5
3A5
330
18
100
AcDbEntity
  8
1
100
AcDbLine
 10
65.0
 20
-3.399999999999998
 30
0.0
 11
64.40000000000001
 21
-4.0
 31
0.0
  0
LINE
  5
3A6
330
18
100
AcDbEntity
  8
1
100
AcDbLine
 10
64.40000000000001
 20
-4.0
 30
0.0
 11
60.0
 21
-4.0
 31
0.0
  0
LINE
  5
3A7
330
18
100
AcDbEntity
  8
1
100
AcDbLine
 10
60.0
 20
-4.0
 30
0.0
 11
60.0
 21
-16.0
 31
0.0
  0
LINE
  5
3A8
330
18
100
AcDbEntity
  8
1
100
AcDbLine
 10
60.0
 20
-16.0
 30
0.0
 11
50.0
 21
-16.0
 31
0.0
  0
LINE
  5
3A9
330
18
100
AcDbEntity
  8
1
100
AcDbLine
 10
50.0
 20
-16.0
 30
0.0
 11
50.0
 21
16.0
 31
0.0
  0
LINE
  5
3AA
330
18
100
AcDbEntity
  8
1
100
AcDbLine
 10
50.0
 20
16.0
 30
0.0
 11
60.0
 21
16.0
 31
0.0
  0
LINE
  5
3AB
330
18
100
AcDbEntity
  8
1
100
AcDbLine
 10
60.0
 20
16.0
 30
0.0
 11
60.0
 21
4.0
 31
0.0
  0
LINE
  5
3AC
330
18
100
AcDbEntity
  8
SK1
100
AcDbLine
 10
77.0
 20
0.0
 30
0.0
 11
77.0
 21
7.0
 31
0.0
  0
LINE
  5
3AD
330
18
100
AcDbEntity
  8
SK1
100
AcDbLine
 10
77.0
 20
7.0
 30
0.0
 11
76.0
 21
8.0
 31
0.0
  0
LINE
  5
3AE
330
18
100
AcDbEntity
  8
SK1
100
AcDbLine
 10
77.0
 20
-5.75
 30
0.0
 11
77.0
 21
-7.000000000000003
 31
0.0
  0
LINE
  5
3AF
330
18
100
AcDbEntity
  8
SK1
100
AcDbLine
 10
77.0
 20
-7.000000000000003
 30
0.0
 11
76.0
 21
-8.000000000000003
 31
0.0
  0
LINE
  5
3B0
330
18
100
AcDbEntity
  8
1
100
AcDbLine
 10
50.0
 20
4.049999999999997
 30
0.0
 11
50.0
 21
15.0
 31
0.0
  0
LINE
  5
3B1
330
18
100
AcDbEntity
  8
1
100
AcDbLine
 10
50.0
 20
-15.0
 30
0.0
 11
50.0
 21
-4.050000000000004
 31
0.0
  0
LINE
  5
3B2
330
18
100
AcDbEntity
  8
SK2
100
AcDbLine
 10
77.0
 20
0.0
 30
0.0
 11
92.27900000000003
 21
-23.52
 31
0.0
  0
TEXT
  5
3B3
330
18
100
AcDbEntity
  8
SK2
100
AcDbText
 10
91.584
 20
-27.972
 30
0.0
 40
3.499151999999999
  1
M8
 41
0.8890459999999999
100
AcDbText
  0
LINE
  5
3B4
330
18
100
AcDbEntity
  8
SK4
100
AcDbLine
 10
-35.1899816499772
 20
0.0
 30
0.0
 11
78.55900000000002
 21
0.0
 31
0.0
  0
LINE
  5
3B7
330
18
100
AcDbEntity
  8
SK2
100
AcDbLine
 10
76.0
 20
8.0
 30
0.0
 11
95.0
 21
7.999999999999994
 31
0.0
  0
LINE
  5
3B8
330
18
100
AcDbEntity
  8
SK2
100
AcDbLine
 10
76.0
 20
-8.000000000000003
 30
0.0
 11
95.0
 21
-8.000000000000008
 31
0.0
  0
LINE
  5
3B9
330
18
100
AcDbEntity
  8
SK2
100
AcDbLine
 10
90.0
 20
3.429999999999997
 30
0.0
 11
90.0
 21
-3.430000000000006
 31
0.0
  0
SOLID
  5
3BA
330
18
100
AcDbEntity
  8
SK2
100
AcDbTrace
 10
89.23833333333332
 20
3.429999999999997
 30
0.0
 11
90.76166666666667
 21
3.429999999999996
 31
0.0
 12
90.0
 22
7.999999999999997
 32
0.0
 13
90.0
 23
7.999999999999997
 33
0.0
  0
SOLID
  5
3BB
330
18
100
AcDbEntity
  8
SK2
100
AcDbTrace
 10
89.23833333333332
 20
-3.430000000000006
 30
0.0
 11
90.76166666666667
 21
-3.430000000000007
 31
0.0
 12
90.0
 22
-8.000000000000007
 32
0.0
 13
90.0
 23
-8.000000000000007
 33
0.0
  0
LINE
  5
3BD
330
18
100
AcDbEntity
  8
SK2
100
AcDbLine
 10
60.0
 20
15.99999999999999
 30
0.0
 11
110.0
 21
15.99999999999998
 31
0.0
  0
LINE
  5
3BE
330
18
100
AcDbEntity
  8
SK2
100
AcDbLine
 10
60.0
 20
-16.0
 30
0.0
 11
110.0
 21
-16.00000000000001
 31
0.0
  0
LINE
  5
3BF
330
18
100
AcDbEntity
  8
SK2
100
AcDbLine
 10
105.0
 20
11.42999999999998
 30
0.0
 11
105.0
 21
-11.43000000000001
 31
0.0
  0
SOLID
  5
3C0
330
18
100
AcDbEntity
  8
SK2
100
AcDbTrace
 10
104.2383333333333
 20
11.42999999999998
 30
0.0
 11
105.7616666666666
 21
11.42999999999998
 31
0.0
 12
105.0
 22
15.99999999999998
 32
0.0
 13
105.0
 23
15.99999999999998
 33
0.0
  0
SOLID
  5
3C1
330
18
100
AcDbEntity
  8
SK2
100
AcDbTrace
 10
104.2383333333333
 20
-11.43000000000001
 30
0.0
 11
105.7616666666666
 21
-11.43000000000001
 31
0.0
 12
105.0
 22
-16.00000000000001
 32
0.0
 13
105.0
 23
-16.00000000000001
 33
0.0
  0
ARC
  5
3C6
330
18
100
AcDbEntity
  8
1
100
AcDbCircle
 10
12.04317771747478
 20
-16.44859219559006
 30
0.0
 40
7.887892605326019
100
AcDbArc
 50
206.7587824572152
 51
270.497836851947
  0
LINE
  5
3C7
330
18
100
AcDbEntity
  8
1
100
AcDbLine
 10
16.125
 20
-20.75
 30
0.0
 11
16.12500000000001
 21
-28.89759526419164
 31
0.0
  0
LINE
  5
3C8
330
18
100
AcDbEntity
  8
1
100
AcDbLine
 10
19.87499999999999
 20
-20.75
 30
0.0
 11
19.875
 21
-28.89759526419164
 31
0.0
  0
LINE
  5
3C9
330
18
100
AcDbEntity
  8
SK4
100
AcDbLine
 10
17.99999999999999
 20
-32.0
 30
0.0
 11
18.0
 21
31.49999999999999
 31
0.0
  0
LINE
  5
3CA
330
18
100
AcDbEntity
  8
1
100
AcDbLine
 10
-0.000000000000003
 20
24.27368870025969
 30
0.0
 11
0.000000000000003
 21
-24.27368870025969
 31
0.0
  0
LINE
  5
3CB
330
18
100
AcDbEntity
  8
1
100
AcDbLine
 10
-2.000000000000003
 20
-24.21499999999999
 30
0.0
 11
-1.999999999999997
 21
24.215
 31
0.0
  0
LINE
  5
3CC
330
18
100
AcDbEntity
  8
1
100
AcDbLine
 10
16.12499999999999
 20
-21.39759526419165
 30
0.0
 11
14.62250092524069
 21
-24.0
 31
0.0
  0
LINE
  5
3CD
330
18
100
AcDbEntity
  8
1
100
AcDbLine
 10
19.87499999999999
 20
-21.39759526419165
 30
0.0
 11
21.37749907475931
 21
-24.0
 31
0.0
  0
LINE
  5
3CE
330
18
100
AcDbEntity
  8
1
100
AcDbLine
 10
25.99999999999999
 20
31.5
 30
0.0
 11
26.0
 21
-31.49999999999999
 31
0.0
  0
ARC
  5
3CF
330
18
100
AcDbEntity
  8
1
100
AcDbCircle
 10
-30.8
 20
-21.57350093632995
 30
0.0
 40
1.199999999999999
100
AcDbArc
 50
180.0
 51
267.1375947738882
  0
LINE
  5
3D0
330
18
100
AcDbEntity
  8
SK3
100
AcDbLine
 10
25.99999999999999
 20
-26.5
 30
0.0
 11
4.999999999999992
 21
-26.5
 31
0.0
  0
LINE
  5
3D1
330
18
100
AcDbEntity
  8
1
100
AcDbLine
 10
14.62250092524069
 20
-31.49999999999999
 30
0.0
 11
0.0000000000000039
 21
-31.5
 31
0.0
  0
LINE
  5
3D2
330
18
100
AcDbEntity
  8
1
100
AcDbLine
 10
11.97464153129386
 20
-24.33618704727588
 30
0.0
 11
14.62250092524069
 21
-24.33618704727588
 31
0.0
  0
TEXT
  5
3D3
330
18
100
AcDbEntity
  8
6
100
AcDbText
 10
-30.0
 20
-30.0
 30
0.0
 40
3.5
  1
HSK 63-A
  7
SIMPLEX
100
AcDbText
  0
LINE
  5
3D4
330
18
100
AcDbEntity
  8
1
100
AcDbLine
 10
-1.999999999999997
 20
-24.215
 30
0.0
 11
-30.85992514033268
 21
-22.77200374298336
 31
0.0
  0
ARC
  5
3D5
330
18
100
AcDbEntity
  8
1
100
AcDbCircle
 10
-0.4934638757492534
 20
-24.615
 30
0.0
 40
0.6
100
AcDbArc
 50
34.67022254181182
 51
90.00000000000003
  0
ARC
  5
3D6
330
18
100
AcDbEntity
  8
1
100
AcDbCircle
 10
-1.174598339933747
 20
-24.615
 30
0.0
 40
0.6
100
AcDbArc
 50
89.99999999999998
 51
104.9999999999999
  0
LINE
  5
3D7
330
18
100
AcDbEntity
  8
1
100
AcDbLine
 10
-1.99999999999996
 20
-24.215
 30
0.0
 11
-1.32988976699526
 21
-24.03544450422656
 31
0.0
  0
LINE
  5
3D8
330
18
100
AcDbEntity
  8
1
100
AcDbLine
 10
-1.174598339933747
 20
-24.015
 30
0.0
 11
-0.4934638757492665
 21
-24.015
 31
0.0
  0
LINE
  5
3D9
330
18
100
AcDbEntity
  8
SK3
100
AcDbLine
 10
4.999999999999992
 20
-31.5
 30
0.0
 11
4.999999999999992
 21
-26.5
 31
0.0
  0
LINE
  5
3DA
330
18
100
AcDbEntity
  8
1
100
AcDbLine
 10
0.000000000000003
 20
-24.27368870025969
 30
0.0
 11
0.0000000000000039
 21
-31.5
 31
0.0
  0
ARC
  5
3DB
330
18
100
AcDbEntity
  8
SK3
100
AcDbCircle
 10
-0.4934638757492595
 20
-24.615
 30
0.0
 40
0.6
100
AcDbArc
 50
352.0000000000008
 51
34.67022254181179
  0
LINE
  5
3DC
330
18
100
AcDbEntity
  8
SK3
100
AcDbLine
 10
-0.0000000000000031
 20
-25.415
 30
0.0
 11
0.1006969654956761
 21
-24.69850386057604
 31
0.0
  0
LINE
  5
3DD
330
18
100
AcDbEntity
  8
1
100
AcDbLine
 10
14.62250092524069
 20
-23.99999999999999
 30
0.0
 11
14.62250092524069
 21
-31.49999999999999
 31
0.0
  0
LINE
  5
3DE
330
18
100
AcDbEntity
  8
1
100
AcDbLine
 10
21.37749907475932
 20
-24.00000000000002
 30
0.0
 11
21.37749907475932
 21
-31.49999999999999
 31
0.0
  0
LINE
  5
3DF
330
18
100
AcDbEntity
  8
1
100
AcDbLine
 10
16.125
 20
-28.89759526419165
 30
0.0
 11
14.62250092524069
 21
-31.49999999999999
 31
0.0
  0
LINE
  5
3E0
330
18
100
AcDbEntity
  8
1
100
AcDbLine
 10
19.875
 20
-28.89759526419165
 30
0.0
 11
21.37749907475931
 21
-31.49999999999999
 31
0.0
  0
LINE
  5
3E1
330
18
100
AcDbEntity
  8
1
100
AcDbLine
 10
26.0
 20
-31.49999999999999
 30
0.0
 11
21.37749907475932
 21
-31.49999999999999
 31
0.0
  0
ARC
  5
3E2
330
18
100
AcDbEntity
  8
1
100
AcDbCircle
 10
19.125
 20
-28.24999999999999
 30
0.0
 40
0.75
100
AcDbArc
 50
0.0
 51
90.00000000000003
  0
ARC
  5
3E3
330
18
100
AcDbEntity
  8
1
100
AcDbCircle
 10
16.875
 20
-28.24999999999999
 30
0.0
 40
0.75
100
AcDbArc
 50
90.00000000000003
 51
180.0
  0
LINE
  5
3E4
330
18
100
AcDbEntity
  8
1
100
AcDbLine
 10
19.125
 20
-27.5
 30
0.0
 11
16.875
 21
-27.5
 31
0.0
  0
LINE
  5
3E5
330
18
100
AcDbEntity
  8
1
100
AcDbLine
 10
21.37749907475931
 20
-24.33618704727589
 30
0.0
 11
25.99999999999999
 21
-24.33618704727588
 31
0.0
  0
LINE
  5
3E6
330
18
100
AcDbEntity
  8
SK3
100
AcDbLine
 10
26.0
 20
26.49999999999999
 30
0.0
 11
5.000000000000007
 21
26.5
 31
0.0
  0
LINE
  5
3E7
330
18
100
AcDbEntity
  8
SK3
100
AcDbLine
 10
20.0
 20
7.749999999999997
 30
0.0
 11
10.0
 21
7.749999999999999
 31
0.0
  0
LINE
  5
3E8
330
18
100
AcDbEntity
  8
SK3
100
AcDbLine
 10
20.0
 20
-7.750000000000002
 30
0.0
 11
9.999999999999998
 21
-7.750000000000001
 31
0.0
  0
LINE
  5
3E9
330
18
100
AcDbEntity
  8
SK3
100
AcDbLine
 10
20.0
 20
8.999999999999998
 30
0.0
 11
10.0
 21
8.999999999999998
 31
0.0
  0
LINE
  5
3EA
330
18
100
AcDbEntity
  8
SK3
100
AcDbLine
 10
20.0
 20
-9.000000000000001
 30
0.0
 11
9.999999999999998
 21
-9.000000000000001
 31
0.0
  0
LINE
  5
3EB
330
18
100
AcDbEntity
  8
1
100
AcDbLine
 10
25.99999999999999
 20
-20.0
 30
0.0
 11
5.00000000000001
 21
-20.0
 31
0.0
  0
LINE
  5
3EC
330
18
100
AcDbEntity
  8
1
100
AcDbLine
 10
14.62250092524069
 20
31.5
 30
0.0
 11
-0.0000000000000039
 21
31.5
 31
0.0
  0
POLYLINE
  5
3ED
330
18
100
AcDbEntity
  8
1
100
AcDb2dPolyline
 66
     1
 10
0.0
 20
0.0
 30
0.0
  0
VERTEX
  5
4F2
330
3ED
100
AcDbEntity
  8
1
100
AcDbVertex
100
AcDb2dVertex
 10
13.0
 20
8.0
 30
0.0
  0
VERTEX
  5
4F3
330
3ED
100
AcDbEntity
  8
1
100
AcDbVertex
100
AcDb2dVertex
 10
26.0
 20
8.0
 30
0.0
  0
SEQEND
  5
4F4
330
3ED
100
AcDbEntity
  8
1
  0
POLYLINE
  5
3EE
330
18
100
AcDbEntity
  8
1
100
AcDb2dPolyline
 66
     1
 10
0.0
 20
0.0
 30
0.0
  0
VERTEX
  5
4F5
330
3EE
100
AcDbEntity
  8
1
100
AcDbVertex
100
AcDb2dVertex
 10
13.0
 20
-8.0
 30
0.0
  0
VERTEX
  5
4F6
330
3EE
100
AcDbEntity
  8
1
100
AcDbVertex
100
AcDb2dVertex
 10
26.0
 20
-8.0
 30
0.0
  0
SEQEND
  5
4F7
330
3EE
100
AcDbEntity
  8
1
  0
LINE
  5
3EF
330
18
100
AcDbEntity
  8
SK3
100
AcDbLine
 10
-18.99602540378442
 20
17.0
 30
0.0
 11
-18.99602540378443
 21
-16.99999999999999
 31
0.0
  0
LINE
  5
3F0
330
18
100
AcDbEntity
  8
SK3
100
AcDbLine
 10
-17.26397459621556
 20
-19.88989794855617
 30
0.0
 11
-17.26397459621555
 21
19.88989794855618
 31
0.0
  0
LINE
  5
3F1
330
18
100
AcDbEntity
  8
SK3
100
AcDbLine
 10
9.999999999999998
 20
-16.99999999999999
 30
0.0
 11
10.0
 21
17.0
 31
0.0
  0
LINE
  5
3F2
330
18
100
AcDbEntity
  8
1
100
AcDbLine
 10
-32.00000000000001
 20
-21.57350093632995
 30
0.0
 11
-31.99999999999999
 21
21.57350093632995
 31
0.0
  0
LINE
  5
3F3
330
18
100
AcDbEntity
  8
SK3
100
AcDbLine
 10
-30.9
 20
8.828815263196908
 30
0.0
 11
-30.9
 21
17.0
 31
0.0
  0
LINE
  5
3F4
330
18
100
AcDbEntity
  8
SK3
100
AcDbLine
 10
-6.244997998398392
 20
-20.0
 30
0.0
 11
-16.91756443470179
 21
-19.99999999999999
 31
0.0
  0
ARC
  5
3F5
330
18
100
AcDbEntity
  8
1
100
AcDbCircle
 10
-27.5
 20
-4.770000000000003
 30
0.0
 40
1.5
100
AcDbArc
 50
270.0
 51
0.0000090000000101
  0
LINE
  5
3F6
330
18
100
AcDbEntity
  8
1
100
AcDbLine
 10
-26.00544530189937
 20
7.728090673768008
 30
0.0
 11
-26.00544530189937
 21
-7.728090673768008
 31
0.0
  0
LINE
  5
3F7
330
18
100
AcDbEntity
  8
SK3
100
AcDbLine
 10
-18.99602540378443
 20
-16.99999999999999
 30
0.0
 11
-30.90000000000002
 21
-16.99999999999999
 31
0.0
  0
ARC
  5
3F8
330
18
100
AcDbEntity
  8
1
100
AcDbCircle
 10
-27.50544530189936
 20
-7.728090464328502
 30
0.0
 40
1.5
100
AcDbArc
 50
270.0
 51
359.9999920000001
  0
LINE
  5
3F9
330
18
100
AcDbEntity
  8
SK3
100
AcDbLine
 10
-30.90000000000002
 20
-16.99999999999999
 30
0.0
 11
-30.90000000000001
 21
-8.828815263196894
 31
0.0
  0
LINE
  5
3FA
330
18
100
AcDbEntity
  8
SK3
100
AcDbLine
 10
-30.90000000000001
 20
-16.99999999999999
 30
0.0
 11
-32.0
 21
-17.63508529610858
 31
0.0
  0
LINE
  5
3FB
330
18
100
AcDbEntity
  8
1
100
AcDbLine
 10
-31.0
 20
-6.270000000000003
 30
0.0
 11
-31.0
 21
-8.82
 31
0.0
  0
ARC
  5
3FC
330
18
100
AcDbEntity
  8
1
100
AcDbCircle
 10
-34.61
 20
-55.0
 30
0.0
 40
46.32
100
AcDbArc
 50
81.17716199999998
 51
85.53250099999967
  0
LINE
  5
3FD
330
18
100
AcDbEntity
  8
1
100
AcDbLine
 10
-31.0
 20
-8.82
 30
0.0
 11
-32.0
 21
-9.82
 31
0.0
  0
POLYLINE
  5
3FE
330
18
100
AcDbEntity
  8
1
100
AcDb2dPolyline
 66
     1
 10
0.0
 20
0.0
 30
0.0
  0
VERTEX
  5
4F8
330
3FE
100
AcDbEntity
  8
1
100
AcDbVertex
100
AcDb2dVertex
 10
-31.0
 20
-6.270000000000003
 30
0.0
  0
VERTEX
  5
4F9
330
3FE
100
AcDbEntity
  8
1
100
AcDbVertex
100
AcDb2dVertex
 10
-27.5
 20
-6.270000000000003
 30
0.0
  0
SEQEND
  5
4FA
330
3FE
100
AcDbEntity
  8
1
  0
POLYLINE
  5
3FF
330
18
100
AcDbEntity
  8
1
100
AcDb2dPolyline
 66
     1
 10
0.0
 20
0.0
 30
0.0
  0
VERTEX
  5
4FB
330
3FF
100
AcDbEntity
  8
1
100
AcDbVertex
100
AcDb2dVertex
 10
-31.0
 20
-6.270000000000003
 30
0.0
  0
VERTEX
  5
4FC
330
3FF
100
AcDbEntity
  8
1
100
AcDbVertex
100
AcDb2dVertex
 10
-32.0
 20
-7.270000000000003
 30
0.0
  0
SEQEND
  5
4FD
330
3FF
100
AcDbEntity
  8
1
  0
LINE
  5
400
330
18
100
AcDbEntity
  8
SK3
100
AcDbLine
 10
-26.0
 20
-21.83823997029065
 30
0.0
 11
-25.99999999999999
 21
-16.99999999999999
 31
0.0
  0
ARC
  5
401
330
18
100
AcDbEntity
  8
SK3
100
AcDbCircle
 10
-16.91756443470179
 20
-19.39999999999999
 30
0.0
 40
0.6
100
AcDbArc
 50
209.9999999999998
 51
270.0
  0
LINE
  5
402
330
18
100
AcDbEntity
  8
SK3
100
AcDbLine
 10
-18.99602540378443
 20
-16.99999999999999
 30
0.0
 11
-17.43717967697245
 21
-19.69999999999999
 31
0.0
  0
ARC
  5
403
330
18
100
AcDbEntity
  8
1
100
AcDbCircle
 10
-27.5
 20
4.770000000000003
 30
0.0
 40
1.5
100
AcDbArc
 50
0.0000079999998281
 51
90.0
  0
ARC
  5
404
330
18
100
AcDbEntity
  8
1
100
AcDbCircle
 10
-27.50544530189936
 20
7.728090464328502
 30
0.0
 40
1.5
100
AcDbArc
 50
0.0000079999998281
 51
90.0
  0
LINE
  5
405
330
18
100
AcDbEntity
  8
1
100
AcDbLine
 10
-31.0
 20
6.270000000000003
 30
0.0
 11
-31.0
 21
8.82
 31
0.0
  0
ARC
  5
406
330
18
100
AcDbEntity
  8
1
100
AcDbCircle
 10
-34.61
 20
55.0
 30
0.0
 40
46.32
100
AcDbArc
 50
274.4674990000003
 51
278.8228449999996
  0
LINE
  5
407
330
18
100
AcDbEntity
  8
1
100
AcDbLine
 10
-31.0
 20
8.82
 30
0.0
 11
-32.0
 21
9.82
 31
0.0
  0
POLYLINE
  5
408
330
18
100
AcDbEntity
  8
1
100
AcDb2dPolyline
 66
     1
 10
0.0
 20
0.0
 30
0.0
  0
VERTEX
  5
4FE
330
408
100
AcDbEntity
  8
1
100
AcDbVertex
100
AcDb2dVertex
 10
-31.0
 20
6.270000000000003
 30
0.0
  0
VERTEX
  5
4FF
330
408
100
AcDbEntity
  8
1
100
AcDbVertex
100
AcDb2dVertex
 10
-32.0
 20
7.270000000000003
 30
0.0
  0
SEQEND
  5
500
330
408
100
AcDbEntity
  8
1
  0
POLYLINE
  5
409
330
18
100
AcDbEntity
  8
1
100
AcDb2dPolyline
 66
     1
 10
0.0
 20
0.0
 30
0.0
  0
VERTEX
  5
501
330
409
100
AcDbEntity
  8
1
100
AcDbVertex
100
AcDb2dVertex
 10
-31.0
 20
6.270000000000003
 30
0.0
  0
VERTEX
  5
502
330
409
100
AcDbEntity
  8
1
100
AcDbVertex
100
AcDb2dVertex
 10
-27.5
 20
6.270000000000003
 30
0.0
  0
SEQEND
  5
503
330
409
100
AcDbEntity
  8
1
  0
ARC
  5
40A
330
18
100
AcDbEntity
  8
1
100
AcDbCircle
 10
13.0
 20
0.0
 30
0.0
 40
8.0
100
AcDbArc
 50
90.0
 51
270.0
  0
LINE
  5
40B
330
18
100
AcDbEntity
  8
SK4
100
AcDbLine
 10
-9.0
 20
5.398193548837753
 30
0.0
 11
-9.0
 21
-5.543096708892107
 31
0.0
  0
ARC
  5
40C
330
18
100
AcDbEntity
  8
SK3
100
AcDbCircle
 10
-6.244997998398391
 20
-12.0
 30
0.0
 40
8.0
100
AcDbArc
 50
270.0
 51
321.3178125465105
  0
LINE
  5
40D
330
18
100
AcDbEntity
  8
SK3
100
AcDbLine
 10
9.999999999999998
 20
-17.0
 30
0.0
 11
-0.0000000000000021
 21
-16.99999999999999
 31
0.0
  0
CIRCLE
  5
40E
330
18
100
AcDbEntity
  8
1
100
AcDbCircle
 10
-9.0
 20
0.0
 30
0.0
 40
4.25
  0
CIRCLE
  5
40F
330
18
100
AcDbEntity
  8
1
100
AcDbCircle
 10
-9.0
 20
0.0
 30
0.0
 40
3.75
  0
LINE
  5
410
330
18
100
AcDbEntity
  8
SK3
100
AcDbLine
 10
-6.244997998398386
 20
20.0
 30
0.0
 11
-16.91756443470178
 21
20.0
 31
0.0
  0
LINE
  5
411
330
18
100
AcDbEntity
  8
1
100
AcDbLine
 10
-1.999999999999997
 20
24.215
 30
0.0
 11
-30.85992514033268
 21
22.77200374298336
 31
0.0
  0
LINE
  5
412
330
18
100
AcDbEntity
  8
SK3
100
AcDbLine
 10
-18.99602540378444
 20
17.0
 30
0.0
 11
-30.9
 21
17.0
 31
0.0
  0
LINE
  5
413
330
18
100
AcDbEntity
  8
SK3
100
AcDbLine
 10
-30.9
 20
17.0
 30
0.0
 11
-31.99999999999999
 21
17.63508529610859
 31
0.0
  0
ARC
  5
414
330
18
100
AcDbEntity
  8
1
100
AcDbCircle
 10
-30.8
 20
21.57350093632995
 30
0.0
 40
1.199999999999999
100
AcDbArc
 50
92.86240522611169
 51
180.0
  0
ARC
  5
415
330
18
100
AcDbEntity
  8
SK3
100
AcDbCircle
 10
-16.91756443470178
 20
19.4
 30
0.0
 40
0.6
100
AcDbArc
 50
89.99999999999998
 51
150.0000000000001
  0
LINE
  5
416
330
18
100
AcDbEntity
  8
SK3
100
AcDbLine
 10
-25.99999999999999
 20
17.0
 30
0.0
 11
-25.99999999999999
 21
21.83823997029066
 31
0.0
  0
LINE
  5
417
330
18
100
AcDbEntity
  8
SK3
100
AcDbLine
 10
-18.99602540378442
 20
17.0
 30
0.0
 11
-17.43717967697244
 21
19.69999999999999
 31
0.0
  0
LINE
  5
418
330
18
100
AcDbEntity
  8
SK3
100
AcDbLine
 10
5.000000000000007
 20
26.5
 30
0.0
 11
5.000000000000007
 21
31.5
 31
0.0
  0
LINE
  5
419
330
18
100
AcDbEntity
  8
1
100
AcDbLine
 10
-0.0000000000000039
 20
31.49999999999999
 30
0.0
 11
-0.000000000000003
 21
24.27368870025969
 31
0.0
  0
ARC
  5
41A
330
18
100
AcDbEntity
  8
SK3
100
AcDbCircle
 10
-6.244997998398387
 20
12.0
 30
0.0
 40
8.0
100
AcDbArc
 50
38.68218745348943
 51
89.99999999999998
  0
ARC
  5
41B
330
18
100
AcDbEntity
  8
1
100
AcDbCircle
 10
-0.4934638757492595
 20
24.615
 30
0.0
 40
0.6
100
AcDbArc
 50
270.0
 51
325.3297774581881
  0
LINE
  5
41C
330
18
100
AcDbEntity
  8
1
100
AcDbLine
 10
-1.174598339933741
 20
24.015
 30
0.0
 11
-0.4934638757492606
 21
24.015
 31
0.0
  0
LINE
  5
41D
330
18
100
AcDbEntity
  8
1
100
AcDbLine
 10
-1.999999999999954
 20
24.215
 30
0.0
 11
-1.329889766995255
 21
24.03544450422656
 31
0.0
  0
ARC
  5
41E
330
18
100
AcDbEntity
  8
1
100
AcDbCircle
 10
-1.174598339933741
 20
24.615
 30
0.0
 40
0.6
100
AcDbArc
 50
255.0
 51
270.0
  0
LINE
  5
41F
330
18
100
AcDbEntity
  8
SK3
100
AcDbLine
 10
9.999999999999994
 20
17.0
 30
0.0
 11
0.0000000000000021
 21
17.0
 31
0.0
  0
LINE
  5
420
330
18
100
AcDbEntity
  8
SK3
100
AcDbLine
 10
0.0000000000000031
 20
25.415
 30
0.0
 11
0.1006969654956821
 21
24.69850386057604
 31
0.0
  0
ARC
  5
421
330
18
100
AcDbEntity
  8
SK3
100
AcDbCircle
 10
-0.4934638757492534
 20
24.615
 30
0.0
 40
0.6
100
AcDbArc
 50
325.3297774581881
 51
7.999999999999182
  0
LINE
  5
422
330
18
100
AcDbEntity
  8
SK3
100
AcDbLine
 10
12.1117139036558
 20
20.0
 30
0.0
 11
12.1117139036558
 21
24.33618704727588
 31
0.0
  0
LINE
  5
423
330
18
100
AcDbEntity
  8
1
100
AcDbLine
 10
14.62250092524069
 20
31.49999999999998
 30
0.0
 11
14.6225009252407
 21
8.0
 31
0.0
  0
LINE
  5
424
330
18
100
AcDbEntity
  8
1
100
AcDbLine
 10
16.12499999999999
 20
28.89759526419166
 30
0.0
 11
16.125
 21
8.0
 31
0.0
  0
LINE
  5
425
330
18
100
AcDbEntity
  8
1
100
AcDbLine
 10
21.37749907475931
 20
31.50000000000001
 30
0.0
 11
21.37749907475932
 21
8.0
 31
0.0
  0
LINE
  5
426
330
18
100
AcDbEntity
  8
1
100
AcDbLine
 10
19.87499999999999
 20
28.89759526419165
 30
0.0
 11
19.875
 21
8.000000000000003
 31
0.0
  0
LINE
  5
427
330
18
100
AcDbEntity
  8
SK3
100
AcDbLine
 10
20.0
 20
-9.500000000000001
 30
0.0
 11
20.0
 21
9.499999999999998
 31
0.0
  0
LINE
  5
428
330
18
100
AcDbEntity
  8
SK3
100
AcDbLine
 10
22.0
 20
-9.500000000000003
 30
0.0
 11
22.0
 21
9.499999999999996
 31
0.0
  0
LINE
  5
429
330
18
100
AcDbEntity
  8
1
100
AcDbLine
 10
14.6225009252407
 20
-8.0
 30
0.0
 11
14.6225009252407
 21
-20.0
 31
0.0
  0
LINE
  5
42A
330
18
100
AcDbEntity
  8
1
100
AcDbLine
 10
16.125
 20
-8.000000000000003
 30
0.0
 11
16.125
 21
-20.0
 31
0.0
  0
LINE
  5
42B
330
18
100
AcDbEntity
  8
1
100
AcDbLine
 10
21.37749907475932
 20
-8.000000000000003
 30
0.0
 11
21.37749907475932
 21
-20.0
 31
0.0
  0
LINE
  5
42C
330
18
100
AcDbEntity
  8
1
100
AcDbLine
 10
19.875
 20
-7.999999999999989
 30
0.0
 11
19.875
 21
-20.0
 31
0.0
  0
ARC
  5
42D
330
18
100
AcDbEntity
  8
1
100
AcDbCircle
 10
19.12499999999999
 20
-20.75
 30
0.0
 40
0.75
100
AcDbArc
 50
0.0
 51
89.99999999999996
  0
ARC
  5
42E
330
18
100
AcDbEntity
  8
1
100
AcDbCircle
 10
16.87499999999999
 20
-20.75
 30
0.0
 40
0.75
100
AcDbArc
 50
89.99999999999996
 51
179.9999999999999
  0
LINE
  5
42F
330
18
100
AcDbEntity
  8
1
100
AcDbLine
 10
19.12499999999999
 20
-20.0
 30
0.0
 11
16.87499999999999
 21
-20.0
 31
0.0
  0
LINE
  5
430
330
18
100
AcDbEntity
  8
SK3
100
AcDbLine
 10
22.0
 20
-9.500000000000003
 30
0.0
 11
20.0
 21
-9.500000000000001
 31
0.0
  0
LINE
  5
431
330
18
100
AcDbEntity
  8
SK3
100
AcDbLine
 10
22.0
 20
9.499999999999996
 30
0.0
 11
20.0
 21
9.499999999999998
 31
0.0
  0
ARC
  5
432
330
18
100
AcDbEntity
  8
1
100
AcDbCircle
 10
19.12499999999999
 20
28.25
 30
0.0
 40
0.75
100
AcDbArc
 50
270.0
 51
0.0
  0
ARC
  5
433
330
18
100
AcDbEntity
  8
1
100
AcDbCircle
 10
16.87499999999999
 20
28.25
 30
0.0
 40
0.75
100
AcDbArc
 50
180.0
 51
270.0
  0
LINE
  5
434
330
18
100
AcDbEntity
  8
1
100
AcDbLine
 10
19.12499999999999
 20
27.5
 30
0.0
 11
16.87499999999999
 21
27.5
 31
0.0
  0
LINE
  5
435
330
18
100
AcDbEntity
  8
1
100
AcDbLine
 10
16.12499999999999
 20
28.89759526419165
 30
0.0
 11
14.62250092524069
 21
31.5
 31
0.0
  0
LINE
  5
436
330
18
100
AcDbEntity
  8
1
100
AcDbLine
 10
16.12499999999999
 20
28.89759526419165
 30
0.0
 11
16.12499999999999
 21
28.25
 31
0.0
  0
LINE
  5
437
330
18
100
AcDbEntity
  8
1
100
AcDbLine
 10
19.87499999999999
 20
28.89759526419165
 30
0.0
 11
21.37749907475931
 21
31.5
 31
0.0
  0
LINE
  5
438
330
18
100
AcDbEntity
  8
1
100
AcDbLine
 10
19.87499999999999
 20
28.89759526419165
 30
0.0
 11
19.87499999999999
 21
28.25
 31
0.0
  0
LINE
  5
439
330
18
100
AcDbEntity
  8
1
100
AcDbLine
 10
25.99999999999999
 20
31.5
 30
0.0
 11
21.37749907475931
 21
31.5
 31
0.0
  0
LINE
  5
43B
330
18
100
AcDbEntity
  8
4
100
AcDbLine
 10
-9.0
 20
5.398193548837753
 30
0.0
 11
-9.0
 21
-5.543096708892107
 31
0.0
  0
POLYLINE
  5
499
330
18
100
AcDbEntity
  8
SK3
100
AcDb2dPolyline
 66
     1
 10
0.0
 20
0.0
 30
0.0
  0
VERTEX
  5
550
330
499
100
AcDbEntity
  8
SK3
100
AcDbVertex
100
AcDb2dVertex
 10
52.02373809523811
 20
8.001000000000004
 30
0.0
  0
VERTEX
  5
551
330
499
100
AcDbEntity
  8
SK3
100
AcDbVertex
100
AcDb2dVertex
 10
50.45
 20
7.579999999999998
 30
0.0
  0
SEQEND
  5
552
330
499
100
AcDbEntity
  8
SK3
  0
POLYLINE
  5
4A4
330
18
100
AcDbEntity
  8
SK3
100
AcDb2dPolyline
 66
     1
 10
0.0
 20
0.0
 30
0.0
  0
VERTEX
  5
553
330
4A4
100
AcDbEntity
  8
SK3
100
AcDbVertex
100
AcDb2dVertex
 10
50.23
 20
7.549999999999997
 30
0.0
  0
VERTEX
  5
554
330
4A4
100
AcDbEntity
  8
SK3
100
AcDbVertex
100
AcDb2dVertex
 10
50.0
 20
7.549999999999997
 30
0.0
  0
SEQEND
  5
555
330
4A4
100
AcDbEntity
  8
SK3
  0
ARC
  5
4A5
330
18
100
AcDbEntity
  8
SK3
100
AcDbCircle
 10
50.23
 20
8.399999999999998
 30
0.0
 40
0.85
100
AcDbArc
 50
270.0
 51
284.9987489999998
  0
POLYLINE
  5
4A6
330
18
100
AcDbEntity
  8
BEMASS
  6
CONTINUOUS
 62
     3
100
AcDb2dPolyline
 66
     1
 10
0.0
 20
0.0
 30
0.0
  0
VERTEX
  5
556
330
4A6
100
AcDbEntity
  8
BEMASS
  6
CONTINUOUS
 62
     3
100
AcDbVertex
100
AcDb2dVertex
 10
57.00000000000001
 20
-8.89
 30
0.0
  0
VERTEX
  5
557
330
4A6
100
AcDbEntity
  8
BEMASS
  6
CONTINUOUS
 62
     3
100
AcDbVertex
100
AcDb2dVertex
 10
57.00000000000001
 20
-8.899999999999998
 30
0.0
  0
SEQEND
  5
558
330
4A6
100
AcDbEntity
  8
BEMASS
  6
CONTINUOUS
 62
     3
  0
LINE
  5
4B8
330
18
100
AcDbEntity
  8
SK3
100
AcDbLine
 10
60.0
 20
8.001000000000004
 30
0.0
 11
52.02373809523811
 21
8.001000000000004
 31
0.0
  0
LINE
  5
4B9
330
18
100
AcDbEntity
  8
SK3
100
AcDbLine
 10
60.0
 20
-8.001000000000004
 30
0.0
 11
52.02373809523811
 21
-8.001000000000004
 31
0.0
  0
POLYLINE
  5
4BA
330
18
100
AcDbEntity
  8
SK3
100
AcDb2dPolyline
 66
     1
 10
0.0
 20
0.0
 30
0.0
  0
VERTEX
  5
559
330
4BA
100
AcDbEntity
  8
SK3
100
AcDbVertex
100
AcDb2dVertex
 10
52.02373809523811
 20
-8.001000000000004
 30
0.0
  0
VERTEX
  5
55A
330
4BA
100
AcDbEntity
  8
SK3
100
AcDbVertex
100
AcDb2dVertex
 10
50.45
 20
-7.579999999999998
 30
0.0
  0
SEQEND
  5
55B
330
4BA
100
AcDbEntity
  8
SK3
  0
POLYLINE
  5
4BB
330
18
100
AcDbEntity
  8
SK3
100
AcDb2dPolyline
 66
     1
 10
0.0
 20
0.0
 30
0.0
  0
VERTEX
  5
55C
330
4BB
100
AcDbEntity
  8
SK3
100
AcDbVertex
100
AcDb2dVertex
 10
50.23
 20
-7.549999999999997
 30
0.0
  0
VERTEX
  5
55D
330
4BB
100
AcDbEntity
  8
SK3
100
AcDbVertex
100
AcDb2dVertex
 10
50.0
 20
-7.549999999999997
 30
0.0
  0
SEQEND
  5
55E
330
4BB
100
AcDbEntity
  8
SK3
  0
ARC
  5
4BC
330
18
100
AcDbEntity
  8
SK3
100
AcDbCircle
 10
50.23
 20
-8.399999999999998
 30
0.0
 40
0.85
100
AcDbArc
 50
75.00125100000023
 51
90.00000000000003
  0
LINE
  5
4BE
330
18
100
AcDbEntity
  8
2
100
AcDbLine
 10
0.0000000000000039
 20
31.5
 30
0.0
 11
0.0000000000000068
 21
80.0
 31
0.0
  0
LINE
  5
4BF
330
18
100
AcDbEntity
  8
2
100
AcDbLine
 10
60.0
 20
16.0
 30
0.0
 11
60.0
 21
80.0
 31
0.0
  0
LINE
  5
4C0
330
18
100
AcDbEntity
  8
2
100
AcDbLine
 10
4.570000000000006
 20
75.0
 30
0.0
 11
55.43
 21
75.0
 31
0.0
  0
SOLID
  5
4C1
330
18
100
AcDbEntity
  8
2
100
AcDbTrace
 10
4.570000000000006
 20
75.76166666666667
 30
0.0
 11
4.570000000000006
 21
74.23833333333333
 31
0.0
 12
0.0000000000000065
 22
75.0
 32
0.0
 13
0.0000000000000065
 23
75.0
 33
0.0
  0
SOLID
  5
4C2
330
18
100
AcDbEntity
  8
2
100
AcDbTrace
 10
55.43
 20
75.76166666666667
 30
0.0
 11
55.43
 21
74.23833333333333
 31
0.0
 12
60.0
 22
75.0
 32
0.0
 13
60.0
 23
75.0
 33
0.0
  0
LINE
  5
4C4
330
18
100
AcDbEntity
  8
SK2
100
AcDbLine
 10
-0.0000000000000039
 20
-31.49999999999999
 30
0.0
 11
-56.57200000000001
 21
-31.49999999999998
 31
0.0
  0
LINE
  5
4C5
330
18
100
AcDbEntity
  8
SK2
100
AcDbLine
 10
0.0000000000000039
 20
31.5
 30
0.0
 11
-56.57199999999999
 21
31.50000000000002
 31
0.0
  0
LINE
  5
4C6
330
18
100
AcDbEntity
  8
SK2
100
AcDbLine
 10
-51.57200000000001
 20
-26.92999999999998
 30
0.0
 11
-51.57199999999999
 21
26.93000000000001
 31
0.0
  0
SOLID
  5
4C7
330
18
100
AcDbEntity
  8
SK2
100
AcDbTrace
 10
-52.33366666666668
 20
-26.92999999999998
 30
0.0
 11
-50.81033333333333
 21
-26.92999999999998
 31
0.0
 12
-51.57200000000001
 22
-31.49999999999998
 32
0.0
 13
-51.57200000000001
 23
-31.49999999999998
 33
0.0
  0
SOLID
  5
4C8
330
18
100
AcDbEntity
  8
SK2
100
AcDbTrace
 10
-52.33366666666666
 20
26.93000000000001
 30
0.0
 11
-50.81033333333333
 21
26.93000000000001
 31
0.0
 12
-51.57199999999999
 22
31.50000000000001
 32
0.0
 13
-51.57199999999999
 23
31.50000000000001
 33
0.0
  0
LINE
  5
4CA
330
18
100
AcDbEntity
  8
2
100
AcDbLine
 10
0.0000000000000039
 20
31.5
 30
0.0
 11
0.0000000000000059
 21
65.0
 31
0.0
  0
LINE
  5
4CB
330
18
100
AcDbEntity
  8
2
100
AcDbLine
 10
26.0
 20
31.49999999999999
 30
0.0
 11
26.0
 21
65.0
 31
0.0
  0
LINE
  5
4CC
330
18
100
AcDbEntity
  8
2
100
AcDbLine
 10
4.570000000000005
 20
60.0
 30
0.0
 11
21.43
 21
60.0
 31
0.0
  0
SOLID
  5
4CD
330
18
100
AcDbEntity
  8
2
100
AcDbTrace
 10
4.570000000000005
 20
60.76166666666667
 30
0.0
 11
4.570000000000005
 21
59.23833333333333
 31
0.0
 12
0.0000000000000056
 22
60.0
 32
0.0
 13
0.0000000000000056
 23
60.0
 33
0.0
  0
SOLID
  5
4CE
330
18
100
AcDbEntity
  8
2
100
AcDbTrace
 10
21.43
 20
60.76166666666667
 30
0.0
 11
21.43
 21
59.23833333333333
 31
0.0
 12
26.0
 22
60.0
 32
0.0
 13
26.0
 23
60.0
 33
0.0
  0
LINE
  5
4D0
330
18
100
AcDbEntity
  8
SK2
100
AcDbLine
 10
-32.00000000000001
 20
20.63973716363725
 30
0.0
 11
-32.0
 21
80.0
 31
0.0
  0
LINE
  5
4D1
330
18
100
AcDbEntity
  8
SK2
100
AcDbLine
 10
0.0000000000000039
 20
31.5
 30
0.0
 11
0.0000000000000068
 21
80.0
 31
0.0
  0
LINE
  5
4D2
330
18
100
AcDbEntity
  8
SK2
100
AcDbLine
 10
-27.43
 20
75.0
 30
0.0
 11
-4.569999999999994
 21
75.0
 31
0.0
  0
SOLID
  5
4D3
330
18
100
AcDbEntity
  8
SK2
100
AcDbTrace
 10
-27.43
 20
75.76166666666667
 30
0.0
 11
-27.43
 21
74.23833333333333
 31
0.0
 12
-32.00000000000001
 22
75.0
 32
0.0
 13
-32.00000000000001
 23
75.0
 33
0.0
  0
SOLID
  5
4D4
330
18
100
AcDbEntity
  8
SK2
100
AcDbTrace
 10
-4.569999999999994
 20
75.76166666666667
 30
0.0
 11
-4.569999999999994
 21
74.23833333333333
 31
0.0
 12
0.0000000000000065
 22
75.0
 32
0.0
 13
0.0000000000000065
 23
75.0
 33
0.0
  0
LINE
  5
4D6
330
18
100
AcDbEntity
  8
SK2
100
AcDbLine
 10
77.0
 20
-7.000000000000003
 30
0.0
 11
77.0
 21
-50.0
 31
0.0
  0
LINE
  5
4D7
330
18
100
AcDbEntity
  8
SK2
100
AcDbLine
 10
50.0
 20
-16.0
 30
0.0
 11
50.0
 21
-50.0
 31
0.0
  0
LINE
  5
4D8
330
18
100
AcDbEntity
  8
SK2
100
AcDbLine
 10
72.43000000000001
 20
-45.0
 30
0.0
 11
54.56999999999999
 21
-45.0
 31
0.0
  0
SOLID
  5
4D9
330
18
100
AcDbEntity
  8
SK2
100
AcDbTrace
 10
72.43000000000001
 20
-44.23833333333333
 30
0.0
 11
72.43000000000001
 21
-45.76166666666667
 31
0.0
 12
77.0
 22
-45.0
 32
0.0
 13
77.0
 23
-45.0
 33
0.0
  0
SOLID
  5
4DA
330
18
100
AcDbEntity
  8
SK2
100
AcDbTrace
 10
54.56999999999999
 20
-44.23833333333333
 30
0.0
 11
54.56999999999999
 21
-45.76166666666667
 31
0.0
 12
50.0
 22
-45.0
 32
0.0
 13
50.0
 23
-45.0
 33
0.0
  0
LINE
  5
4DC
330
18
100
AcDbEntity
  8
SK2
100
AcDbLine
 10
77.0
 20
-7.000000000000003
 30
0.0
 11
77.0
 21
-35.0
 31
0.0
  0
LINE
  5
4DD
330
18
100
AcDbEntity
  8
SK2
100
AcDbLine
 10
60.0
 20
-16.0
 30
0.0
 11
60.0
 21
-35.0
 31
0.0
  0
LINE
  5
4DE
330
18
100
AcDbEntity
  8
SK2
100
AcDbLine
 10
72.43000000000001
 20
-30.0
 30
0.0
 11
64.56999999999999
 21
-30.0
 31
0.0
  0
SOLID
  5
4DF
330
18
100
AcDbEntity
  8
SK2
100
AcDbTrace
 10
72.43000000000001
 20
-29.23833333333333
 30
0.0
 11
72.43000000000001
 21
-30.76166666666666
 31
0.0
 12
77.0
 22
-30.0
 32
0.0
 13
77.0
 23
-30.0
 33
0.0
  0
SOLID
  5
4E0
330
18
100
AcDbEntity
  8
SK2
100
AcDbTrace
 10
64.56999999999999
 20
-29.23833333333333
 30
0.0
 11
64.56999999999999
 21
-30.76166666666666
 31
0.0
 12
60.0
 22
-30.0
 32
0.0
 13
60.0
 23
-30.0
 33
0.0
  0
TEXT
  5
4E2
330
18
100
AcDbEntity
  8
SK2
100
AcDbText
 10
65.23571428571428
 20
-27.7
 30
0.0
 40
4.57
  1
17
  7
SIMPLEX
100
AcDbText
  0
TEXT
  5
4E3
330
18
100
AcDbEntity
  8
SK2
100
AcDbText
 10
59.80047619047619
 20
-42.7
 30
0.0
 40
4.57
  1
27
  7
SIMPLEX
100
AcDbText
  0
TEXT
  5
4E4
330
18
100
AcDbEntity
  8
SK2
100
AcDbText
 10
-19.69952380952381
 20
77.3
 30
0.0
 40
4.57
  1
32
  7
SIMPLEX
100
AcDbText
  0
TEXT
  5
4E5
330
18
100
AcDbEntity
  8
2
100
AcDbText
 10
9.409285714285717
 20
62.30000000000001
 30
0.0
 40
4.57
  1
26
  7
SIMPLEX
100
AcDbText
  0
TEXT
  5
4E6
330
18
100
AcDbEntity
  8
SK2
100
AcDbText
 10
-53.872
 20
-5.766904761904756
 30
0.0
 40
4.57
  1
%%c
 50
90.0
  7
SIMPLEX
100
AcDbText
  0
TEXT
  5
4E7
330
18
100
AcDbEntity
  8
SK2
100
AcDbText
 10
-53.872
 20
-1.632142857142851
 30
0.0
 40
4.57
  1
63
 50
90.0
  7
SIMPLEX
100
AcDbText
  0
TEXT
  5
4E8
330
18
100
AcDbEntity
  8
2
100
AcDbText
 10
26.30047619047619
 20
77.3
 30
0.0
 40
4.57
  1
60
  7
SIMPLEX
100
AcDbText
  0
TEXT
  5
4E9
330
18
100
AcDbEntity
  8
SK2
100
AcDbText
 10
102.7
 20
-5.766904761904762
 30
0.0
 40
4.57
  1
%%c
 50
90.0
  7
SIMPLEX
100
AcDbText
  0
TEXT
  5
4EA
330
18
100
AcDbEntity
  8
SK2
100
AcDbText
 10
102.7
 20
-1.632142857142858
 30
0.0
 40
4.57
  1
32
 50
90.0
  7
SIMPLEX
100
AcDbText
  0
TEXT
  5
4EB
330
18
100
AcDbEntity
  8
SK2
100
AcDbText
 10
87.70000000000001
 20
-5.222857142857135
 30
0.0
 40
4.57
  1
%%c
 50
90.0
  7
SIMPLEX
100
AcDbText
  0
TEXT
  5
4EC
330
18
100
AcDbEntity
  8
SK2
100
AcDbText
 10
87.70000000000001
 20
-1.08809523809523
 30
0.0
 40
4.57
  1
16
 50
90.0
  7
SIMPLEX
100
AcDbText
  0
ENDSEC
  0
SECTION
  2
OBJECTS
  0
DICTIONARY
  5
C
330
0
100
AcDbDictionary
  3
ACAD_GROUP
350
D
  3
ACAD_LAYOUT
350
301
  3
ACAD_MLINESTYLE
350
E
  3
ACAD_PLOTSETTINGS
350
302
1001
ACAD
1000
TREAT_AS_HARD
1070
     0
  0
DICTIONARY
  5
4EE
330
18
100
AcDbDictionary
  3
ACAD_LAYOUTSELFREF
350
4EF
  0
DICTIONARY
  5
4F0
330
338
100
AcDbDictionary
  3
ACAD_LAYOUTSELFREF
350
4F1
  0
DICTIONARY
  5
D
102
{ACAD_REACTORS
330
C
102
}
330
C
100
AcDbDictionary
1001
ACAD
1000
TREAT_AS_HARD
1070
     0
  0
DICTIONARY
  5
301
102
{ACAD_REACTORS
330
C
102
}
330
C
100
AcDbDictionary
1001
ACAD
1000
TREAT_AS_HARD
1070
     0
  0
DICTIONARY
  5
E
102
{ACAD_REACTORS
330
C
102
}
330
C
100
AcDbDictionary
  3
STANDARD
350
1B
1001
ACAD
1000
TREAT_AS_HARD
1070
     0
  0
DICTIONARY
  5
302
102
{ACAD_REACTORS
330
C
102
}
330
C
100
AcDbDictionary
1001
ACAD
1000
TREAT_AS_HARD
1070
     0
  0
XRECORD
  5
4EF
102
{ACAD_REACTORS
330
4EE
102
}
330
4EE
100
AcDbXrecord
340
18
  0
XRECORD
  5
4F1
102
{ACAD_REACTORS
330
4F0
102
}
330
4F0
100
AcDbXrecord
340
338
  0
MLINESTYLE
  5
1B
102
{ACAD_REACTORS
330
E
102
}
330
E
100
AcDbMlineStyle
  2
STANDARD
 70
     0
  3

 62
     0
 51
90.0
 52
90.0
 71
     2
 49
0.5
 62
   256
  6
BYLAYER
 49
-0.5
 62
   256
  6
BYLAYER
  0
ENDSEC
  0
EOF
