  0
SECTION
  2
HEADER
  9
$ACADVER
  1
AC1012
  9
$DWGCODEPAGE
  3
ANSI_1252
  9
$INSBASE
 10
0.0
 20
0.0
 30
0.0
  9
$EXTMIN
 10
-101.8948042247152
 20
-31.63574102525092
 30
-0.0015258207003583
  9
$EXTMAX
 10
90.02559009406899
 20
81.8743904422438
 30
0.0000000349246037
  9
$LIMMIN
 10
-170.0
 20
-170.0
  9
$LIMMAX
 10
519.0
 20
260.0
  9
$ORTHOMODE
 70
     0
  9
$REGENMODE
 70
     1
  9
$FILLMODE
 70
     1
  9
$QTEXTMODE
 70
     0
  9
$MIRRTEXT
 70
     0
  9
$DRAGMODE
 70
     2
  9
$LTSCALE
 40
15.0
  9
$OSMODE
 70
     0
  9
$ATTMODE
 70
     1
  9
$TEXTSIZE
 40
4.57
  9
$TRACEWID
 40
0.05
  9
$TEXTSTYLE
  7
SIMPLEX
  9
$CLAYER
  8
SK2
  9
$CELTYPE
  6
BYLAYER
  9
$CECOLOR
 62
   256
  9
$CELTSCALE
 40
1.0
  9
$DELOBJ
 70
     1
  9
$DISPSILH
 70
     0
  9
$DIMSCALE
 40
0.0
  9
$DIMASZ
 40
4.57
  9
$DIMEXO
 40
0.0
  9
$DIMDLI
 40
0.38
  9
$DIMRND
 40
0.0
  9
$DIMDLE
 40
0.0
  9
$DIMEXE
 40
5.0
  9
$DIMTP
 40
0.0
  9
$DIMTM
 40
0.0
  9
$DIMTXT
 40
4.57
  9
$DIMCEN
 40
0.09
  9
$DIMTSZ
 40
0.0
  9
$DIMTOL
 70
     0
  9
$DIMLIM
 70
     0
  9
$DIMTIH
 70
     0
  9
$DIMTOH
 70
     0
  9
$DIMSE1
 70
     0
  9
$DIMSE2
 70
     0
  9
$DIMTAD
 70
     1
  9
$DIMZIN
 70
     8
  9
$DIMBLK
  1

  9
$DIMASO
 70
     1
  9
$DIMSHO
 70
     1
  9
$DIMPOST
  1

  9
$DIMAPOST
  1

  9
$DIMALT
 70
     0
  9
$DIMALTD
 70
     2
  9
$DIMALTF
 40
25.4
  9
$DIMLFAC
 40
1.0
  9
$DIMTOFL
 70
     0
  9
$DIMTVP
 40
0.0
  9
$DIMTIX
 70
     0
  9
$DIMSOXD
 70
     0
  9
$DIMSAH
 70
     0
  9
$DIMBLK1
  1

  9
$DIMBLK2
  1

  9
$DIMSTYLE
  2
STANDARD
  9
$DIMCLRD
 70
     0
  9
$DIMCLRE
 70
     0
  9
$DIMCLRT
 70
     0
  9
$DIMTFAC
 40
1.0
  9
$DIMGAP
 40
2.299999999999999
  9
$DIMJUST
 70
     0
  9
$DIMSD1
 70
     0
  9
$DIMSD2
 70
     0
  9
$DIMTOLJ
 70
     1
  9
$DIMTZIN
 70
     0
  9
$DIMALTZ
 70
     0
  9
$DIMALTTZ
 70
     0
  9
$DIMFIT
 70
     3
  9
$DIMUPT
 70
     0
  9
$DIMUNIT
 70
     2
  9
$DIMDEC
 70
     2
  9
$DIMTDEC
 70
     4
  9
$DIMALTU
 70
     2
  9
$DIMALTTD
 70
     2
  9
$DIMTXSTY
  7
SIMPLEX
  9
$DIMAUNIT
 70
     0
  9
$LUNITS
 70
     2
  9
$LUPREC
 70
     2
  9
$SKETCHINC
 40
0.1
  9
$FILLETRAD
 40
0.0
  9
$AUNITS
 70
     0
  9
$AUPREC
 70
     0
  9
$MENU
  1
c:\tdm21\cad\caduti13\tdm13
  9
$ELEVATION
 40
0.0
  9
$PELEVATION
 40
0.0
  9
$THICKNESS
 40
0.0
  9
$LIMCHECK
 70
     0
  9
$BLIPMODE
 70
     0
  9
$CHAMFERA
 40
0.0
  9
$CHAMFERB
 40
0.0
  9
$CHAMFERC
 40
0.0
  9
$CHAMFERD
 40
0.0
  9
$SKPOLY
 70
     0
  9
$TDCREATE
 40
2452448.413392477
  9
$TDUPDATE
 40
2452448.413392477
  9
$TDINDWG
 40
0.0002377315
  9
$TDUSRTIMER
 40
0.0002377315
  9
$USRTIMER
 70
     1
  9
$ANGBASE
 50
0.0
  9
$ANGDIR
 70
     0
  9
$PDMODE
 70
     1
  9
$PDSIZE
 40
0.0
  9
$PLINEWID
 40
0.0
  9
$COORDS
 70
     1
  9
$SPLFRAME
 70
     0
  9
$SPLINETYPE
 70
     6
  9
$SPLINESEGS
 70
     8
  9
$ATTDIA
 70
     0
  9
$ATTREQ
 70
     1
  9
$HANDLING
 70
  4097
  9
$HANDSEED
  5
485
  9
$SURFTAB1
 70
     6
  9
$SURFTAB2
 70
     6
  9
$SURFTYPE
 70
     6
  9
$SURFU
 70
     6
  9
$SURFV
 70
     6
  9
$UCSNAME
  2

  9
$UCSORG
 10
0.0
 20
0.0
 30
0.0
  9
$UCSXDIR
 10
1.0
 20
0.0
 30
0.0
  9
$UCSYDIR
 10
0.0
 20
1.0
 30
0.0
  9
$PUCSNAME
  2

  9
$PUCSORG
 10
0.0
 20
0.0
 30
0.0
  9
$PUCSXDIR
 10
1.0
 20
0.0
 30
0.0
  9
$PUCSYDIR
 10
0.0
 20
1.0
 30
0.0
  9
$USERI1
 70
     0
  9
$USERI2
 70
     0
  9
$USERI3
 70
     0
  9
$USERI4
 70
     0
  9
$USERI5
 70
     0
  9
$USERR1
 40
0.0
  9
$USERR2
 40
0.0
  9
$USERR3
 40
0.0
  9
$USERR4
 40
0.0
  9
$USERR5
 40
0.0
  9
$WORLDVIEW
 70
     1
  9
$SHADEDGE
 70
     3
  9
$SHADEDIF
 70
    70
  9
$TILEMODE
 70
     1
  9
$MAXACTVP
 70
    16
  9
$PINSBASE
 10
0.0
 20
0.0
 30
0.0
  9
$PLIMCHECK
 70
     0
  9
$PEXTMIN
 10
0.0
 20
0.0
 30
0.0
  9
$PEXTMAX
 10
0.0
 20
0.0
 30
0.0
  9
$PLIMMIN
 10
0.0
 20
0.0
  9
$PLIMMAX
 10
12.0
 20
9.0
  9
$UNITMODE
 70
     0
  9
$VISRETAIN
 70
     0
  9
$PLINEGEN
 70
     0
  9
$PSLTSCALE
 70
     1
  9
$TREEDEPTH
 70
  3020
  9
$PICKSTYLE
 70
     1
  9
$CMLSTYLE
  2
STANDARD
  9
$CMLJUST
 70
     0
  9
$CMLSCALE
 40
1.0
  9
$SAVEIMAGES
 70
     1
  0
ENDSEC
  0
SECTION
  2
CLASSES
  0
CLASS
  1
ACDBDICTIONARYWDFLT
  2
AcDbDictionaryWithDefault
  3
AutoCAD 2000
 90
    32768
280
     0
281
     0
  0
CLASS
  1
ACDBPLACEHOLDER
  2
AcDbPlaceHolder
  3
AutoCAD 2000
 90
    32768
280
     0
281
     0
  0
CLASS
  1
LAYOUT
  2
AcDbLayout
  3
AutoCAD 2000
 90
    32768
280
     0
281
     0
  0
CLASS
  1
LONG_TRANSACTION
  2
AcDbLongTransaction
  3
AutoCAD 2000
 90
    32768
280
     0
281
     0
  0
CLASS
  1
LWPOLYLINE
  2
AcDbPolyline
  3
AutoCAD 2000
 90
    32768
280
     0
281
     1
  0
CLASS
  1
HATCH
  2
AcDbHatch
  3
AutoCAD 2000
 90
    32768
280
     0
281
     1
  0
CLASS
  1
XRECORD
  2
AcDbXrecord
  3
AutoCAD 2000
 90
    32768
280
     0
281
     0
  0
ENDSEC
  0
SECTION
  2
TABLES
  0
TABLE
  2
VPORT
  5
8
330
0
100
AcDbSymbolTable
 70
     3
  0
VPORT
  5
480
330
8
100
AcDbSymbolTableRecord
100
AcDbViewportTableRecord
  2
*ACTIVE
 70
     0
 10
0.0
 20
0.0
 11
1.0
 21
1.0
 12
-5.934607065323114
 22
25.11932470849643
 13
0.0
 23
0.0
 14
5.0
 24
5.0
 15
5.0
 25
5.0
 16
0.0
 26
0.0
 36
1.0
 17
0.0
 27
0.0
 37
0.0
 40
123.5101314674947
 41
2.130434782608695
 42
50.0
 43
0.0
 44
0.0
 50
0.0
 51
0.0
 71
     0
 72
   100
 73
     1
 74
     1
 75
     0
 76
     0
 77
     0
 78
     0
  0
ENDTAB
  0
TABLE
  2
LTYPE
  5
5
330
0
100
AcDbSymbolTable
 70
     3
  0
LTYPE
  5
12
330
5
100
AcDbSymbolTableRecord
100
AcDbLinetypeTableRecord
  2
BYBLOCK
 70
     0
  3

 72
    65
 73
     0
 40
0.0
  0
LTYPE
  5
13
330
5
100
AcDbSymbolTableRecord
100
AcDbLinetypeTableRecord
  2
BYLAYER
 70
     0
  3

 72
    65
 73
     0
 40
0.0
  0
LTYPE
  5
14
330
5
100
AcDbSymbolTableRecord
100
AcDbLinetypeTableRecord
  2
CONTINUOUS
 70
     0
  3
Solid line
 72
    65
 73
     0
 40
0.0
  0
LTYPE
  5
1F
330
5
100
AcDbSymbolTableRecord
100
AcDbLinetypeTableRecord
  2
CENTER
 70
     0
  3
____ . ____ . ____
 72
    65
 73
     4
 40
1.5
 49
1.0
 74
     0
 49
-0.25
 74
     0
 49
0.0
 74
     0
 49
-0.25
 74
     0
  0
LTYPE
  5
20
330
5
100
AcDbSymbolTableRecord
100
AcDbLinetypeTableRecord
  2
HIDDEN
 70
     0
  3
_ _ _ _ _ _ _ _ _ _ _ _ _ _ _ _ _ _ _ _ _ _ _
 72
    65
 73
     2
 40
0.375
 49
0.25
 74
     0
 49
-0.125
 74
     0
  0
ENDTAB
  0
TABLE
  2
LAYER
  5
2
330
0
100
AcDbSymbolTable
 70
    15
  0
LAYER
  5
F
330
2
100
AcDbSymbolTableRecord
100
AcDbLayerTableRecord
  2
0
 70
     0
 62
     7
  6
CONTINUOUS
  0
LAYER
  5
23
330
2
100
AcDbSymbolTableRecord
100
AcDbLayerTableRecord
  2
1
 70
     0
 62
     4
  6
CONTINUOUS
  0
LAYER
  5
24
330
2
100
AcDbSymbolTableRecord
100
AcDbLayerTableRecord
  2
SK1
 70
     0
 62
     4
  6
CONTINUOUS
  0
LAYER
  5
25
330
2
100
AcDbSymbolTableRecord
100
AcDbLayerTableRecord
  2
2
 70
     0
 62
     7
  6
CONTINUOUS
  0
LAYER
  5
26
330
2
100
AcDbSymbolTableRecord
100
AcDbLayerTableRecord
  2
2L
 70
     0
 62
     7
  6
CONTINUOUS
  0
LAYER
  5
27
330
2
100
AcDbSymbolTableRecord
100
AcDbLayerTableRecord
  2
SK2
 70
     0
 62
     7
  6
CONTINUOUS
  0
LAYER
  5
28
330
2
100
AcDbSymbolTableRecord
100
AcDbLayerTableRecord
  2
3
 70
     0
 62
     1
  6
HIDDEN
  0
LAYER
  5
29
330
2
100
AcDbSymbolTableRecord
100
AcDbLayerTableRecord
  2
SK3
 70
     0
 62
     1
  6
HIDDEN
  0
LAYER
  5
2A
330
2
100
AcDbSymbolTableRecord
100
AcDbLayerTableRecord
  2
4
 70
     0
 62
    -2
  6
CENTER
  0
LAYER
  5
2B
330
2
100
AcDbSymbolTableRecord
100
AcDbLayerTableRecord
  2
SK4
 70
     0
 62
     2
  6
CENTER
  0
LAYER
  5
2C
330
2
100
AcDbSymbolTableRecord
100
AcDbLayerTableRecord
  2
5
 70
     0
 62
    -7
  6
CONTINUOUS
  0
LAYER
  5
2D
330
2
100
AcDbSymbolTableRecord
100
AcDbLayerTableRecord
  2
6
 70
     0
 62
     5
  6
CONTINUOUS
  0
LAYER
  5
2E
330
2
100
AcDbSymbolTableRecord
100
AcDbLayerTableRecord
  2
SK6
 70
     0
 62
     5
  6
CONTINUOUS
  0
LAYER
  5
2F
330
2
100
AcDbSymbolTableRecord
100
AcDbLayerTableRecord
  2
DEFPOINTS
 70
     0
 62
     7
  6
CONTINUOUS
  0
LAYER
  5
38E
330
2
100
AcDbSymbolTableRecord
100
AcDbLayerTableRecord
  2
1__1
 70
     0
 62
     1
  6
CONTINUOUS
  0
ENDTAB
  0
TABLE
  2
STYLE
  5
3
330
0
100
AcDbSymbolTable
 70
     3
  0
STYLE
  5
10
330
3
100
AcDbSymbolTableRecord
100
AcDbTextStyleTableRecord
  2
STANDARD
 70
     0
 40
0.0
 41
1.0
 50
0.0
 71
     0
 42
5.0
  3
txt
  4

  0
STYLE
  5
1D
330
3
100
AcDbSymbolTableRecord
100
AcDbTextStyleTableRecord
  2
TXT
 70
     0
 40
8.0
 41
1.0
 50
0.0
 71
     0
 42
8.0
  3
txt
  4

  0
STYLE
  5
1E
330
3
100
AcDbSymbolTableRecord
100
AcDbTextStyleTableRecord
  2
SIMPLEX
 70
     0
 40
0.0
 41
1.0
 50
0.0
 71
     0
 42
4.57
  3
simplex
  4

  0
ENDTAB
  0
TABLE
  2
VIEW
  5
6
330
0
100
AcDbSymbolTable
 70
     0
  0
ENDTAB
  0
TABLE
  2
UCS
  5
7
330
0
100
AcDbSymbolTable
 70
     0
  0
ENDTAB
  0
TABLE
  2
APPID
  5
9
330
0
100
AcDbSymbolTable
 70
     1
  0
APPID
  5
11
330
9
100
AcDbSymbolTableRecord
100
AcDbRegAppTableRecord
  2
ACAD
 70
     0
  0
ENDTAB
  0
TABLE
  2
DIMSTYLE
  5
A
330
0
100
AcDbSymbolTable
 70
     1
  0
DIMSTYLE
105
3F
102
{ACAD_REACTORS
330
3D2
330
3D3
330
3D1
330
3CF
330
3CE
330
3BA
102
}
330
A
100
AcDbSymbolTableRecord
100
AcDbDimStyleTableRecord
  2
STANDARD
 70
     0
  3

  4

  5

  6

  7

 40
0.0
 41
4.57
 42
0.0
 43
0.38
 44
5.0
 45
0.0
 46
0.0
 47
0.0
 48
0.0
140
4.57
141
0.09
142
0.0
143
25.4
144
1.0
145
0.0
146
1.0
147
2.299999999999999
 71
     0
 72
     0
 73
     0
 74
     0
 75
     0
 76
     0
 77
     1
 78
     8
170
     0
171
     2
172
     0
173
     0
174
     0
175
     0
176
     0
177
     0
178
     0
270
     2
271
     2
272
     4
273
     2
274
     2
340
1E
275
     0
280
     0
281
     0
282
     0
283
     1
284
     0
285
     0
286
     0
287
     3
288
     0
  0
ENDTAB
  0
TABLE
  2
BLOCK_RECORD
  5
1
330
0
100
AcDbSymbolTable
 70
     6
  0
BLOCK_RECORD
  5
18
102
{ACAD_XDICTIONARY
360
481
102
}
330
1
100
AcDbSymbolTableRecord
100
AcDbBlockTableRecord
  2
*MODEL_SPACE
  0
BLOCK_RECORD
  5
338
102
{ACAD_XDICTIONARY
360
483
102
}
330
1
100
AcDbSymbolTableRecord
100
AcDbBlockTableRecord
  2
*PAPER_SPACE
  0
BLOCK_RECORD
  5
345
330
1
100
AcDbSymbolTableRecord
100
AcDbBlockTableRecord
  2
*D0
  0
BLOCK_RECORD
  5
351
330
1
100
AcDbSymbolTableRecord
100
AcDbBlockTableRecord
  2
*D1
  0
BLOCK_RECORD
  5
35D
330
1
100
AcDbSymbolTableRecord
100
AcDbBlockTableRecord
  2
*D2
  0
BLOCK_RECORD
  5
369
330
1
100
AcDbSymbolTableRecord
100
AcDbBlockTableRecord
  2
*D3
  0
BLOCK_RECORD
  5
375
330
1
100
AcDbSymbolTableRecord
100
AcDbBlockTableRecord
  2
*D4
  0
BLOCK_RECORD
  5
381
330
1
100
AcDbSymbolTableRecord
100
AcDbBlockTableRecord
  2
*D5
  0
ENDTAB
  0
ENDSEC
  0
SECTION
  2
BLOCKS
  0
BLOCK
  5
32
330
18
100
AcDbEntity
  8
0
100
AcDbBlockBegin
  2
*MODEL_SPACE
 70
     0
 10
0.0
 20
0.0
 30
0.0
  3
*MODEL_SPACE
  1

  0
ENDBLK
  5
33
330
18
100
AcDbEntity
  8
0
100
AcDbBlockEnd
  0
BLOCK
  5
339
330
338
100
AcDbEntity
 67
     1
  8
0
100
AcDbBlockBegin
  2
*PAPER_SPACE
 70
     0
 10
0.0
 20
0.0
 30
0.0
  3
*PAPER_SPACE
  1

  0
ENDBLK
  5
33A
330
338
100
AcDbEntity
 67
     1
  8
0
100
AcDbBlockEnd
  0
BLOCK
  5
34F
330
345
100
AcDbEntity
  8
0
100
AcDbBlockBegin
  2
*D0
 70
     1
 10
0.0
 20
0.0
 30
0.0
  3
*D0
  1

  0
LINE
  5
419
330
345
100
AcDbEntity
  8
2
 62
     0
100
AcDbLine
 10
-0.0000000000000142
 20
25.113
 30
0.0
 11
-0.0000000000000109
 21
80.0
 31
0.0
  0
LINE
  5
41A
330
345
100
AcDbEntity
  8
2
 62
     0
100
AcDbLine
 10
69.99499999999996
 20
10.5
 30
0.0
 11
69.99499999999996
 21
80.0
 31
0.0
  0
LINE
  5
41B
330
345
100
AcDbEntity
  8
2
 62
     0
100
AcDbLine
 10
4.569999999999988
 20
75.0
 30
0.0
 11
65.42499999999995
 21
75.0
 31
0.0
  0
SOLID
  5
41C
330
345
100
AcDbEntity
  8
2
 62
     0
100
AcDbTrace
 10
4.569999999999988
 20
75.76166666666667
 30
0.0
 11
4.569999999999988
 21
74.23833333333333
 31
0.0
 12
-0.0000000000000112
 22
75.0
 32
0.0
 13
-0.0000000000000112
 23
75.0
 33
0.0
  0
SOLID
  5
41D
330
345
100
AcDbEntity
  8
2
 62
     0
100
AcDbTrace
 10
65.42499999999995
 20
75.76166666666667
 30
0.0
 11
65.42499999999995
 21
74.23833333333333
 31
0.0
 12
69.99499999999996
 22
75.0
 32
0.0
 13
69.99499999999996
 23
75.0
 33
0.0
  0
MTEXT
  5
41E
330
345
100
AcDbEntity
  8
2
 62
     0
100
AcDbMText
 10
34.99749999999997
 20
79.58499999999999
 30
0.0
 40
4.57
 41
0.0
 71
     5
 72
     1
  1
\A1;70
  7
SIMPLEX
1001
ACAD
1000
MTEXTBEGIN
1070
    73
1070
     1
1070
    44
1040
1.0
1070
    74
1070
     0
1000
MTEXTEND
  0
POINT
  5
41F
330
345
100
AcDbEntity
  8
DEFPOINTS
 62
     0
100
AcDbPoint
 10
-0.0000000000000142
 20
25.113
 30
0.0
  0
POINT
  5
420
330
345
100
AcDbEntity
  8
DEFPOINTS
 62
     0
100
AcDbPoint
 10
69.99499999999996
 20
10.5
 30
0.0
  0
POINT
  5
421
330
345
100
AcDbEntity
  8
DEFPOINTS
 62
     0
100
AcDbPoint
 10
69.99499999999996
 20
75.0
 30
0.0
  0
ENDBLK
  5
350
330
345
100
AcDbEntity
  8
0
100
AcDbBlockEnd
  0
BLOCK
  5
35B
330
351
100
AcDbEntity
  8
0
100
AcDbBlockBegin
  2
*D1
 70
     1
 10
0.0
 20
0.0
 30
0.0
  3
*D1
  1

  0
LINE
  5
422
330
351
100
AcDbEntity
  8
SK2
 62
     0
100
AcDbLine
 10
0.0
 20
22.225
 30
0.0
 11
0.0000000000000026
 21
65.29868181158736
 31
0.0
  0
LINE
  5
423
330
351
100
AcDbEntity
  8
SK2
 62
     0
100
AcDbLine
 10
27.0
 20
30.88853
 30
0.0
 11
27.0
 21
65.29868181158736
 31
0.0
  0
LINE
  5
424
330
351
100
AcDbEntity
  8
SK2
 62
     0
100
AcDbLine
 10
4.570000000000002
 20
60.29868181158736
 30
0.0
 11
22.43
 21
60.29868181158736
 31
0.0
  0
SOLID
  5
425
330
351
100
AcDbEntity
  8
SK2
 62
     0
100
AcDbTrace
 10
4.570000000000002
 20
61.06034847825402
 30
0.0
 11
4.570000000000002
 21
59.53701514492069
 31
0.0
 12
0.0000000000000023
 22
60.29868181158736
 32
0.0
 13
0.0000000000000023
 23
60.29868181158736
 33
0.0
  0
SOLID
  5
426
330
351
100
AcDbEntity
  8
SK2
 62
     0
100
AcDbTrace
 10
22.43
 20
61.06034847825402
 30
0.0
 11
22.43
 21
59.53701514492069
 31
0.0
 12
27.0
 22
60.29868181158736
 32
0.0
 13
27.0
 23
60.29868181158736
 33
0.0
  0
MTEXT
  5
427
330
351
100
AcDbEntity
  8
SK2
 62
     0
100
AcDbMText
 10
13.5
 20
64.88368181158735
 30
0.0
 40
4.57
 41
0.0
 71
     5
 72
     1
  1
\A1;27
  7
SIMPLEX
1001
ACAD
1000
MTEXTBEGIN
1070
    73
1070
     1
1070
    44
1040
1.0
1070
    74
1070
     0
1000
MTEXTEND
  0
POINT
  5
428
330
351
100
AcDbEntity
  8
DEFPOINTS
 62
     0
100
AcDbPoint
 10
0.0
 20
22.225
 30
0.0
  0
POINT
  5
429
330
351
100
AcDbEntity
  8
DEFPOINTS
 62
     0
100
AcDbPoint
 10
27.0
 20
30.88853
 30
0.0
  0
POINT
  5
42A
330
351
100
AcDbEntity
  8
DEFPOINTS
 62
     0
100
AcDbPoint
 10
27.0
 20
60.29868181158736
 30
0.0
  0
ENDBLK
  5
35C
330
351
100
AcDbEntity
  8
0
100
AcDbBlockEnd
  0
BLOCK
  5
367
330
35D
100
AcDbEntity
  8
0
100
AcDbBlockBegin
  2
*D2
 70
     1
 10
0.0
 20
0.0
 30
0.0
  3
*D2
  1

  0
LINE
  5
42B
330
35D
100
AcDbEntity
  8
SK2
 62
     0
100
AcDbLine
 10
-65.4
 20
11.82259999958979
 30
0.0
 11
-65.4
 21
80.00000000000001
 31
0.0
  0
LINE
  5
42C
330
35D
100
AcDbEntity
  8
SK2
 62
     0
100
AcDbLine
 10
0.0
 20
22.225
 30
0.0
 11
0.0000000000000035
 21
80.0
 31
0.0
  0
LINE
  5
42D
330
35D
100
AcDbEntity
  8
SK2
 62
     0
100
AcDbLine
 10
-60.83000000000001
 20
75.0
 30
0.0
 11
-4.569999999999996
 21
75.0
 31
0.0
  0
SOLID
  5
42E
330
35D
100
AcDbEntity
  8
SK2
 62
     0
100
AcDbTrace
 10
-60.83000000000001
 20
75.76166666666667
 30
0.0
 11
-60.83000000000001
 21
74.23833333333333
 31
0.0
 12
-65.4
 22
75.0
 32
0.0
 13
-65.4
 23
75.0
 33
0.0
  0
SOLID
  5
42F
330
35D
100
AcDbEntity
  8
SK2
 62
     0
100
AcDbTrace
 10
-4.569999999999996
 20
75.76166666666667
 30
0.0
 11
-4.569999999999996
 21
74.23833333333333
 31
0.0
 12
0.0000000000000032
 22
75.0
 32
0.0
 13
0.0000000000000032
 23
75.0
 33
0.0
  0
MTEXT
  5
430
330
35D
100
AcDbEntity
  8
SK2
 62
     0
100
AcDbMText
 10
-32.7
 20
79.58499999999999
 30
0.0
 40
4.57
 41
0.0
 71
     5
 72
     1
  1
\A1;65.4
  7
SIMPLEX
1001
ACAD
1000
MTEXTBEGIN
1070
    73
1070
     1
1070
    44
1040
1.0
1070
    74
1070
     0
1000
MTEXTEND
  0
POINT
  5
431
330
35D
100
AcDbEntity
  8
DEFPOINTS
 62
     0
100
AcDbPoint
 10
-65.4
 20
11.82259999958979
 30
0.0
  0
POINT
  5
432
330
35D
100
AcDbEntity
  8
DEFPOINTS
 62
     0
100
AcDbPoint
 10
0.0
 20
22.225
 30
0.0
  0
POINT
  5
433
330
35D
100
AcDbEntity
  8
DEFPOINTS
 62
     0
100
AcDbPoint
 10
0.0000000000000032
 20
75.0
 30
0.0
  0
ENDBLK
  5
368
330
35D
100
AcDbEntity
  8
0
100
AcDbBlockEnd
  0
BLOCK
  5
373
330
369
100
AcDbEntity
  8
0
100
AcDbBlockBegin
  2
*D3
 70
     1
 10
0.0
 20
0.0
 30
0.0
  3
*D3
  1

  0
LINE
  5
434
330
369
100
AcDbEntity
  8
SK2
 62
     0
100
AcDbLine
 10
0.0
 20
22.225
 30
0.0
 11
-9.999999999999989
 21
22.225
 31
0.0
  0
LINE
  5
435
330
369
100
AcDbEntity
  8
SK2
 62
     0
100
AcDbLine
 10
0.0
 20
-22.225
 30
0.0
 11
-10.0
 21
-22.22499999999999
 31
0.0
  0
LINE
  5
436
330
369
100
AcDbEntity
  8
SK2
 62
     0
100
AcDbLine
 10
-4.999999999999991
 20
17.655
 30
0.0
 11
-4.999999999999998
 21
-17.655
 31
0.0
  0
SOLID
  5
437
330
369
100
AcDbEntity
  8
SK2
 62
     0
100
AcDbTrace
 10
-5.761666666666657
 20
17.655
 30
0.0
 11
-4.238333333333324
 21
17.655
 31
0.0
 12
-4.999999999999989
 22
22.225
 32
0.0
 13
-4.999999999999989
 23
22.225
 33
0.0
  0
SOLID
  5
438
330
369
100
AcDbEntity
  8
SK2
 62
     0
100
AcDbTrace
 10
-5.761666666666664
 20
-17.655
 30
0.0
 11
-4.238333333333331
 21
-17.655
 31
0.0
 12
-5.0
 22
-22.225
 32
0.0
 13
-5.0
 23
-22.225
 33
0.0
  0
MTEXT
  5
439
330
369
100
AcDbEntity
  8
SK2
 62
     0
100
AcDbMText
 10
-9.584999999999995
 20
0.0000000000000009
 30
0.0
 40
4.57
 41
0.0
 71
     5
 72
     1
  1
\A1;%%C44.45
  7
SIMPLEX
 11
0.0000000000000001
 21
1.0
 31
0.0
1001
ACAD
1000
MTEXTBEGIN
1070
    73
1070
     1
1070
    44
1040
1.0
1070
    74
1070
     0
1000
MTEXTEND
  0
POINT
  5
43A
330
369
100
AcDbEntity
  8
DEFPOINTS
 62
     0
100
AcDbPoint
 10
0.0
 20
22.225
 30
0.0
  0
POINT
  5
43B
330
369
100
AcDbEntity
  8
DEFPOINTS
 62
     0
100
AcDbPoint
 10
0.0
 20
-22.225
 30
0.0
  0
POINT
  5
43C
330
369
100
AcDbEntity
  8
DEFPOINTS
 62
     0
100
AcDbPoint
 10
-5.0
 20
-22.225
 30
0.0
  0
ENDBLK
  5
374
330
369
100
AcDbEntity
  8
0
100
AcDbBlockEnd
  0
BLOCK
  5
37F
330
375
100
AcDbEntity
  8
0
100
AcDbBlockBegin
  2
*D4
 70
     1
 10
0.0
 20
0.0
 30
0.0
  3
*D4
  1

  0
LINE
  5
43D
330
375
100
AcDbEntity
  8
SK2
 62
     0
100
AcDbLine
 10
2.599999999999994
 20
-31.48846999999999
 30
0.0
 11
-100.0
 21
-31.48846999999997
 31
0.0
  0
LINE
  5
43E
330
375
100
AcDbEntity
  8
SK2
 62
     0
100
AcDbLine
 10
2.599999999999994
 20
31.48852999999999
 30
0.0
 11
-100.0
 21
31.48853000000002
 31
0.0
  0
LINE
  5
43F
330
375
100
AcDbEntity
  8
SK2
 62
     0
100
AcDbLine
 10
-95.0
 20
-26.91846999999997
 30
0.0
 11
-95.0
 21
26.91853000000002
 31
0.0
  0
SOLID
  5
440
330
375
100
AcDbEntity
  8
SK2
 62
     0
100
AcDbTrace
 10
-95.76166666666667
 20
-26.91846999999997
 30
0.0
 11
-94.23833333333332
 21
-26.91846999999997
 31
0.0
 12
-95.0
 22
-31.48846999999997
 32
0.0
 13
-95.0
 23
-31.48846999999997
 33
0.0
  0
SOLID
  5
441
330
375
100
AcDbEntity
  8
SK2
 62
     0
100
AcDbTrace
 10
-95.76166666666667
 20
26.91853000000002
 30
0.0
 11
-94.23833333333332
 21
26.91853000000002
 31
0.0
 12
-95.0
 22
31.48853000000002
 32
0.0
 13
-95.0
 23
31.48853000000002
 33
0.0
  0
MTEXT
  5
442
330
375
100
AcDbEntity
  8
SK2
 62
     0
100
AcDbMText
 10
-99.585
 20
0.0000300000000123
 30
0.0
 40
4.57
 41
0.0
 71
     5
 72
     1
  1
\A1;%%C62.98
  7
SIMPLEX
 11
0.0000000000000001
 21
1.0
 31
0.0
1001
ACAD
1000
MTEXTBEGIN
1070
    73
1070
     1
1070
    44
1040
1.0
1070
    74
1070
     0
1000
MTEXTEND
  0
POINT
  5
443
330
375
100
AcDbEntity
  8
DEFPOINTS
 62
     0
100
AcDbPoint
 10
2.599999999999994
 20
-31.48846999999999
 30
0.0
  0
POINT
  5
444
330
375
100
AcDbEntity
  8
DEFPOINTS
 62
     0
100
AcDbPoint
 10
2.599999999999994
 20
31.48852999999999
 30
0.0
  0
POINT
  5
445
330
375
100
AcDbEntity
  8
DEFPOINTS
 62
     0
100
AcDbPoint
 10
-95.0
 20
31.48853000000002
 30
0.0
  0
ENDBLK
  5
380
330
375
100
AcDbEntity
  8
0
100
AcDbBlockEnd
  0
BLOCK
  5
38C
330
381
100
AcDbEntity
  8
0
100
AcDbBlockBegin
  2
*D5
 70
     1
 10
0.0
 20
0.0
 30
0.0
  3
*D5
  1

  0
LINE
  5
446
330
381
100
AcDbEntity
  8
SK2
 62
     0
100
AcDbLine
 10
-55.85746999999999
 20
8.0
 30
0.0
 11
-85.0
 21
8.000000000000008
 31
0.0
  0
LINE
  5
447
330
381
100
AcDbEntity
  8
SK2
 62
     0
100
AcDbLine
 10
-55.85746999999999
 20
-8.0
 30
0.0
 11
-85.0
 21
-7.999999999999992
 31
0.0
  0
LINE
  5
448
330
381
100
AcDbEntity
  8
SK2
 62
     0
100
AcDbLine
 10
-80.0
 20
3.430000000000006
 30
0.0
 11
-80.0
 21
-3.429999999999992
 31
0.0
  0
LINE
  5
449
330
381
100
AcDbEntity
  8
SK2
 62
     0
100
AcDbLine
 10
-80.0
 20
-7.999999999999992
 30
0.0
 11
-80.0
 21
-28.70380952380951
 31
0.0
  0
SOLID
  5
44A
330
381
100
AcDbEntity
  8
SK2
 62
     0
100
AcDbTrace
 10
-80.76166666666667
 20
3.430000000000006
 30
0.0
 11
-79.23833333333333
 21
3.430000000000006
 31
0.0
 12
-80.0
 22
8.000000000000007
 32
0.0
 13
-80.0
 23
8.000000000000007
 33
0.0
  0
SOLID
  5
44B
330
381
100
AcDbEntity
  8
SK2
 62
     0
100
AcDbTrace
 10
-80.76166666666667
 20
-3.429999999999992
 30
0.0
 11
-79.23833333333333
 21
-3.429999999999992
 31
0.0
 12
-80.0
 22
-7.999999999999992
 32
0.0
 13
-80.0
 23
-7.999999999999992
 33
0.0
  0
MTEXT
  5
44C
330
381
100
AcDbEntity
  8
SK2
 62
     0
100
AcDbMText
 10
-84.58499999999999
 20
-20.63690476190477
 30
0.0
 40
4.57
 41
0.0
 71
     5
 72
     1
  1
\A1;M16
  7
SIMPLEX
 11
0.0000000000000001
 21
1.0
 31
0.0
1001
ACAD
1000
MTEXTBEGIN
1070
    73
1070
     1
1070
    44
1040
1.0
1070
    74
1070
     0
1000
MTEXTEND
  0
POINT
  5
44D
330
381
100
AcDbEntity
  8
DEFPOINTS
 62
     0
100
AcDbPoint
 10
-55.85746999999999
 20
8.0
 30
0.0
  0
POINT
  5
44E
330
381
100
AcDbEntity
  8
DEFPOINTS
 62
     0
100
AcDbPoint
 10
-55.85746999999999
 20
-8.0
 30
0.0
  0
POINT
  5
44F
330
381
100
AcDbEntity
  8
DEFPOINTS
 62
     0
100
AcDbPoint
 10
-80.0
 20
-7.999999999999992
 30
0.0
  0
ENDBLK
  5
38D
330
381
100
AcDbEntity
  8
0
100
AcDbBlockEnd
  0
ENDSEC
  0
SECTION
  2
ENTITIES
  0
LINE
  5
38F
330
18
100
AcDbEntity
  8
1
100
AcDbLine
 10
68.49499999999996
 20
-7.673000000000001
 30
0.0
 11
68.49499999999996
 21
-6.304999999999999
 31
0.0
  0
POINT
  5
390
330
18
100
AcDbEntity
  8
1__1
 62
     7
100
AcDbPoint
 10
-0.0000000000000142
 20
0.0
 30
0.0
  0
LINE
  5
391
330
18
100
AcDbEntity
  8
1
100
AcDbLine
 10
68.49499999999996
 20
7.673000000000001
 30
0.0
 11
68.49499999999996
 21
6.304999999999999
 31
0.0
  0
ARC
  5
392
330
18
100
AcDbEntity
  8
1
100
AcDbCircle
 10
59.84999999999997
 20
10.149
 30
0.0
 40
8.993
100
AcDbArc
 50
344.0178829999999
 51
25.2001
  0
LINE
  5
393
330
18
100
AcDbEntity
  8
1
100
AcDbLine
 10
60.99499999999997
 20
7.673000000000001
 30
0.0
 11
68.49499999999996
 21
7.673000000000001
 31
0.0
  0
LINE
  5
394
330
18
100
AcDbEntity
  8
1
100
AcDbLine
 10
60.99499999999997
 20
13.978
 30
0.0
 11
67.98699999999998
 21
13.978
 31
0.0
  0
LINE
  5
395
330
18
100
AcDbEntity
  8
1
100
AcDbLine
 10
60.99499999999997
 20
7.673000000000001
 30
0.0
 11
60.99499999999997
 21
13.978
 31
0.0
  0
ARC
  5
396
330
18
100
AcDbEntity
  8
1
100
AcDbCircle
 10
53.99499999999997
 20
-13.0
 30
0.0
 40
1.0
100
AcDbArc
 50
179.999985
 51
269.999969
  0
ARC
  5
397
330
18
100
AcDbEntity
  8
1
100
AcDbCircle
 10
11.05499999999998
 20
0.0
 30
0.0
 40
57.785
100
AcDbArc
 50
353.7359309999999
 51
6.264094999999999
  0
ARC
  5
398
330
18
100
AcDbEntity
  8
1
100
AcDbCircle
 10
73.49599999999997
 20
0.0
 30
0.0
 40
14.001
100
AcDbArc
 50
153.235474
 51
206.7645569999999
  0
ARC
  5
399
330
18
100
AcDbEntity
  8
1
100
AcDbCircle
 10
53.99499999999997
 20
13.0
 30
0.0
 40
1.0
100
AcDbArc
 50
90.0
 51
180.0
  0
ARC
  5
39A
330
18
100
AcDbEntity
  8
1
100
AcDbCircle
 10
30.0
 20
17.0
 30
0.0
 40
3.0
100
AcDbArc
 50
180.0
 51
270.0
  0
LINE
  5
39B
330
18
100
AcDbEntity
  8
1
100
AcDbLine
 10
30.0
 20
14.0
 30
0.0
 11
41.98599999999998
 21
14.0
 31
0.0
  0
ARC
  5
39C
330
18
100
AcDbEntity
  8
1
100
AcDbCircle
 10
41.98599999999998
 20
13.0
 30
0.0
 40
1.0
100
AcDbArc
 50
44.999996
 51
90.0
  0
LINE
  5
39D
330
18
100
AcDbEntity
  8
1
100
AcDbLine
 10
42.69299999999998
 20
13.70699999999999
 30
0.0
 11
45.10699999999999
 21
11.29299999999999
 31
0.0
  0
ARC
  5
39E
330
18
100
AcDbEntity
  8
1
100
AcDbCircle
 10
45.81399999999999
 20
12.0
 30
0.0
 40
1.0
100
AcDbArc
 50
224.991348
 51
269.987762
  0
ARC
  5
39F
330
18
100
AcDbEntity
  8
1
100
AcDbCircle
 10
45.81399999999999
 20
-12.0
 30
0.0
 40
1.0
100
AcDbArc
 50
90.0
 51
135.0
  0
LINE
  5
3A0
330
18
100
AcDbEntity
  8
1
100
AcDbLine
 10
45.10699999999999
 20
-11.29299999999999
 30
0.0
 11
42.69299999999998
 21
-13.707
 31
0.0
  0
ARC
  5
3A1
330
18
100
AcDbEntity
  8
1
100
AcDbCircle
 10
41.98599999999998
 20
-13.0
 30
0.0
 40
1.0
100
AcDbArc
 50
270.0122379999999
 51
315.008667
  0
LINE
  5
3A2
330
18
100
AcDbEntity
  8
1
100
AcDbLine
 10
41.98599999999998
 20
-14.0
 30
0.0
 11
30.0
 21
-14.0
 31
0.0
  0
ARC
  5
3A3
330
18
100
AcDbEntity
  8
1
100
AcDbCircle
 10
30.0
 20
-17.0
 30
0.0
 40
3.0
100
AcDbArc
 50
90.0
 51
180.0
  0
LINE
  5
3A4
330
18
100
AcDbEntity
  8
1
100
AcDbLine
 10
45.39999999999998
 20
10.39999999999999
 30
0.0
 11
45.39999999999998
 21
-10.24799999999999
 31
0.0
  0
LINE
  5
3A5
330
18
100
AcDbEntity
  8
1
100
AcDbLine
 10
47.39999999999997
 20
11.0
 30
0.0
 11
47.39999999999997
 21
-11.0
 31
0.0
  0
LINE
  5
3A6
330
18
100
AcDbEntity
  8
1
100
AcDbLine
 10
42.39999999999997
 20
-13.176
 30
0.0
 11
42.39999999999997
 21
13.22199999999999
 31
0.0
  0
LINE
  5
3A7
330
18
100
AcDbEntity
  8
1
100
AcDbLine
 10
60.99499999999997
 20
-7.673000000000001
 30
0.0
 11
60.99499999999997
 21
-13.97799999999999
 31
0.0
  0
LINE
  5
3A8
330
18
100
AcDbEntity
  8
1
100
AcDbLine
 10
60.99499999999997
 20
-7.673000000000001
 30
0.0
 11
68.49499999999996
 21
-7.673000000000001
 31
0.0
  0
LINE
  5
3A9
330
18
100
AcDbEntity
  8
4
100
AcDbLine
 10
-65.4
 20
0.0
 30
0.0
 11
69.99499999999996
 21
0.0
 31
0.0
  0
LINE
  5
3AA
330
18
100
AcDbEntity
  8
1
100
AcDbLine
 10
47.39999999999997
 20
10.0
 30
0.0
 11
53.00499999999996
 21
10.0
 31
0.0
  0
LINE
  5
3AB
330
18
100
AcDbEntity
  8
1
100
AcDbLine
 10
47.39999999999997
 20
-10.0
 30
0.0
 11
53.00499999999996
 21
-10.0
 31
0.0
  0
LINE
  5
3AC
330
18
100
AcDbEntity
  8
1
100
AcDbLine
 10
53.00499999999996
 20
-11.0
 30
0.0
 11
45.81399999999999
 21
-11.0
 31
0.0
  0
LINE
  5
3AD
330
18
100
AcDbEntity
  8
1
100
AcDbLine
 10
45.81399999999999
 20
11.0
 30
0.0
 11
53.00499999999996
 21
11.0
 31
0.0
  0
LINE
  5
3AE
330
18
100
AcDbEntity
  8
1
100
AcDbLine
 10
52.99499999999997
 20
13.0
 30
0.0
 11
52.99499999999997
 21
-13.0
 31
0.0
  0
LINE
  5
3AF
330
18
100
AcDbEntity
  8
1
100
AcDbLine
 10
53.99499999999997
 20
-14.0
 30
0.0
 11
67.97399999999997
 21
-14.0
 31
0.0
  0
LINE
  5
3B0
330
18
100
AcDbEntity
  8
1
100
AcDbLine
 10
67.97399999999997
 20
-14.0
 30
0.0
 11
69.99499999999996
 21
-10.5
 31
0.0
  0
LINE
  5
3B1
330
18
100
AcDbEntity
  8
1
100
AcDbLine
 10
69.99499999999996
 20
-10.5
 30
0.0
 11
69.99499999999996
 21
10.5
 31
0.0
  0
LINE
  5
3B2
330
18
100
AcDbEntity
  8
1
100
AcDbLine
 10
69.99499999999996
 20
10.5
 30
0.0
 11
67.97399999999997
 21
14.0
 31
0.0
  0
LINE
  5
3B3
330
18
100
AcDbEntity
  8
1
100
AcDbLine
 10
67.97399999999997
 20
14.0
 30
0.0
 11
53.99499999999997
 21
14.0
 31
0.0
  0
LINE
  5
3B4
330
18
100
AcDbEntity
  8
1
100
AcDbLine
 10
68.49499999999996
 20
6.304999999999999
 30
0.0
 11
60.99499999999997
 21
6.304999999999999
 31
0.0
  0
LINE
  5
3B5
330
18
100
AcDbEntity
  8
1
100
AcDbLine
 10
60.99499999999997
 20
6.304999999999999
 30
0.0
 11
60.99499999999997
 21
-6.304999999999999
 31
0.0
  0
LINE
  5
3B6
330
18
100
AcDbEntity
  8
1
100
AcDbLine
 10
60.99499999999997
 20
-6.304999999999999
 30
0.0
 11
68.49499999999996
 21
-6.304999999999999
 31
0.0
  0
LINE
  5
3B7
330
18
100
AcDbEntity
  8
1
100
AcDbLine
 10
60.99499999999997
 20
-13.97799999999999
 30
0.0
 11
67.98699999999998
 21
-13.97799999999999
 31
0.0
  0
ARC
  5
3B8
330
18
100
AcDbEntity
  8
1
100
AcDbCircle
 10
59.84999999999997
 20
-10.149
 30
0.0
 40
8.993
100
AcDbArc
 50
334.7998999999999
 51
15.982117
  0
LINE
  5
3B9
330
18
100
AcDbEntity
  8
SK4
100
AcDbLine
 10
-72.68100000000001
 20
0.0
 30
0.0
 11
71.80099999999999
 21
0.0
 31
0.0
  0
LINE
  5
3BB
330
18
100
AcDbEntity
  8
SK2
100
AcDbLine
 10
67.97399999999997
 20
14.0
 30
0.0
 11
90.0
 21
13.99999999999999
 31
0.0
  0
LINE
  5
3BC
330
18
100
AcDbEntity
  8
SK2
100
AcDbLine
 10
67.97399999999997
 20
-14.0
 30
0.0
 11
90.0
 21
-14.0
 31
0.0
  0
LINE
  5
3BD
330
18
100
AcDbEntity
  8
SK2
100
AcDbLine
 10
85.0
 20
9.429999999999992
 30
0.0
 11
85.0
 21
-9.430000000000006
 31
0.0
  0
SOLID
  5
3BE
330
18
100
AcDbEntity
  8
SK2
100
AcDbTrace
 10
84.23833333333332
 20
9.429999999999992
 30
0.0
 11
85.76166666666667
 21
9.429999999999992
 31
0.0
 12
85.0
 22
13.99999999999999
 32
0.0
 13
85.0
 23
13.99999999999999
 33
0.0
  0
SOLID
  5
3BF
330
18
100
AcDbEntity
  8
SK2
100
AcDbTrace
 10
84.23833333333332
 20
-9.430000000000006
 30
0.0
 11
85.76166666666667
 21
-9.430000000000006
 31
0.0
 12
85.0
 22
-14.0
 32
0.0
 13
85.0
 23
-14.0
 33
0.0
  0
LINE
  5
3C1
330
18
100
AcDbEntity
  8
SK3
100
AcDbLine
 10
39.97403706526007
 20
-5.806462517939422
 30
0.0
 11
39.97403706526009
 21
5.7935374820606
 31
0.0
  0
LINE
  5
3C2
330
18
100
AcDbEntity
  8
SK3
100
AcDbLine
 10
34.47403706526009
 20
5.7935374820606
 30
0.0
 11
34.47403706526009
 21
-5.806462517939422
 31
0.0
  0
ARC
  5
3C3
330
18
100
AcDbEntity
  8
SK3
100
AcDbCircle
 10
39.27403706526007
 20
-5.806462517939422
 30
0.0
 40
0.7
100
AcDbArc
 50
270.0
 51
0.0
  0
ARC
  5
3C4
330
18
100
AcDbEntity
  8
SK3
100
AcDbCircle
 10
35.17403706526009
 20
-5.806462517939422
 30
0.0
 40
0.7
100
AcDbArc
 50
180.0
 51
270.0
  0
ARC
  5
3C5
330
18
100
AcDbEntity
  8
SK3
100
AcDbCircle
 10
35.17403706526009
 20
5.7935374820606
 30
0.0
 40
0.7
100
AcDbArc
 50
90.0
 51
180.0
  0
ARC
  5
3C6
330
18
100
AcDbEntity
  8
SK3
100
AcDbCircle
 10
39.27403706526009
 20
5.7935374820606
 30
0.0
 40
0.7
100
AcDbArc
 50
0.0
 51
90.0
  0
LINE
  5
3C7
330
18
100
AcDbEntity
  8
SK3
100
AcDbLine
 10
35.17403706526009
 20
-6.506462517939411
 30
0.0
 11
39.27403706526007
 21
-6.506462517939411
 31
0.0
  0
LINE
  5
3C8
330
18
100
AcDbEntity
  8
SK3
100
AcDbLine
 10
39.27403706526009
 20
6.493537482060588
 30
0.0
 11
35.17403706526009
 21
6.493537482060588
 31
0.0
  0
LINE
  5
3C9
330
18
100
AcDbEntity
  8
SK3
100
AcDbLine
 10
60.97403706526009
 20
-7.581462517939399
 30
0.0
 11
39.97403706526009
 21
-4.506462517939411
 31
0.0
  0
LINE
  5
3CA
330
18
100
AcDbEntity
  8
SK3
100
AcDbLine
 10
60.97403706526009
 20
7.568537482060577
 30
0.0
 11
39.97403706526009
 21
4.493537482060588
 31
0.0
  0
LINE
  5
3CB
330
18
100
AcDbEntity
  8
SK3
100
AcDbLine
 10
60.97403706526009
 20
13.99353748206058
 30
0.0
 11
60.97403706526008
 21
-14.00646251793941
 31
0.0
  0
LINE
  5
3CC
330
18
100
AcDbEntity
  8
SK3
100
AcDbLine
 10
34.47403706526009
 20
4.493537482060588
 30
0.0
 11
-20.95291176857138
 21
4.493537482060587
 31
0.0
  0
LINE
  5
3CD
330
18
100
AcDbEntity
  8
SK3
100
AcDbLine
 10
34.47403706526009
 20
-4.506462517939411
 30
0.0
 11
-20.96037394571433
 21
-4.506462517939409
 31
0.0
  0
LINE
  5
3D0
330
18
100
AcDbEntity
  8
SK4
100
AcDbLine
 10
-2.0
 20
0.0
 30
0.0
 11
27.0
 21
0.0
 31
0.0
  0
TEXT
  5
3D4
330
18
100
AcDbEntity
  8
6
100
AcDbText
 10
-46.0
 20
10.0
 30
0.0
 40
3.0
  1
SK40 MAS-BT
  7
SIMPLEX
100
AcDbText
  0
ARC
  5
3D5
330
18
100
AcDbEntity
  8
1
  6
CONTINUOUS
 62
     4
100
AcDbCircle
 10
15.0
 20
-0.0500000000000008
 30
0.0
 40
8.0
100
AcDbArc
 50
270.0
 51
0.0000000000000057
  0
LINE
  5
3D6
330
18
100
AcDbEntity
  8
1
  6
CONTINUOUS
 62
     4
100
AcDbLine
 10
14.09999999999999
 20
-27.1582
 30
0.0
 11
11.59993
 21
-31.48846999999999
 31
0.0
  0
LINE
  5
3D7
330
18
100
AcDbEntity
  8
1
  6
CONTINUOUS
 62
     4
100
AcDbLine
 10
19.09999999999999
 20
-27.1582
 30
0.0
 11
21.60007
 21
-31.48846999999999
 31
0.0
  0
LINE
  5
3D8
330
18
100
AcDbEntity
  8
1
  6
CONTINUOUS
 62
     4
100
AcDbLine
 10
23.0
 20
0.0
 30
0.0
 11
23.0
 21
-0.0499999999999972
 31
0.0
  0
LINE
  5
3D9
330
18
100
AcDbEntity
  8
1
  6
CONTINUOUS
 62
     4
100
AcDbLine
 10
21.60007
 20
-31.48846999999999
 30
0.0
 11
26.4
 21
-31.48846999999999
 31
0.0
  0
LINE
  5
3DA
330
18
100
AcDbEntity
  8
1
  6
CONTINUOUS
 62
     4
100
AcDbLine
 10
14.09999999999999
 20
-26.5
 30
0.0
 11
19.09999999999999
 21
-26.5
 31
0.0
  0
LINE
  5
3DB
330
18
100
AcDbEntity
  8
1
  6
CONTINUOUS
 62
     4
100
AcDbLine
 10
2.0
 20
-8.05
 30
0.0
 11
15.0
 21
-8.05
 31
0.0
  0
LINE
  5
3DC
330
18
100
AcDbEntity
  8
1
  6
CONTINUOUS
 62
     4
100
AcDbLine
 10
27.0
 20
0.0
 30
0.0
 11
27.0
 21
-30.88853
 31
0.0
  0
LINE
  5
3DD
330
18
100
AcDbEntity
  8
1
  6
CONTINUOUS
 62
     4
100
AcDbLine
 10
-64.54433
 20
-12.81213
 30
0.0
 11
0.0
 21
-22.225
 31
0.0
  0
LINE
  5
3DE
330
18
100
AcDbEntity
  8
1
  6
CONTINUOUS
 62
     4
100
AcDbLine
 10
0.3799999999999954
 20
-21.94999999999999
 30
0.0
 11
1.599999999999994
 21
-21.94999999999999
 31
0.0
  0
ARC
  5
3DF
330
18
100
AcDbEntity
  8
1
  6
CONTINUOUS
 62
     4
100
AcDbCircle
 10
-64.39999980755004
 20
-11.8226002225565
 30
0.0
 40
1.000000192449984
100
AcDbArc
 50
179.9999872484539
 51
261.7015075593027
  0
LINE
  5
3E0
330
18
100
AcDbEntity
  8
1
  6
CONTINUOUS
 62
     4
100
AcDbLine
 10
0.0
 20
0.0
 30
0.0
 11
0.0
 21
-22.225
 31
0.0
  0
LINE
  5
3E1
330
18
100
AcDbEntity
  8
1
  6
CONTINUOUS
 62
     4
100
AcDbLine
 10
-65.4
 20
0.0
 30
0.0
 11
-65.4
 21
-11.8226
 31
0.0
  0
LINE
  5
3E2
330
18
100
AcDbEntity
  8
SK3
100
AcDbLine
 10
-20.95291176857138
 20
4.493537482060593
 30
0.0
 11
-22.39999999999999
 21
7.0
 31
0.0
  0
ARC
  5
3E3
330
18
100
AcDbEntity
  8
1
  6
CONTINUOUS
 62
     4
100
AcDbCircle
 10
15.0
 20
0.0500000000000004
 30
0.0
 40
8.0
100
AcDbArc
 50
0.0000000235031032
 51
90.0000000235031
  0
LINE
  5
3E4
330
18
100
AcDbEntity
  8
1
  6
CONTINUOUS
 62
     4
100
AcDbLine
 10
-64.54433
 20
12.81212999999999
 30
0.0
 11
0.0
 21
22.225
 31
0.0
  0
LINE
  5
3E5
330
18
100
AcDbEntity
  8
SK3
100
AcDbLine
 10
-55.28006999999999
 20
7.0
 30
0.0
 11
-22.39999999999999
 21
7.0
 31
0.0
  0
LINE
  5
3E6
330
18
100
AcDbEntity
  8
SK3
100
AcDbLine
 10
-63.67952999999999
 20
8.506799999999998
 30
0.0
 11
-65.4
 21
9.5
 31
0.0
  0
LINE
  5
3E7
330
18
100
AcDbEntity
  8
SK3
100
AcDbLine
 10
-22.39999999999999
 20
0.0
 30
0.0
 11
-22.39999999999999
 21
7.0
 31
0.0
  0
LINE
  5
3E8
330
18
100
AcDbEntity
  8
SK3
100
AcDbLine
 10
-35.4
 20
0.0
 30
0.0
 11
-35.4
 21
8.0
 31
0.0
  0
LINE
  5
3E9
330
18
100
AcDbEntity
  8
SK3
100
AcDbLine
 10
-56.15000000000001
 20
0.0
 30
0.0
 11
-56.15000000000001
 21
8.506799999999998
 31
0.0
  0
LINE
  5
3EA
330
18
100
AcDbEntity
  8
SK3
100
AcDbLine
 10
-55.28006999999999
 20
7.0
 30
0.0
 11
-56.15000000000001
 21
8.506730000000004
 31
0.0
  0
LINE
  5
3EB
330
18
100
AcDbEntity
  8
1
  6
CONTINUOUS
 62
     4
100
AcDbLine
 10
11.59993
 20
31.48852999999999
 30
0.0
 11
11.59993
 21
8.049999999999997
 31
0.0
  0
LINE
  5
3EC
330
18
100
AcDbEntity
  8
1
  6
CONTINUOUS
 62
     4
100
AcDbLine
 10
14.09999999999999
 20
27.15827
 30
0.0
 11
11.59993
 21
31.48852999999999
 31
0.0
  0
LINE
  5
3ED
330
18
100
AcDbEntity
  8
1
  6
CONTINUOUS
 62
     4
100
AcDbLine
 10
19.09999999999999
 20
27.15827
 30
0.0
 11
21.60007
 21
31.48852999999999
 31
0.0
  0
LINE
  5
3EE
330
18
100
AcDbEntity
  8
1
  6
CONTINUOUS
 62
     4
100
AcDbLine
 10
23.0
 20
0.0
 30
0.0
 11
23.0
 21
0.0499999999999972
 31
0.0
  0
LINE
  5
3EF
330
18
100
AcDbEntity
  8
1
  6
CONTINUOUS
 62
     4
100
AcDbLine
 10
21.60007
 20
31.48852999999999
 30
0.0
 11
26.4
 21
31.48852999999999
 31
0.0
  0
LINE
  5
3F0
330
18
100
AcDbEntity
  8
1
  6
CONTINUOUS
 62
     4
100
AcDbLine
 10
2.599999999999994
 20
31.48852999999999
 30
0.0
 11
11.59993
 21
31.48852999999999
 31
0.0
  0
LINE
  5
3F1
330
18
100
AcDbEntity
  8
1
  6
CONTINUOUS
 62
     4
100
AcDbLine
 10
2.0
 20
8.049999999999997
 30
0.0
 11
15.0
 21
8.049999999999997
 31
0.0
  0
LINE
  5
3F2
330
18
100
AcDbEntity
  8
1
  6
CONTINUOUS
 62
     4
100
AcDbLine
 10
27.0
 20
0.0
 30
0.0
 11
27.0
 21
30.88853
 31
0.0
  0
ARC
  5
3F3
330
18
100
AcDbEntity
  8
1
  6
CONTINUOUS
 62
     4
100
AcDbCircle
 10
-64.39999980755004
 20
11.8226002225565
 30
0.0
 40
1.000000192449984
100
AcDbArc
 50
98.29849246420039
 51
180.0000127750492
  0
LINE
  5
3F4
330
18
100
AcDbEntity
  8
1
  6
CONTINUOUS
 62
     4
100
AcDbLine
 10
2.0
 20
0.0
 30
0.0
 11
2.0
 21
30.88853
 31
0.0
  0
LINE
  5
3F5
330
18
100
AcDbEntity
  8
1
  6
CONTINUOUS
 62
     4
100
AcDbLine
 10
0.0
 20
0.0
 30
0.0
 11
0.0
 21
22.225
 31
0.0
  0
LINE
  5
3F6
330
18
100
AcDbEntity
  8
1
  6
CONTINUOUS
 62
     4
100
AcDbLine
 10
14.09999999999999
 20
-8.05
 30
0.0
 11
14.09999999999999
 21
-27.1582
 31
0.0
  0
LINE
  5
3F7
330
18
100
AcDbEntity
  8
1
  6
CONTINUOUS
 62
     4
100
AcDbLine
 10
19.09999999999999
 20
-6.919469999999996
 30
0.0
 11
19.09999999999999
 21
-27.1582
 31
0.0
  0
LINE
  5
3F8
330
18
100
AcDbEntity
  8
1
  6
CONTINUOUS
 62
     4
100
AcDbLine
 10
14.09999999999999
 20
8.049999999999997
 30
0.0
 11
14.09999999999999
 21
27.15827
 31
0.0
  0
LINE
  5
3F9
330
18
100
AcDbEntity
  8
1
  6
CONTINUOUS
 62
     4
100
AcDbLine
 10
19.09999999999999
 20
6.919469999999996
 30
0.0
 11
19.09999999999999
 21
27.15827
 31
0.0
  0
LINE
  5
3FA
330
18
100
AcDbEntity
  8
1
  6
CONTINUOUS
 62
     4
100
AcDbLine
 10
-65.4
 20
0.0
 30
0.0
 11
-65.4
 21
11.8226
 31
0.0
  0
LINE
  5
3FB
330
18
100
AcDbEntity
  8
1
  6
CONTINUOUS
 62
     4
100
AcDbLine
 10
2.599999999999994
 20
-31.48846999999999
 30
0.0
 11
11.59993
 21
-31.48846999999999
 31
0.0
  0
LINE
  5
3FC
330
18
100
AcDbEntity
  8
1
  6
CONTINUOUS
 62
     4
100
AcDbLine
 10
14.09999999999999
 20
26.5
 30
0.0
 11
19.09999999999999
 21
26.5
 31
0.0
  0
LINE
  5
3FD
330
18
100
AcDbEntity
  8
1
  6
CONTINUOUS
 62
     4
100
AcDbLine
 10
21.60007
 20
31.48852999999999
 30
0.0
 11
21.60007
 21
4.570930000000004
 31
0.0
  0
LINE
  5
3FE
330
18
100
AcDbEntity
  8
1
  6
CONTINUOUS
 62
     4
100
AcDbLine
 10
0.3799999999999954
 20
21.95
 30
0.0
 11
1.599999999999994
 21
21.95
 31
0.0
  0
LINE
  5
3FF
330
18
100
AcDbEntity
  8
1
  6
CONTINUOUS
 62
     4
100
AcDbLine
 10
2.0
 20
0.0
 30
0.0
 11
2.0
 21
-30.88853
 31
0.0
  0
LINE
  5
400
330
18
100
AcDbEntity
  8
SK3
100
AcDbLine
 10
-63.67952999999999
 20
8.506799999999998
 30
0.0
 11
-56.15000000000001
 21
8.506799999999998
 31
0.0
  0
LINE
  5
401
330
18
100
AcDbEntity
  8
SK3
100
AcDbLine
 10
-63.67952999999999
 20
8.506799999999998
 30
0.0
 11
-63.67952999999999
 21
-8.506799999999998
 31
0.0
  0
LINE
  5
402
330
18
100
AcDbEntity
  8
SK3
100
AcDbLine
 10
-20.96037394571433
 20
-4.506462517939418
 30
0.0
 11
-22.39999999999999
 21
-7.0
 31
0.0
  0
LINE
  5
403
330
18
100
AcDbEntity
  8
SK3
100
AcDbLine
 10
-55.28006999999999
 20
-7.0
 30
0.0
 11
-22.39999999999999
 21
-7.0
 31
0.0
  0
LINE
  5
404
330
18
100
AcDbEntity
  8
SK3
100
AcDbLine
 10
-63.67967
 20
-8.506799999999998
 30
0.0
 11
-65.4
 21
-9.5
 31
0.0
  0
LINE
  5
405
330
18
100
AcDbEntity
  8
SK3
100
AcDbLine
 10
-63.67967
 20
-8.506799999999998
 30
0.0
 11
-56.15000000000001
 21
-8.506799999999998
 31
0.0
  0
LINE
  5
406
330
18
100
AcDbEntity
  8
SK3
100
AcDbLine
 10
-55.28006999999999
 20
7.0
 30
0.0
 11
-55.28006999999999
 21
-7.0
 31
0.0
  0
LINE
  5
407
330
18
100
AcDbEntity
  8
SK3
100
AcDbLine
 10
-22.39999999999999
 20
0.0
 30
0.0
 11
-22.39999999999999
 21
-7.0
 31
0.0
  0
LINE
  5
408
330
18
100
AcDbEntity
  8
SK3
100
AcDbLine
 10
-35.4
 20
0.0
 30
0.0
 11
-35.4
 21
-8.0
 31
0.0
  0
LINE
  5
409
330
18
100
AcDbEntity
  8
SK3
100
AcDbLine
 10
-56.15000000000001
 20
0.0
 30
0.0
 11
-56.15000000000001
 21
-8.506799999999998
 31
0.0
  0
ARC
  5
40A
330
18
100
AcDbEntity
  8
1
  6
CONTINUOUS
 62
     4
100
AcDbCircle
 10
2.599999999999994
 20
30.88852999999999
 30
0.0
 40
0.6000000000000015
100
AcDbArc
 50
90.0000000235031
 51
180.0000000235027
  0
ARC
  5
40B
330
18
100
AcDbEntity
  8
1
  6
CONTINUOUS
 62
     4
100
AcDbCircle
 10
26.4
 20
30.88853
 30
0.0
 40
0.5999999999999979
100
AcDbArc
 50
0.0000000235031287
 51
90.0000000235032
  0
LINE
  5
40C
330
18
100
AcDbEntity
  8
SK3
100
AcDbLine
 10
-55.28006999999999
 20
-7.0
 30
0.0
 11
-56.15000000000001
 21
-8.506730000000001
 31
0.0
  0
LINE
  5
40D
330
18
100
AcDbEntity
  8
1
  6
CONTINUOUS
 62
     4
100
AcDbLine
 10
11.59993
 20
-31.48846999999999
 30
0.0
 11
11.59993
 21
-8.05
 31
0.0
  0
LINE
  5
40E
330
18
100
AcDbEntity
  8
1
  6
CONTINUOUS
 62
     4
100
AcDbLine
 10
21.60007
 20
-31.48846999999999
 30
0.0
 11
21.60007
 21
-4.570930000000004
 31
0.0
  0
ARC
  5
40F
330
18
100
AcDbEntity
  8
1
  6
CONTINUOUS
 62
     4
100
AcDbCircle
 10
26.4
 20
-30.88853
 30
0.0
 40
0.599999999999999
100
AcDbArc
 50
270.000000023503
 51
0.0000000235031287
  0
ARC
  5
410
330
18
100
AcDbEntity
  8
1
  6
CONTINUOUS
 62
     4
100
AcDbCircle
 10
2.599999999999994
 20
-30.88852999999999
 30
0.0
 40
0.6000000000000015
100
AcDbArc
 50
180.0000000000003
 51
270.0
  0
ARC
  5
411
330
18
100
AcDbEntity
  8
1
  6
CONTINUOUS
 62
     4
100
AcDbCircle
 10
0.3799447920405896
 20
-22.34998201534535
 30
0.0
 40
0.3999872532314359
100
AcDbArc
 50
89.99295415898592
 51
161.7908437522229
  0
ARC
  5
412
330
18
100
AcDbEntity
  8
1
  6
CONTINUOUS
 62
     4
100
AcDbCircle
 10
1.599999999999994
 20
-22.35
 30
0.0
 40
0.3999999999999986
100
AcDbArc
 50
0.0
 51
90.0
  0
ARC
  5
413
330
18
100
AcDbEntity
  8
1
  6
CONTINUOUS
 62
     4
100
AcDbCircle
 10
0.3799447920405896
 20
22.34998201534535
 30
0.0
 40
0.3999872532314359
100
AcDbArc
 50
198.2091562712802
 51
270.0070458645171
  0
ARC
  5
414
330
18
100
AcDbEntity
  8
1
  6
CONTINUOUS
 62
     4
100
AcDbCircle
 10
1.599999999999994
 20
22.35
 30
0.0
 40
0.3999999999999986
100
AcDbArc
 50
270.0000000235031
 51
0.0000000235031287
  0
LINE
  5
415
330
18
100
AcDbEntity
  8
SK4
100
AcDbLine
 10
-68.08759999999999
 20
0.0
 30
0.0
 11
-15.0
 21
0.0
 31
0.0
  0
LINE
  5
416
330
18
100
AcDbEntity
  8
SK3
100
AcDbLine
 10
-55.85746999999999
 20
-8.0
 30
0.0
 11
-35.4
 21
-8.0
 31
0.0
  0
LINE
  5
417
330
18
100
AcDbEntity
  8
SK3
100
AcDbLine
 10
-55.85746999999999
 20
8.0
 30
0.0
 11
-35.4
 21
8.0
 31
0.0
  0
LINE
  5
418
330
18
100
AcDbEntity
  8
SK3
100
AcDbLine
 10
-20.95291176857138
 20
4.493537482060587
 30
0.0
 11
-20.96037394571433
 21
-4.506462517939409
 31
0.0
  0
LINE
  5
450
330
18
100
AcDbEntity
  8
SK2
100
AcDbLine
 10
2.599999999999994
 20
-31.48846999999999
 30
0.0
 11
-100.0
 21
-31.48846999999997
 31
0.0
  0
LINE
  5
451
330
18
100
AcDbEntity
  8
SK2
100
AcDbLine
 10
2.599999999999994
 20
31.48852999999999
 30
0.0
 11
-100.0
 21
31.48853000000002
 31
0.0
  0
LINE
  5
452
330
18
100
AcDbEntity
  8
SK2
100
AcDbLine
 10
-95.0
 20
-26.91846999999997
 30
0.0
 11
-95.0
 21
26.91853000000002
 31
0.0
  0
SOLID
  5
453
330
18
100
AcDbEntity
  8
SK2
100
AcDbTrace
 10
-95.76166666666667
 20
-26.91846999999997
 30
0.0
 11
-94.23833333333332
 21
-26.91846999999997
 31
0.0
 12
-95.0
 22
-31.48846999999997
 32
0.0
 13
-95.0
 23
-31.48846999999997
 33
0.0
  0
SOLID
  5
454
330
18
100
AcDbEntity
  8
SK2
100
AcDbTrace
 10
-95.76166666666667
 20
26.91853000000002
 30
0.0
 11
-94.23833333333332
 21
26.91853000000002
 31
0.0
 12
-95.0
 22
31.48853000000002
 32
0.0
 13
-95.0
 23
31.48853000000002
 33
0.0
  0
LINE
  5
457
330
18
100
AcDbEntity
  8
SK2
100
AcDbLine
 10
-55.85746999999999
 20
8.0
 30
0.0
 11
-85.0
 21
8.000000000000008
 31
0.0
  0
LINE
  5
458
330
18
100
AcDbEntity
  8
SK2
100
AcDbLine
 10
-55.85746999999999
 20
-8.0
 30
0.0
 11
-85.0
 21
-7.999999999999992
 31
0.0
  0
LINE
  5
459
330
18
100
AcDbEntity
  8
SK2
100
AcDbLine
 10
-80.0
 20
3.430000000000006
 30
0.0
 11
-80.0
 21
-3.429999999999992
 31
0.0
  0
LINE
  5
45A
330
18
100
AcDbEntity
  8
SK2
100
AcDbLine
 10
-80.0
 20
-7.999999999999992
 30
0.0
 11
-80.0
 21
-28.70380952380951
 31
0.0
  0
SOLID
  5
45B
330
18
100
AcDbEntity
  8
SK2
100
AcDbTrace
 10
-80.76166666666667
 20
3.430000000000006
 30
0.0
 11
-79.23833333333333
 21
3.430000000000006
 31
0.0
 12
-80.0
 22
8.000000000000007
 32
0.0
 13
-80.0
 23
8.000000000000007
 33
0.0
  0
SOLID
  5
45C
330
18
100
AcDbEntity
  8
SK2
100
AcDbTrace
 10
-80.76166666666667
 20
-3.429999999999992
 30
0.0
 11
-79.23833333333333
 21
-3.429999999999992
 31
0.0
 12
-80.0
 22
-7.999999999999992
 32
0.0
 13
-80.0
 23
-7.999999999999992
 33
0.0
  0
LINE
  5
45E
330
18
100
AcDbEntity
  8
SK2
100
AcDbLine
 10
0.0
 20
22.225
 30
0.0
 11
-9.999999999999989
 21
22.225
 31
0.0
  0
LINE
  5
45F
330
18
100
AcDbEntity
  8
SK2
100
AcDbLine
 10
0.0
 20
-22.225
 30
0.0
 11
-10.0
 21
-22.22499999999999
 31
0.0
  0
LINE
  5
460
330
18
100
AcDbEntity
  8
SK2
100
AcDbLine
 10
-4.999999999999991
 20
17.655
 30
0.0
 11
-4.999999999999998
 21
-17.655
 31
0.0
  0
SOLID
  5
461
330
18
100
AcDbEntity
  8
SK2
100
AcDbTrace
 10
-5.761666666666657
 20
17.655
 30
0.0
 11
-4.238333333333324
 21
17.655
 31
0.0
 12
-4.999999999999989
 22
22.225
 32
0.0
 13
-4.999999999999989
 23
22.225
 33
0.0
  0
SOLID
  5
462
330
18
100
AcDbEntity
  8
SK2
100
AcDbTrace
 10
-5.761666666666664
 20
-17.655
 30
0.0
 11
-4.238333333333331
 21
-17.655
 31
0.0
 12
-5.0
 22
-22.225
 32
0.0
 13
-5.0
 23
-22.225
 33
0.0
  0
LINE
  5
464
330
18
100
AcDbEntity
  8
SK2
100
AcDbLine
 10
-65.4
 20
11.82259999958979
 30
0.0
 11
-65.4
 21
80.00000000000001
 31
0.0
  0
LINE
  5
465
330
18
100
AcDbEntity
  8
SK2
100
AcDbLine
 10
0.0
 20
22.225
 30
0.0
 11
0.0000000000000035
 21
80.0
 31
0.0
  0
LINE
  5
466
330
18
100
AcDbEntity
  8
SK2
100
AcDbLine
 10
-60.83000000000001
 20
75.0
 30
0.0
 11
-4.569999999999996
 21
75.0
 31
0.0
  0
SOLID
  5
467
330
18
100
AcDbEntity
  8
SK2
100
AcDbTrace
 10
-60.83000000000001
 20
75.76166666666667
 30
0.0
 11
-60.83000000000001
 21
74.23833333333333
 31
0.0
 12
-65.4
 22
75.0
 32
0.0
 13
-65.4
 23
75.0
 33
0.0
  0
SOLID
  5
468
330
18
100
AcDbEntity
  8
SK2
100
AcDbTrace
 10
-4.569999999999996
 20
75.76166666666667
 30
0.0
 11
-4.569999999999996
 21
74.23833333333333
 31
0.0
 12
0.0000000000000032
 22
75.0
 32
0.0
 13
0.0000000000000032
 23
75.0
 33
0.0
  0
LINE
  5
46A
330
18
100
AcDbEntity
  8
SK2
100
AcDbLine
 10
0.0
 20
22.225
 30
0.0
 11
0.0000000000000026
 21
65.29868181158736
 31
0.0
  0
LINE
  5
46B
330
18
100
AcDbEntity
  8
SK2
100
AcDbLine
 10
27.0
 20
30.88853
 30
0.0
 11
27.0
 21
65.29868181158736
 31
0.0
  0
LINE
  5
46C
330
18
100
AcDbEntity
  8
SK2
100
AcDbLine
 10
4.570000000000002
 20
60.29868181158736
 30
0.0
 11
22.43
 21
60.29868181158736
 31
0.0
  0
SOLID
  5
46D
330
18
100
AcDbEntity
  8
SK2
100
AcDbTrace
 10
4.570000000000002
 20
61.06034847825402
 30
0.0
 11
4.570000000000002
 21
59.53701514492069
 31
0.0
 12
0.0000000000000023
 22
60.29868181158736
 32
0.0
 13
0.0000000000000023
 23
60.29868181158736
 33
0.0
  0
SOLID
  5
46E
330
18
100
AcDbEntity
  8
SK2
100
AcDbTrace
 10
22.43
 20
61.06034847825402
 30
0.0
 11
22.43
 21
59.53701514492069
 31
0.0
 12
27.0
 22
60.29868181158736
 32
0.0
 13
27.0
 23
60.29868181158736
 33
0.0
  0
LINE
  5
470
330
18
100
AcDbEntity
  8
2
100
AcDbLine
 10
-0.0000000000000142
 20
25.113
 30
0.0
 11
-0.0000000000000109
 21
80.0
 31
0.0
  0
LINE
  5
471
330
18
100
AcDbEntity
  8
2
100
AcDbLine
 10
69.99499999999996
 20
10.5
 30
0.0
 11
69.99499999999996
 21
80.0
 31
0.0
  0
LINE
  5
472
330
18
100
AcDbEntity
  8
2
100
AcDbLine
 10
4.569999999999988
 20
75.0
 30
0.0
 11
65.42499999999995
 21
75.0
 31
0.0
  0
SOLID
  5
473
330
18
100
AcDbEntity
  8
2
100
AcDbTrace
 10
4.569999999999988
 20
75.76166666666667
 30
0.0
 11
4.569999999999988
 21
74.23833333333333
 31
0.0
 12
-0.0000000000000112
 22
75.0
 32
0.0
 13
-0.0000000000000112
 23
75.0
 33
0.0
  0
SOLID
  5
474
330
18
100
AcDbEntity
  8
2
100
AcDbTrace
 10
65.42499999999995
 20
75.76166666666667
 30
0.0
 11
65.42499999999995
 21
74.23833333333333
 31
0.0
 12
69.99499999999996
 22
75.0
 32
0.0
 13
69.99499999999996
 23
75.0
 33
0.0
  0
TEXT
  5
476
330
18
100
AcDbEntity
  8
2
100
AcDbText
 10
31.29797619047616
 20
77.3
 30
0.0
 40
4.57
  1
70
  7
SIMPLEX
100
AcDbText
  0
TEXT
  5
477
330
18
100
AcDbEntity
  8
SK2
100
AcDbText
 10
9.800476190476194
 20
62.59868181158736
 30
0.0
 40
4.57
  1
27
  7
SIMPLEX
100
AcDbText
  0
TEXT
  5
478
330
18
100
AcDbEntity
  8
SK2
100
AcDbText
 10
-39.77261904761905
 20
77.3
 30
0.0
 40
4.57
  1
65.4
  7
SIMPLEX
100
AcDbText
  0
TEXT
  5
479
330
18
100
AcDbEntity
  8
SK2
100
AcDbText
 10
-7.299999999999997
 20
-11.20738095238095
 30
0.0
 40
4.57
  1
%%c
 50
90.0
  7
SIMPLEX
100
AcDbText
  0
TEXT
  5
47A
330
18
100
AcDbEntity
  8
SK2
100
AcDbText
 10
-7.299999999999997
 20
-7.072619047619046
 30
0.0
 40
4.57
  1
44.45
 50
90.0
  7
SIMPLEX
100
AcDbText
  0
TEXT
  5
47B
330
18
100
AcDbEntity
  8
SK2
100
AcDbText
 10
-82.3
 20
-26.40380952380953
 30
0.0
 40
4.57
  1
M16
 50
90.0
  7
SIMPLEX
100
AcDbText
  0
TEXT
  5
47C
330
18
100
AcDbEntity
  8
SK2
100
AcDbText
 10
-97.30000000000002
 20
-5.76687476190475
 30
0.0
 40
4.57
  1
%%c
 50
90.0
  7
SIMPLEX
100
AcDbText
  0
TEXT
  5
47D
330
18
100
AcDbEntity
  8
SK2
100
AcDbText
 10
-97.30000000000002
 20
-1.632112857142845
 30
0.0
 40
4.57
  1
63
 50
90.0
  7
SIMPLEX
100
AcDbText
  0
TEXT
  5
47E
330
18
100
AcDbEntity
  8
SK2
100
AcDbText
 10
82.70000000000001
 20
-5.766904761904751
 30
0.0
 40
4.57
  1
%%c
 50
90.0
  7
SIMPLEX
100
AcDbText
  0
TEXT
  5
47F
330
18
100
AcDbEntity
  8
SK2
100
AcDbText
 10
82.70000000000001
 20
-1.632142857142847
 30
0.0
 40
4.57
  1
28
 50
90.0
  7
SIMPLEX
100
AcDbText
  0
ENDSEC
  0
SECTION
  2
OBJECTS
  0
DICTIONARY
  5
C
330
0
100
AcDbDictionary
  3
ACAD_GROUP
350
D
  3
ACAD_LAYOUT
350
301
  3
ACAD_MLINESTYLE
350
E
  3
ACAD_PLOTSETTINGS
350
302
1001
ACAD
1000
TREAT_AS_HARD
1070
     0
  0
DICTIONARY
  5
481
330
18
100
AcDbDictionary
  3
ACAD_LAYOUTSELFREF
350
482
  0
DICTIONARY
  5
483
330
338
100
AcDbDictionary
  3
ACAD_LAYOUTSELFREF
350
484
  0
DICTIONARY
  5
D
102
{ACAD_REACTORS
330
C
102
}
330
C
100
AcDbDictionary
1001
ACAD
1000
TREAT_AS_HARD
1070
     0
  0
DICTIONARY
  5
301
102
{ACAD_REACTORS
330
C
102
}
330
C
100
AcDbDictionary
1001
ACAD
1000
TREAT_AS_HARD
1070
     0
  0
DICTIONARY
  5
E
102
{ACAD_REACTORS
330
C
102
}
330
C
100
AcDbDictionary
  3
STANDARD
350
1B
1001
ACAD
1000
TREAT_AS_HARD
1070
     0
  0
DICTIONARY
  5
302
102
{ACAD_REACTORS
330
C
102
}
330
C
100
AcDbDictionary
1001
ACAD
1000
TREAT_AS_HARD
1070
     0
  0
XRECORD
  5
482
102
{ACAD_REACTORS
330
481
102
}
330
481
100
AcDbXrecord
340
18
  0
XRECORD
  5
484
102
{ACAD_REACTORS
330
483
102
}
330
483
100
AcDbXrecord
340
338
  0
MLINESTYLE
  5
1B
102
{ACAD_REACTORS
330
E
102
}
330
E
100
AcDbMlineStyle
  2
STANDARD
 70
     0
  3

 62
     0
 51
90.0
 52
90.0
 71
     2
 49
0.5
 62
   256
  6
BYLAYER
 49
-0.5
 62
   256
  6
BYLAYER
  0
ENDSEC
  0
EOF
