  0
SECTION
  2
HEADER
  9
$ACADVER
  1
AC1012
  9
$DWGCODEPAGE
  3
ANSI_1252
  9
$INSBASE
 10
0.0
 20
0.0
 30
0.0
  9
$EXTMIN
 10
-105.8372938533282
 20
-33.9649951783532
 30
-0.0015258207003583
  9
$EXTMAX
 10
220.0226147815383
 20
81.8743904422438
 30
0.0000000349246037
  9
$LIMMIN
 10
-170.0
 20
-170.0
  9
$LIMMAX
 10
519.0
 20
260.0
  9
$ORTHOMODE
 70
     1
  9
$REGENMODE
 70
     1
  9
$FILLMODE
 70
     1
  9
$QTEXTMODE
 70
     0
  9
$MIRRTEXT
 70
     0
  9
$DRAGMODE
 70
     2
  9
$LTSCALE
 40
15.0
  9
$OSMODE
 70
     0
  9
$ATTMODE
 70
     1
  9
$TEXTSIZE
 40
4.57
  9
$TRACEWID
 40
0.05
  9
$TEXTSTYLE
  7
SIMPLEX
  9
$CLAYER
  8
SK2
  9
$CELTYPE
  6
BYLAYER
  9
$CECOLOR
 62
   256
  9
$CELTSCALE
 40
1.0
  9
$DELOBJ
 70
     1
  9
$DISPSILH
 70
     0
  9
$DIMSCALE
 40
0.0
  9
$DIMASZ
 40
4.57
  9
$DIMEXO
 40
0.0
  9
$DIMDLI
 40
0.38
  9
$DIMRND
 40
0.0
  9
$DIMDLE
 40
0.0
  9
$DIMEXE
 40
5.0
  9
$DIMTP
 40
0.0
  9
$DIMTM
 40
0.0
  9
$DIMTXT
 40
4.57
  9
$DIMCEN
 40
0.09
  9
$DIMTSZ
 40
0.0
  9
$DIMTOL
 70
     0
  9
$DIMLIM
 70
     0
  9
$DIMTIH
 70
     0
  9
$DIMTOH
 70
     0
  9
$DIMSE1
 70
     0
  9
$DIMSE2
 70
     0
  9
$DIMTAD
 70
     1
  9
$DIMZIN
 70
     8
  9
$DIMBLK
  1

  9
$DIMASO
 70
     1
  9
$DIMSHO
 70
     1
  9
$DIMPOST
  1

  9
$DIMAPOST
  1

  9
$DIMALT
 70
     0
  9
$DIMALTD
 70
     2
  9
$DIMALTF
 40
25.4
  9
$DIMLFAC
 40
1.0
  9
$DIMTOFL
 70
     0
  9
$DIMTVP
 40
0.0
  9
$DIMTIX
 70
     0
  9
$DIMSOXD
 70
     0
  9
$DIMSAH
 70
     0
  9
$DIMBLK1
  1

  9
$DIMBLK2
  1

  9
$DIMSTYLE
  2
STANDARD
  9
$DIMCLRD
 70
     0
  9
$DIMCLRE
 70
     0
  9
$DIMCLRT
 70
     0
  9
$DIMTFAC
 40
1.0
  9
$DIMGAP
 40
2.299999999999999
  9
$DIMJUST
 70
     0
  9
$DIMSD1
 70
     0
  9
$DIMSD2
 70
     0
  9
$DIMTOLJ
 70
     1
  9
$DIMTZIN
 70
     0
  9
$DIMALTZ
 70
     0
  9
$DIMALTTZ
 70
     0
  9
$DIMFIT
 70
     3
  9
$DIMUPT
 70
     0
  9
$DIMUNIT
 70
     2
  9
$DIMDEC
 70
     2
  9
$DIMTDEC
 70
     4
  9
$DIMALTU
 70
     2
  9
$DIMALTTD
 70
     2
  9
$DIMTXSTY
  7
SIMPLEX
  9
$DIMAUNIT
 70
     0
  9
$LUNITS
 70
     2
  9
$LUPREC
 70
     2
  9
$SKETCHINC
 40
0.1
  9
$FILLETRAD
 40
0.0
  9
$AUNITS
 70
     0
  9
$AUPREC
 70
     0
  9
$MENU
  1
c:\tdm21\cad\caduti13\tdm13
  9
$ELEVATION
 40
0.0
  9
$PELEVATION
 40
0.0
  9
$THICKNESS
 40
0.0
  9
$LIMCHECK
 70
     0
  9
$BLIPMODE
 70
     0
  9
$CHAMFERA
 40
0.0
  9
$CHAMFERB
 40
0.0
  9
$CHAMFERC
 40
0.0
  9
$CHAMFERD
 40
0.0
  9
$SKPOLY
 70
     0
  9
$TDCREATE
 40
2452446.919016550
  9
$TDUPDATE
 40
2452446.919016550
  9
$TDINDWG
 40
0.0013547454
  9
$TDUSRTIMER
 40
0.0013547454
  9
$USRTIMER
 70
     1
  9
$ANGBASE
 50
0.0
  9
$ANGDIR
 70
     0
  9
$PDMODE
 70
     1
  9
$PDSIZE
 40
0.0
  9
$PLINEWID
 40
0.0
  9
$COORDS
 70
     1
  9
$SPLFRAME
 70
     0
  9
$SPLINETYPE
 70
     6
  9
$SPLINESEGS
 70
     8
  9
$ATTDIA
 70
     0
  9
$ATTREQ
 70
     1
  9
$HANDLING
 70
  4097
  9
$HANDSEED
  5
476
  9
$SURFTAB1
 70
     6
  9
$SURFTAB2
 70
     6
  9
$SURFTYPE
 70
     6
  9
$SURFU
 70
     6
  9
$SURFV
 70
     6
  9
$UCSNAME
  2

  9
$UCSORG
 10
0.0
 20
0.0
 30
0.0
  9
$UCSXDIR
 10
1.0
 20
0.0
 30
0.0
  9
$UCSYDIR
 10
0.0
 20
1.0
 30
0.0
  9
$PUCSNAME
  2

  9
$PUCSORG
 10
0.0
 20
0.0
 30
0.0
  9
$PUCSXDIR
 10
1.0
 20
0.0
 30
0.0
  9
$PUCSYDIR
 10
0.0
 20
1.0
 30
0.0
  9
$USERI1
 70
     0
  9
$USERI2
 70
     0
  9
$USERI3
 70
     0
  9
$USERI4
 70
     0
  9
$USERI5
 70
     0
  9
$USERR1
 40
0.0
  9
$USERR2
 40
0.0
  9
$USERR3
 40
0.0
  9
$USERR4
 40
0.0
  9
$USERR5
 40
0.0
  9
$WORLDVIEW
 70
     1
  9
$SHADEDGE
 70
     3
  9
$SHADEDIF
 70
    70
  9
$TILEMODE
 70
     1
  9
$MAXACTVP
 70
    16
  9
$PINSBASE
 10
0.0
 20
0.0
 30
0.0
  9
$PLIMCHECK
 70
     0
  9
$PEXTMIN
 10
0.0
 20
0.0
 30
0.0
  9
$PEXTMAX
 10
0.0
 20
0.0
 30
0.0
  9
$PLIMMIN
 10
0.0
 20
0.0
  9
$PLIMMAX
 10
12.0
 20
9.0
  9
$UNITMODE
 70
     0
  9
$VISRETAIN
 70
     0
  9
$PLINEGEN
 70
     0
  9
$PSLTSCALE
 70
     1
  9
$TREEDEPTH
 70
  3020
  9
$PICKSTYLE
 70
     1
  9
$CMLSTYLE
  2
STANDARD
  9
$CMLJUST
 70
     0
  9
$CMLSCALE
 40
1.0
  9
$SAVEIMAGES
 70
     1
  0
ENDSEC
  0
SECTION
  2
CLASSES
  0
CLASS
  1
ACDBDICTIONARYWDFLT
  2
AcDbDictionaryWithDefault
  3
AutoCAD 2000
 90
    32768
280
     0
281
     0
  0
CLASS
  1
ACDBPLACEHOLDER
  2
AcDbPlaceHolder
  3
AutoCAD 2000
 90
    32768
280
     0
281
     0
  0
CLASS
  1
LAYOUT
  2
AcDbLayout
  3
AutoCAD 2000
 90
    32768
280
     0
281
     0
  0
CLASS
  1
LONG_TRANSACTION
  2
AcDbLongTransaction
  3
AutoCAD 2000
 90
    32768
280
     0
281
     0
  0
CLASS
  1
LWPOLYLINE
  2
AcDbPolyline
  3
AutoCAD 2000
 90
    32768
280
     0
281
     1
  0
CLASS
  1
HATCH
  2
AcDbHatch
  3
AutoCAD 2000
 90
    32768
280
     0
281
     1
  0
CLASS
  1
XRECORD
  2
AcDbXrecord
  3
AutoCAD 2000
 90
    32768
280
     0
281
     0
  0
ENDSEC
  0
SECTION
  2
TABLES
  0
TABLE
  2
VPORT
  5
8
330
0
100
AcDbSymbolTable
 70
     3
  0
VPORT
  5
471
330
8
100
AcDbSymbolTableRecord
100
AcDbViewportTableRecord
  2
*ACTIVE
 70
     0
 10
0.0
 20
0.0
 11
1.0
 21
1.0
 12
57.09266046410506
 22
23.95469763194529
 13
0.0
 23
0.0
 14
5.0
 24
5.0
 15
5.0
 25
5.0
 16
0.0
 26
0.0
 36
1.0
 17
0.0
 27
0.0
 37
0.0
 40
157.9079337540929
 41
2.130434782608695
 42
50.0
 43
0.0
 44
0.0
 50
0.0
 51
0.0
 71
     0
 72
   100
 73
     1
 74
     1
 75
     0
 76
     0
 77
     0
 78
     0
  0
ENDTAB
  0
TABLE
  2
LTYPE
  5
5
330
0
100
AcDbSymbolTable
 70
     3
  0
LTYPE
  5
12
330
5
100
AcDbSymbolTableRecord
100
AcDbLinetypeTableRecord
  2
BYBLOCK
 70
     0
  3

 72
    65
 73
     0
 40
0.0
  0
LTYPE
  5
13
330
5
100
AcDbSymbolTableRecord
100
AcDbLinetypeTableRecord
  2
BYLAYER
 70
     0
  3

 72
    65
 73
     0
 40
0.0
  0
LTYPE
  5
14
330
5
100
AcDbSymbolTableRecord
100
AcDbLinetypeTableRecord
  2
CONTINUOUS
 70
     0
  3
Solid line
 72
    65
 73
     0
 40
0.0
  0
LTYPE
  5
1F
330
5
100
AcDbSymbolTableRecord
100
AcDbLinetypeTableRecord
  2
CENTER
 70
     0
  3
____ . ____ . ____
 72
    65
 73
     4
 40
1.5
 49
1.0
 74
     0
 49
-0.25
 74
     0
 49
0.0
 74
     0
 49
-0.25
 74
     0
  0
LTYPE
  5
20
330
5
100
AcDbSymbolTableRecord
100
AcDbLinetypeTableRecord
  2
HIDDEN
 70
     0
  3
_ _ _ _ _ _ _ _ _ _ _ _ _ _ _ _ _ _ _ _ _ _ _
 72
    65
 73
     2
 40
0.375
 49
0.25
 74
     0
 49
-0.125
 74
     0
  0
ENDTAB
  0
TABLE
  2
LAYER
  5
2
330
0
100
AcDbSymbolTable
 70
    15
  0
LAYER
  5
F
330
2
100
AcDbSymbolTableRecord
100
AcDbLayerTableRecord
  2
0
 70
     0
 62
    -7
  6
CONTINUOUS
  0
LAYER
  5
23
330
2
100
AcDbSymbolTableRecord
100
AcDbLayerTableRecord
  2
1
 70
     0
 62
     4
  6
CONTINUOUS
  0
LAYER
  5
24
330
2
100
AcDbSymbolTableRecord
100
AcDbLayerTableRecord
  2
SK1
 70
     0
 62
     4
  6
CONTINUOUS
  0
LAYER
  5
25
330
2
100
AcDbSymbolTableRecord
100
AcDbLayerTableRecord
  2
2
 70
     0
 62
     7
  6
CONTINUOUS
  0
LAYER
  5
26
330
2
100
AcDbSymbolTableRecord
100
AcDbLayerTableRecord
  2
2L
 70
     0
 62
     7
  6
CONTINUOUS
  0
LAYER
  5
27
330
2
100
AcDbSymbolTableRecord
100
AcDbLayerTableRecord
  2
SK2
 70
     0
 62
     7
  6
CONTINUOUS
  0
LAYER
  5
28
330
2
100
AcDbSymbolTableRecord
100
AcDbLayerTableRecord
  2
3
 70
     0
 62
     1
  6
HIDDEN
  0
LAYER
  5
29
330
2
100
AcDbSymbolTableRecord
100
AcDbLayerTableRecord
  2
SK3
 70
     0
 62
     1
  6
HIDDEN
  0
LAYER
  5
2A
330
2
100
AcDbSymbolTableRecord
100
AcDbLayerTableRecord
  2
4
 70
     0
 62
    -2
  6
CENTER
  0
LAYER
  5
2B
330
2
100
AcDbSymbolTableRecord
100
AcDbLayerTableRecord
  2
SK4
 70
     0
 62
     2
  6
CENTER
  0
LAYER
  5
2C
330
2
100
AcDbSymbolTableRecord
100
AcDbLayerTableRecord
  2
5
 70
     0
 62
    -7
  6
CONTINUOUS
  0
LAYER
  5
2D
330
2
100
AcDbSymbolTableRecord
100
AcDbLayerTableRecord
  2
6
 70
     0
 62
     5
  6
CONTINUOUS
  0
LAYER
  5
2E
330
2
100
AcDbSymbolTableRecord
100
AcDbLayerTableRecord
  2
SK6
 70
     0
 62
     5
  6
CONTINUOUS
  0
LAYER
  5
2F
330
2
100
AcDbSymbolTableRecord
100
AcDbLayerTableRecord
  2
DEFPOINTS
 70
     0
 62
    -7
  6
CONTINUOUS
  0
LAYER
  5
376
330
2
100
AcDbSymbolTableRecord
100
AcDbLayerTableRecord
  2
1__1
 70
     0
 62
    -1
  6
CONTINUOUS
  0
ENDTAB
  0
TABLE
  2
STYLE
  5
3
330
0
100
AcDbSymbolTable
 70
     3
  0
STYLE
  5
10
330
3
100
AcDbSymbolTableRecord
100
AcDbTextStyleTableRecord
  2
STANDARD
 70
     0
 40
0.0
 41
1.0
 50
0.0
 71
     0
 42
5.0
  3
txt
  4

  0
STYLE
  5
1D
330
3
100
AcDbSymbolTableRecord
100
AcDbTextStyleTableRecord
  2
TXT
 70
     0
 40
8.0
 41
1.0
 50
0.0
 71
     0
 42
8.0
  3
txt
  4

  0
STYLE
  5
1E
330
3
100
AcDbSymbolTableRecord
100
AcDbTextStyleTableRecord
  2
SIMPLEX
 70
     0
 40
0.0
 41
1.0
 50
0.0
 71
     0
 42
4.57
  3
simplex
  4

  0
ENDTAB
  0
TABLE
  2
VIEW
  5
6
330
0
100
AcDbSymbolTable
 70
     0
  0
ENDTAB
  0
TABLE
  2
UCS
  5
7
330
0
100
AcDbSymbolTable
 70
     0
  0
ENDTAB
  0
TABLE
  2
APPID
  5
9
330
0
100
AcDbSymbolTable
 70
     1
  0
APPID
  5
11
330
9
100
AcDbSymbolTableRecord
100
AcDbRegAppTableRecord
  2
ACAD
 70
     0
  0
ENDTAB
  0
TABLE
  2
DIMSTYLE
  5
A
330
0
100
AcDbSymbolTable
 70
     1
  0
DIMSTYLE
105
3F
102
{ACAD_REACTORS
330
401
330
3F8
330
3EC
330
3E3
102
}
330
A
100
AcDbSymbolTableRecord
100
AcDbDimStyleTableRecord
  2
STANDARD
 70
     0
  3

  4

  5

  6

  7

 40
0.0
 41
4.57
 42
0.0
 43
0.38
 44
5.0
 45
0.0
 46
0.0
 47
0.0
 48
0.0
140
4.57
141
0.09
142
0.0
143
25.4
144
1.0
145
0.0
146
1.0
147
2.299999999999999
 71
     0
 72
     0
 73
     0
 74
     0
 75
     0
 76
     0
 77
     1
 78
     8
170
     0
171
     2
172
     0
173
     0
174
     0
175
     0
176
     0
177
     0
178
     0
270
     2
271
     2
272
     4
273
     2
274
     2
340
1E
275
     0
280
     0
281
     0
282
     0
283
     1
284
     0
285
     0
286
     0
287
     3
288
     0
  0
ENDTAB
  0
TABLE
  2
BLOCK_RECORD
  5
1
330
0
100
AcDbSymbolTable
 70
     5
  0
BLOCK_RECORD
  5
18
102
{ACAD_XDICTIONARY
360
472
102
}
330
1
100
AcDbSymbolTableRecord
100
AcDbBlockTableRecord
  2
*MODEL_SPACE
  0
BLOCK_RECORD
  5
338
102
{ACAD_XDICTIONARY
360
474
102
}
330
1
100
AcDbSymbolTableRecord
100
AcDbBlockTableRecord
  2
*PAPER_SPACE
  0
BLOCK_RECORD
  5
345
330
1
100
AcDbSymbolTableRecord
100
AcDbBlockTableRecord
  2
*D0
  0
BLOCK_RECORD
  5
351
330
1
100
AcDbSymbolTableRecord
100
AcDbBlockTableRecord
  2
*D1
  0
BLOCK_RECORD
  5
35D
330
1
100
AcDbSymbolTableRecord
100
AcDbBlockTableRecord
  2
*D2
  0
BLOCK_RECORD
  5
36A
330
1
100
AcDbSymbolTableRecord
100
AcDbBlockTableRecord
  2
*D3
  0
ENDTAB
  0
ENDSEC
  0
SECTION
  2
BLOCKS
  0
BLOCK
  5
32
330
18
100
AcDbEntity
  8
0
100
AcDbBlockBegin
  2
*MODEL_SPACE
 70
     0
 10
0.0
 20
0.0
 30
0.0
  3
*MODEL_SPACE
  1

  0
ENDBLK
  5
33
330
18
100
AcDbEntity
  8
0
100
AcDbBlockEnd
  0
BLOCK
  5
339
330
338
100
AcDbEntity
 67
     1
  8
0
100
AcDbBlockBegin
  2
*PAPER_SPACE
 70
     0
 10
0.0
 20
0.0
 30
0.0
  3
*PAPER_SPACE
  1

  0
ENDBLK
  5
33A
330
338
100
AcDbEntity
 67
     1
  8
0
100
AcDbBlockEnd
  0
BLOCK
  5
34F
330
345
100
AcDbEntity
  8
0
100
AcDbBlockBegin
  2
*D0
 70
     1
 10
0.0
 20
0.0
 30
0.0
  3
*D0
  1

  0
LINE
  5
40B
330
345
100
AcDbEntity
  8
2
 62
     0
100
AcDbLine
 10
0.0
 20
25.113
 30
0.0
 11
0.0000000000000034
 21
80.0
 31
0.0
  0
LINE
  5
40C
330
345
100
AcDbEntity
  8
2
 62
     0
100
AcDbLine
 10
200.0
 20
10.5
 30
0.0
 11
200.0
 21
80.0
 31
0.0
  0
LINE
  5
40D
330
345
100
AcDbEntity
  8
2
 62
     0
100
AcDbLine
 10
4.570000000000002
 20
75.0
 30
0.0
 11
195.43
 21
75.0
 31
0.0
  0
SOLID
  5
40E
330
345
100
AcDbEntity
  8
2
 62
     0
100
AcDbTrace
 10
4.570000000000002
 20
75.76166666666667
 30
0.0
 11
4.570000000000002
 21
74.23833333333333
 31
0.0
 12
0.0000000000000031
 22
75.0
 32
0.0
 13
0.0000000000000031
 23
75.0
 33
0.0
  0
SOLID
  5
40F
330
345
100
AcDbEntity
  8
2
 62
     0
100
AcDbTrace
 10
195.43
 20
75.76166666666667
 30
0.0
 11
195.43
 21
74.23833333333333
 31
0.0
 12
200.0
 22
75.0
 32
0.0
 13
200.0
 23
75.0
 33
0.0
  0
MTEXT
  5
410
330
345
100
AcDbEntity
  8
2
 62
     0
100
AcDbMText
 10
100.0
 20
79.58499999999999
 30
0.0
 40
4.57
 41
0.0
 71
     5
 72
     1
  1
\A1;200
  7
SIMPLEX
1001
ACAD
1000
MTEXTBEGIN
1070
    73
1070
     1
1070
    44
1040
1.0
1070
    74
1070
     0
1000
MTEXTEND
  0
POINT
  5
411
330
345
100
AcDbEntity
  8
DEFPOINTS
 62
     0
100
AcDbPoint
 10
0.0
 20
25.113
 30
0.0
  0
POINT
  5
412
330
345
100
AcDbEntity
  8
DEFPOINTS
 62
     0
100
AcDbPoint
 10
200.0
 20
10.5
 30
0.0
  0
POINT
  5
413
330
345
100
AcDbEntity
  8
DEFPOINTS
 62
     0
100
AcDbPoint
 10
200.0
 20
75.0
 30
0.0
  0
ENDBLK
  5
350
330
345
100
AcDbEntity
  8
0
100
AcDbBlockEnd
  0
BLOCK
  5
35B
330
351
100
AcDbEntity
  8
0
100
AcDbBlockBegin
  2
*D1
 70
     1
 10
0.0
 20
0.0
 30
0.0
  3
*D1
  1

  0
LINE
  5
414
330
351
100
AcDbEntity
  8
SK2
 62
     0
100
AcDbLine
 10
-68.4
 20
11.45313
 30
0.0
 11
-68.4
 21
80.0
 31
0.0
  0
LINE
  5
415
330
351
100
AcDbEntity
  8
SK2
 62
     0
100
AcDbLine
 10
0.0
 20
22.225
 30
0.0
 11
0.0000000000000035
 21
80.0
 31
0.0
  0
LINE
  5
416
330
351
100
AcDbEntity
  8
SK2
 62
     0
100
AcDbLine
 10
-63.83
 20
75.0
 30
0.0
 11
-4.569999999999996
 21
75.0
 31
0.0
  0
SOLID
  5
417
330
351
100
AcDbEntity
  8
SK2
 62
     0
100
AcDbTrace
 10
-63.83
 20
75.76166666666667
 30
0.0
 11
-63.83
 21
74.23833333333333
 31
0.0
 12
-68.4
 22
75.0
 32
0.0
 13
-68.4
 23
75.0
 33
0.0
  0
SOLID
  5
418
330
351
100
AcDbEntity
  8
SK2
 62
     0
100
AcDbTrace
 10
-4.569999999999996
 20
75.76166666666667
 30
0.0
 11
-4.569999999999996
 21
74.23833333333333
 31
0.0
 12
0.0000000000000032
 22
75.0
 32
0.0
 13
0.0000000000000032
 23
75.0
 33
0.0
  0
MTEXT
  5
419
330
351
100
AcDbEntity
  8
SK2
 62
     0
100
AcDbMText
 10
-34.2
 20
79.58499999999999
 30
0.0
 40
4.57
 41
0.0
 71
     5
 72
     1
  1
\A1;68.4
  7
SIMPLEX
1001
ACAD
1000
MTEXTBEGIN
1070
    73
1070
     1
1070
    44
1040
1.0
1070
    74
1070
     0
1000
MTEXTEND
  0
POINT
  5
41A
330
351
100
AcDbEntity
  8
DEFPOINTS
 62
     0
100
AcDbPoint
 10
-68.4
 20
11.45313
 30
0.0
  0
POINT
  5
41B
330
351
100
AcDbEntity
  8
DEFPOINTS
 62
     0
100
AcDbPoint
 10
0.0
 20
22.225
 30
0.0
  0
POINT
  5
41C
330
351
100
AcDbEntity
  8
DEFPOINTS
 62
     0
100
AcDbPoint
 10
0.0000000000000032
 20
75.0
 30
0.0
  0
ENDBLK
  5
35C
330
351
100
AcDbEntity
  8
0
100
AcDbBlockEnd
  0
BLOCK
  5
368
330
35D
100
AcDbEntity
  8
0
100
AcDbBlockBegin
  2
*D2
 70
     1
 10
0.0
 20
0.0
 30
0.0
  3
*D2
  1

  0
LINE
  5
41D
330
35D
100
AcDbEntity
  8
SK2
 62
     0
100
AcDbLine
 10
-59.51133
 20
-7.999999999999999
 30
0.0
 11
-88.95000000000001
 21
-7.999999999999991
 31
0.0
  0
LINE
  5
41E
330
35D
100
AcDbEntity
  8
SK2
 62
     0
100
AcDbLine
 10
-59.51133
 20
8.0
 30
0.0
 11
-88.95000000000001
 21
8.000000000000008
 31
0.0
  0
LINE
  5
41F
330
35D
100
AcDbEntity
  8
SK2
 62
     0
100
AcDbLine
 10
-83.95000000000001
 20
-3.429999999999991
 30
0.0
 11
-83.95000000000001
 21
3.430000000000006
 31
0.0
  0
LINE
  5
420
330
35D
100
AcDbEntity
  8
SK2
 62
     0
100
AcDbLine
 10
-83.95000000000001
 20
8.000000000000007
 30
0.0
 11
-83.95000000000001
 21
28.70380952380953
 31
0.0
  0
SOLID
  5
421
330
35D
100
AcDbEntity
  8
SK2
 62
     0
100
AcDbTrace
 10
-84.71166666666666
 20
-3.429999999999991
 30
0.0
 11
-83.18833333333333
 21
-3.429999999999991
 31
0.0
 12
-83.95000000000001
 22
-7.999999999999992
 32
0.0
 13
-83.95000000000001
 23
-7.999999999999992
 33
0.0
  0
SOLID
  5
422
330
35D
100
AcDbEntity
  8
SK2
 62
     0
100
AcDbTrace
 10
-84.71166666666666
 20
3.430000000000006
 30
0.0
 11
-83.18833333333333
 21
3.430000000000006
 31
0.0
 12
-83.95000000000001
 22
8.000000000000007
 32
0.0
 13
-83.95000000000001
 23
8.000000000000007
 33
0.0
  0
MTEXT
  5
423
330
35D
100
AcDbEntity
  8
SK2
 62
     0
100
AcDbMText
 10
-88.535
 20
20.63690476190476
 30
0.0
 40
4.57
 41
0.0
 71
     5
 72
     1
  1
\A1;M16
  7
SIMPLEX
 11
0.0000000000000001
 21
1.0
 31
0.0
1001
ACAD
1000
MTEXTBEGIN
1070
    73
1070
     1
1070
    44
1040
1.0
1070
    74
1070
     0
1000
MTEXTEND
  0
POINT
  5
424
330
35D
100
AcDbEntity
  8
DEFPOINTS
 62
     0
100
AcDbPoint
 10
-59.51133
 20
-7.999999999999999
 30
0.0
  0
POINT
  5
425
330
35D
100
AcDbEntity
  8
DEFPOINTS
 62
     0
100
AcDbPoint
 10
-59.51133
 20
8.0
 30
0.0
  0
POINT
  5
426
330
35D
100
AcDbEntity
  8
DEFPOINTS
 62
     0
100
AcDbPoint
 10
-83.95000000000001
 20
8.000000000000007
 30
0.0
  0
ENDBLK
  5
369
330
35D
100
AcDbEntity
  8
0
100
AcDbBlockEnd
  0
BLOCK
  5
374
330
36A
100
AcDbEntity
  8
0
100
AcDbBlockBegin
  2
*D3
 70
     1
 10
0.0
 20
0.0
 30
0.0
  3
*D3
  1

  0
LINE
  5
427
330
36A
100
AcDbEntity
  8
SK2
 62
     0
100
AcDbLine
 10
0.0
 20
22.225
 30
0.0
 11
-10.94999999999999
 21
22.225
 31
0.0
  0
LINE
  5
428
330
36A
100
AcDbEntity
  8
SK2
 62
     0
100
AcDbLine
 10
0.0
 20
-22.225
 30
0.0
 11
-10.95
 21
-22.22499999999999
 31
0.0
  0
LINE
  5
429
330
36A
100
AcDbEntity
  8
SK2
 62
     0
100
AcDbLine
 10
-5.949999999999993
 20
17.655
 30
0.0
 11
-5.950000000000001
 21
-17.655
 31
0.0
  0
SOLID
  5
42A
330
36A
100
AcDbEntity
  8
SK2
 62
     0
100
AcDbTrace
 10
-6.71166666666666
 20
17.655
 30
0.0
 11
-5.188333333333327
 21
17.655
 31
0.0
 12
-5.949999999999992
 22
22.225
 32
0.0
 13
-5.949999999999992
 23
22.225
 33
0.0
  0
SOLID
  5
42B
330
36A
100
AcDbEntity
  8
SK2
 62
     0
100
AcDbTrace
 10
-6.711666666666667
 20
-17.655
 30
0.0
 11
-5.188333333333334
 21
-17.655
 31
0.0
 12
-5.950000000000002
 22
-22.225
 32
0.0
 13
-5.950000000000002
 23
-22.225
 33
0.0
  0
MTEXT
  5
42C
330
36A
100
AcDbEntity
  8
SK2
 62
     0
100
AcDbMText
 10
-10.53499999999999
 20
0.0000000000000009
 30
0.0
 40
4.57
 41
0.0
 71
     5
 72
     1
  1
\A1;%%C44.45
  7
SIMPLEX
 11
0.0000000000000001
 21
1.0
 31
0.0
1001
ACAD
1000
MTEXTBEGIN
1070
    73
1070
     1
1070
    44
1040
1.0
1070
    74
1070
     0
1000
MTEXTEND
  0
POINT
  5
42D
330
36A
100
AcDbEntity
  8
DEFPOINTS
 62
     0
100
AcDbPoint
 10
0.0
 20
22.225
 30
0.0
  0
POINT
  5
42E
330
36A
100
AcDbEntity
  8
DEFPOINTS
 62
     0
100
AcDbPoint
 10
0.0
 20
-22.225
 30
0.0
  0
POINT
  5
42F
330
36A
100
AcDbEntity
  8
DEFPOINTS
 62
     0
100
AcDbPoint
 10
-5.950000000000002
 20
-22.225
 30
0.0
  0
ENDBLK
  5
375
330
36A
100
AcDbEntity
  8
0
100
AcDbBlockEnd
  0
ENDSEC
  0
SECTION
  2
ENTITIES
  0
LINE
  5
377
330
18
100
AcDbEntity
  8
1
100
AcDbLine
 10
191.0
 20
-13.978
 30
0.0
 11
197.992
 21
-13.978
 31
0.0
  0
LINE
  5
378
330
18
100
AcDbEntity
  8
1
100
AcDbLine
 10
191.0
 20
-7.673000000000001
 30
0.0
 11
191.0
 21
-13.978
 31
0.0
  0
ARC
  5
379
330
18
100
AcDbEntity
  8
1
100
AcDbCircle
 10
189.855
 20
-10.149
 30
0.0
 40
8.993
100
AcDbArc
 50
334.7998959999999
 51
15.982126
  0
LINE
  5
37A
330
18
100
AcDbEntity
  8
1
100
AcDbLine
 10
191.0
 20
-7.673000000000001
 30
0.0
 11
198.5
 21
-7.673000000000001
 31
0.0
  0
LINE
  5
37B
330
18
100
AcDbEntity
  8
1
100
AcDbLine
 10
198.5
 20
-7.673000000000001
 30
0.0
 11
198.5
 21
-6.305000000000003
 31
0.0
  0
ARC
  5
37C
330
18
100
AcDbEntity
  8
1
100
AcDbCircle
 10
24.1
 20
-22.642
 30
0.0
 40
5.0
100
AcDbArc
 50
98.33755500000002
 51
179.999985
  0
LINE
  5
37D
330
18
100
AcDbEntity
  8
1
100
AcDbLine
 10
3.200000000000002
 20
-18.5
 30
0.0
 11
19.1
 21
-18.5
 31
0.0
  0
LINE
  5
37E
330
18
100
AcDbEntity
  8
1
100
AcDbLine
 10
19.1
 20
19.0
 30
0.0
 11
19.1
 21
-19.0
 31
0.0
  0
LINE
  5
37F
330
18
100
AcDbEntity
  8
1
100
AcDbLine
 10
3.200000000000002
 20
-8.050000000000004
 30
0.0
 11
19.1
 21
-8.050000000000004
 31
0.0
  0
LINE
  5
380
330
18
100
AcDbEntity
  8
1
100
AcDbLine
 10
3.200000000000002
 20
8.049999999999997
 30
0.0
 11
19.1
 21
8.049999999999997
 31
0.0
  0
LINE
  5
381
330
18
100
AcDbEntity
  8
1
100
AcDbLine
 10
3.200000000000002
 20
23.32699999999999
 30
0.0
 11
3.200000000000002
 21
-23.327
 31
0.0
  0
LINE
  5
382
330
18
100
AcDbEntity
  8
1
100
AcDbLine
 10
0.7000000000000029
 20
22.32699999999999
 30
0.0
 11
0.7000000000000029
 21
-22.327
 31
0.0
  0
POINT
  5
383
330
18
100
AcDbEntity
  8
1__1
 62
     7
100
AcDbPoint
 10
0.0
 20
0.0
 30
0.0
  0
ARC
  5
384
330
18
100
AcDbEntity
  8
1
100
AcDbCircle
 10
24.1
 20
22.64199999999999
 30
0.0
 40
5.0
100
AcDbArc
 50
180.000015
 51
261.6624449999999
  0
LINE
  5
385
330
18
100
AcDbEntity
  8
1
100
AcDbLine
 10
198.5
 20
7.672999999999994
 30
0.0
 11
198.5
 21
6.304999999999999
 31
0.0
  0
ARC
  5
386
330
18
100
AcDbEntity
  8
1
100
AcDbCircle
 10
189.855
 20
10.14899999999999
 30
0.0
 40
8.993
100
AcDbArc
 50
344.0178829999999
 51
25.2001
  0
LINE
  5
387
330
18
100
AcDbEntity
  8
1
100
AcDbLine
 10
191.0
 20
7.672999999999994
 30
0.0
 11
198.5
 21
7.672999999999994
 31
0.0
  0
LINE
  5
388
330
18
100
AcDbEntity
  8
1
100
AcDbLine
 10
191.0
 20
13.97799999999999
 30
0.0
 11
197.992
 21
13.97799999999999
 31
0.0
  0
LINE
  5
389
330
18
100
AcDbEntity
  8
1
100
AcDbLine
 10
191.0
 20
7.672999999999994
 30
0.0
 11
191.0
 21
13.97799999999999
 31
0.0
  0
ARC
  5
38A
330
18
100
AcDbEntity
  8
1
100
AcDbCircle
 10
184.0
 20
-13.0
 30
0.0
 40
1.0
100
AcDbArc
 50
179.999985
 51
269.999969
  0
ARC
  5
38B
330
18
100
AcDbEntity
  8
1
100
AcDbCircle
 10
141.06
 20
0.0
 30
0.0
 40
57.785
100
AcDbArc
 50
353.7359309999999
 51
6.264094999999999
  0
ARC
  5
38C
330
18
100
AcDbEntity
  8
1
100
AcDbCircle
 10
203.5009999999999
 20
0.0
 30
0.0
 40
14.001
100
AcDbArc
 50
153.235474
 51
206.7645569999999
  0
ARC
  5
38D
330
18
100
AcDbEntity
  8
1
100
AcDbCircle
 10
184.0
 20
13.0
 30
0.0
 40
1.0
100
AcDbArc
 50
90.0
 51
180.0
  0
ARC
  5
38E
330
18
100
AcDbEntity
  8
1
100
AcDbCircle
 10
2.200000000000002
 20
23.32699999999999
 30
0.0
 40
1.0
100
AcDbArc
 50
270.0
 51
0.0
  0
LINE
  5
38F
330
18
100
AcDbEntity
  8
1
100
AcDbLine
 10
3.200000000000002
 20
23.32699999999999
 30
0.0
 11
3.200000000000002
 21
30.775
 31
0.0
  0
ARC
  5
390
330
18
100
AcDbEntity
  8
1
100
AcDbCircle
 10
4.200000000000002
 20
30.775
 30
0.0
 40
1.0
100
AcDbArc
 50
90.0
 51
180.0
  0
ARC
  5
391
330
18
100
AcDbEntity
  8
1
100
AcDbCircle
 10
18.1
 20
30.775
 30
0.0
 40
1.0
100
AcDbArc
 50
0.0
 51
90.0
  0
ARC
  5
392
330
18
100
AcDbEntity
  8
1
100
AcDbCircle
 10
171.981
 20
13.0
 30
0.0
 40
1.0
100
AcDbArc
 50
44.999996
 51
90.0
  0
LINE
  5
393
330
18
100
AcDbEntity
  8
1
100
AcDbLine
 10
172.6879999999999
 20
13.707
 30
0.0
 11
175.102
 21
11.29299999999999
 31
0.0
  0
ARC
  5
394
330
18
100
AcDbEntity
  8
1
100
AcDbCircle
 10
175.8089999999999
 20
12.0
 30
0.0
 40
1.0
100
AcDbArc
 50
224.991348
 51
269.987762
  0
ARC
  5
395
330
18
100
AcDbEntity
  8
1
100
AcDbCircle
 10
175.8089999999999
 20
-12.0
 30
0.0
 40
1.0
100
AcDbArc
 50
90.0
 51
135.0
  0
LINE
  5
396
330
18
100
AcDbEntity
  8
1
100
AcDbLine
 10
175.102
 20
-11.293
 30
0.0
 11
172.6879999999999
 21
-13.707
 31
0.0
  0
ARC
  5
397
330
18
100
AcDbEntity
  8
1
100
AcDbCircle
 10
171.981
 20
-13.0
 30
0.0
 40
1.0
100
AcDbArc
 50
270.0122379999999
 51
315.008667
  0
LINE
  5
398
330
18
100
AcDbEntity
  8
1
100
AcDbLine
 10
19.1
 20
-19.0
 30
0.0
 11
19.1
 21
-30.775
 31
0.0
  0
ARC
  5
399
330
18
100
AcDbEntity
  8
1
100
AcDbCircle
 10
18.1
 20
-30.775
 30
0.0
 40
1.0
100
AcDbArc
 50
270.0
 51
0.000003
  0
ARC
  5
39A
330
18
100
AcDbEntity
  8
1
100
AcDbCircle
 10
4.200000000000002
 20
-30.775
 30
0.0
 40
1.0
100
AcDbArc
 50
180.0
 51
270.0
  0
LINE
  5
39B
330
18
100
AcDbEntity
  8
1
100
AcDbLine
 10
3.200000000000002
 20
-30.775
 30
0.0
 11
3.200000000000002
 21
-23.327
 31
0.0
  0
ARC
  5
39C
330
18
100
AcDbEntity
  8
1
100
AcDbCircle
 10
2.200000000000002
 20
-23.327
 30
0.0
 40
1.0
100
AcDbArc
 50
0.000003
 51
89.999985
  0
ARC
  5
39D
330
18
100
AcDbEntity
  8
1
100
AcDbCircle
 10
-67.15
 20
-11.169
 30
0.0
 40
1.25
100
AcDbArc
 50
179.998779
 51
261.720612
  0
ARC
  5
39E
330
18
100
AcDbEntity
  8
1
100
AcDbCircle
 10
-67.15
 20
11.16899999999999
 30
0.0
 40
1.25
100
AcDbArc
 50
98.278694
 51
180.0
  0
LINE
  5
39F
330
18
100
AcDbEntity
  8
1
100
AcDbLine
 10
177.3949999999999
 20
11.0
 30
0.0
 11
177.3949999999999
 21
-11.0
 31
0.0
  0
LINE
  5
3A0
330
18
100
AcDbEntity
  8
SK4
100
AcDbLine
 10
11.14999999999999
 20
33.935
 30
0.0
 11
11.14999999999999
 21
0.0
 31
0.0
  0
LINE
  5
3A1
330
18
100
AcDbEntity
  8
4
100
AcDbLine
 10
0.0
 20
25.113
 30
0.0
 11
0.0
 21
-25.852
 31
0.0
  0
LINE
  5
3A2
330
18
100
AcDbEntity
  8
SK4
100
AcDbLine
 10
11.14999999999999
 20
-33.935
 30
0.0
 11
11.14999999999999
 21
0.0
 31
0.0
  0
LINE
  5
3A3
330
18
100
AcDbEntity
  8
1
100
AcDbLine
 10
172.3949999999999
 20
-13.176
 30
0.0
 11
172.3949999999999
 21
13.22199999999999
 31
0.0
  0
LINE
  5
3A4
330
18
100
AcDbEntity
  8
1
100
AcDbLine
 10
175.3949999999999
 20
10.39999999999999
 30
0.0
 11
175.3949999999999
 21
-10.248
 31
0.0
  0
LINE
  5
3A5
330
18
100
AcDbEntity
  8
1
100
AcDbLine
 10
171.981
 20
-14.0
 30
0.0
 11
74.1
 21
-14.0
 31
0.0
  0
LINE
  5
3A6
330
18
100
AcDbEntity
  8
1
100
AcDbLine
 10
74.1
 20
14.0
 30
0.0
 11
171.981
 21
14.0
 31
0.0
  0
LINE
  5
3A7
330
18
100
AcDbEntity
  8
1
100
AcDbLine
 10
19.1
 20
30.775
 30
0.0
 11
19.1
 21
24.0
 31
0.0
  0
LINE
  5
3A8
330
18
100
AcDbEntity
  8
1
100
AcDbLine
 10
19.1
 20
24.0
 30
0.0
 11
19.1
 21
19.0
 31
0.0
  0
LINE
  5
3A9
330
18
100
AcDbEntity
  8
1
100
AcDbLine
 10
183.0
 20
-11.0
 30
0.0
 11
175.8089999999999
 21
-11.0
 31
0.0
  0
LINE
  5
3AA
330
18
100
AcDbEntity
  8
1
100
AcDbLine
 10
175.8089999999999
 20
11.0
 30
0.0
 11
183.0
 21
11.0
 31
0.0
  0
LINE
  5
3AB
330
18
100
AcDbEntity
  8
1
100
AcDbLine
 10
177.3949999999999
 20
-10.0
 30
0.0
 11
183.0
 21
-10.0
 31
0.0
  0
LINE
  5
3AC
330
18
100
AcDbEntity
  8
1
100
AcDbLine
 10
177.3949999999999
 20
10.0
 30
0.0
 11
183.0
 21
10.0
 31
0.0
  0
LINE
  5
3AD
330
18
100
AcDbEntity
  8
4
100
AcDbLine
 10
-68.4
 20
0.0
 30
0.0
 11
200.0
 21
0.0
 31
0.0
  0
LINE
  5
3AE
330
18
100
AcDbEntity
  8
1
100
AcDbLine
 10
-68.4
 20
-11.169
 30
0.0
 11
-68.4
 21
-9.500000000000003
 31
0.0
  0
LINE
  5
3AF
330
18
100
AcDbEntity
  8
1
100
AcDbLine
 10
-68.4
 20
-9.500000000000003
 30
0.0
 11
-68.4
 21
0.0
 31
0.0
  0
LINE
  5
3B0
330
18
100
AcDbEntity
  8
1
100
AcDbLine
 10
-68.4
 20
0.0
 30
0.0
 11
-68.4
 21
9.5
 31
0.0
  0
LINE
  5
3B1
330
18
100
AcDbEntity
  8
1
100
AcDbLine
 10
-68.4
 20
9.5
 30
0.0
 11
-68.4
 21
11.16899999999999
 31
0.0
  0
LINE
  5
3B2
330
18
100
AcDbEntity
  8
1
100
AcDbLine
 10
2.200000000000002
 20
-22.327
 30
0.0
 11
0.7000000000000029
 21
-22.327
 31
0.0
  0
LINE
  5
3B3
330
18
100
AcDbEntity
  8
1
100
AcDbLine
 10
0.7000000000000029
 20
-22.327
 30
0.0
 11
-67.33
 21
-12.406
 31
0.0
  0
LINE
  5
3B4
330
18
100
AcDbEntity
  8
1
100
AcDbLine
 10
18.1
 20
-31.775
 30
0.0
 11
15.13199999999999
 21
-31.775
 31
0.0
  0
LINE
  5
3B5
330
18
100
AcDbEntity
  8
1
100
AcDbLine
 10
15.13199999999999
 20
-31.775
 30
0.0
 11
13.14999999999999
 21
-28.341
 31
0.0
  0
LINE
  5
3B6
330
18
100
AcDbEntity
  8
1
100
AcDbLine
 10
13.14999999999999
 20
-28.341
 30
0.0
 11
13.02499999999999
 21
-28.125
 31
0.0
  0
LINE
  5
3B7
330
18
100
AcDbEntity
  8
1
100
AcDbLine
 10
13.02499999999999
 20
-28.125
 30
0.0
 11
11.14999999999999
 21
-28.125
 31
0.0
  0
LINE
  5
3B8
330
18
100
AcDbEntity
  8
1
100
AcDbLine
 10
11.14999999999999
 20
-28.125
 30
0.0
 11
9.274999999999998
 21
-28.125
 31
0.0
  0
LINE
  5
3B9
330
18
100
AcDbEntity
  8
1
100
AcDbLine
 10
9.274999999999998
 20
-28.125
 30
0.0
 11
9.149999999999998
 21
-28.341
 31
0.0
  0
LINE
  5
3BA
330
18
100
AcDbEntity
  8
1
100
AcDbLine
 10
9.149999999999998
 20
-28.341
 30
0.0
 11
7.167999999999999
 21
-31.775
 31
0.0
  0
LINE
  5
3BB
330
18
100
AcDbEntity
  8
1
100
AcDbLine
 10
7.167999999999999
 20
-31.775
 30
0.0
 11
4.200000000000002
 21
-31.775
 31
0.0
  0
LINE
  5
3BC
330
18
100
AcDbEntity
  8
1
100
AcDbLine
 10
4.200000000000002
 20
31.775
 30
0.0
 11
7.167999999999999
 21
31.775
 31
0.0
  0
LINE
  5
3BD
330
18
100
AcDbEntity
  8
1
100
AcDbLine
 10
7.167999999999999
 20
31.775
 30
0.0
 11
9.149999999999998
 21
28.342
 31
0.0
  0
LINE
  5
3BE
330
18
100
AcDbEntity
  8
1
100
AcDbLine
 10
9.149999999999998
 20
28.342
 30
0.0
 11
9.274999999999998
 21
28.125
 31
0.0
  0
LINE
  5
3BF
330
18
100
AcDbEntity
  8
1
100
AcDbLine
 10
9.274999999999998
 20
28.125
 30
0.0
 11
11.14999999999999
 21
28.125
 31
0.0
  0
LINE
  5
3C0
330
18
100
AcDbEntity
  8
1
100
AcDbLine
 10
11.14999999999999
 20
28.125
 30
0.0
 11
13.02499999999999
 21
28.125
 31
0.0
  0
LINE
  5
3C1
330
18
100
AcDbEntity
  8
1
100
AcDbLine
 10
13.02499999999999
 20
28.125
 30
0.0
 11
13.14999999999999
 21
28.342
 31
0.0
  0
LINE
  5
3C2
330
18
100
AcDbEntity
  8
1
100
AcDbLine
 10
13.14999999999999
 20
28.342
 30
0.0
 11
15.13199999999999
 21
31.775
 31
0.0
  0
LINE
  5
3C3
330
18
100
AcDbEntity
  8
1
100
AcDbLine
 10
15.13199999999999
 20
31.775
 30
0.0
 11
18.1
 21
31.775
 31
0.0
  0
LINE
  5
3C4
330
18
100
AcDbEntity
  8
1
100
AcDbLine
 10
-67.33
 20
12.40599999999999
 30
0.0
 11
0.7000000000000029
 21
22.32699999999999
 31
0.0
  0
LINE
  5
3C5
330
18
100
AcDbEntity
  8
1
100
AcDbLine
 10
0.7000000000000029
 20
22.32699999999999
 30
0.0
 11
2.200000000000002
 21
22.32699999999999
 31
0.0
  0
LINE
  5
3C6
330
18
100
AcDbEntity
  8
1
100
AcDbLine
 10
183.0
 20
13.0
 30
0.0
 11
183.0
 21
-13.0
 31
0.0
  0
LINE
  5
3C7
330
18
100
AcDbEntity
  8
1
100
AcDbLine
 10
184.0
 20
-14.0
 30
0.0
 11
197.9789999999999
 21
-14.0
 31
0.0
  0
LINE
  5
3C8
330
18
100
AcDbEntity
  8
1
100
AcDbLine
 10
197.9789999999999
 20
-14.0
 30
0.0
 11
200.0
 21
-10.5
 31
0.0
  0
LINE
  5
3C9
330
18
100
AcDbEntity
  8
1
100
AcDbLine
 10
200.0
 20
-10.5
 30
0.0
 11
200.0
 21
10.5
 31
0.0
  0
LINE
  5
3CA
330
18
100
AcDbEntity
  8
1
100
AcDbLine
 10
200.0
 20
10.5
 30
0.0
 11
197.9789999999999
 21
14.0
 31
0.0
  0
LINE
  5
3CB
330
18
100
AcDbEntity
  8
1
100
AcDbLine
 10
197.9789999999999
 20
14.0
 30
0.0
 11
184.0
 21
14.0
 31
0.0
  0
LINE
  5
3CC
330
18
100
AcDbEntity
  8
1
100
AcDbLine
 10
198.5
 20
6.304999999999999
 30
0.0
 11
191.0
 21
6.304999999999999
 31
0.0
  0
LINE
  5
3CD
330
18
100
AcDbEntity
  8
1
100
AcDbLine
 10
191.0
 20
6.304999999999999
 30
0.0
 11
191.0
 21
-6.305000000000003
 31
0.0
  0
LINE
  5
3CE
330
18
100
AcDbEntity
  8
1
100
AcDbLine
 10
191.0
 20
-6.305000000000003
 30
0.0
 11
198.5
 21
-6.305000000000003
 31
0.0
  0
LINE
  5
3CF
330
18
100
AcDbEntity
  8
1
100
AcDbLine
 10
7.167999999999999
 20
-25.834
 30
0.0
 11
7.167999999999999
 21
-31.775
 31
0.0
  0
LINE
  5
3D0
330
18
100
AcDbEntity
  8
1
100
AcDbLine
 10
7.167999999999999
 20
-8.050000000000004
 30
0.0
 11
7.167999999999999
 21
-18.5
 31
0.0
  0
LINE
  5
3D1
330
18
100
AcDbEntity
  8
1
100
AcDbLine
 10
7.167999999999999
 20
31.775
 30
0.0
 11
7.167999999999999
 21
8.049999999999997
 31
0.0
  0
LINE
  5
3D2
330
18
100
AcDbEntity
  8
1
100
AcDbLine
 10
9.274999999999998
 20
-21.184
 30
0.0
 11
9.274999999999998
 21
-28.125
 31
0.0
  0
LINE
  5
3D3
330
18
100
AcDbEntity
  8
1
100
AcDbLine
 10
9.274999999999998
 20
-8.050000000000004
 30
0.0
 11
9.274999999999998
 21
-18.5
 31
0.0
  0
LINE
  5
3D4
330
18
100
AcDbEntity
  8
1
100
AcDbLine
 10
9.274999999999998
 20
28.125
 30
0.0
 11
9.274999999999998
 21
8.049999999999997
 31
0.0
  0
LINE
  5
3D5
330
18
100
AcDbEntity
  8
1
100
AcDbLine
 10
13.02499999999999
 20
-21.184
 30
0.0
 11
13.02499999999999
 21
-28.125
 31
0.0
  0
LINE
  5
3D6
330
18
100
AcDbEntity
  8
1
100
AcDbLine
 10
13.02499999999999
 20
-8.050000000000004
 30
0.0
 11
13.02499999999999
 21
-18.5
 31
0.0
  0
LINE
  5
3D7
330
18
100
AcDbEntity
  8
1
100
AcDbLine
 10
13.02499999999999
 20
28.125
 30
0.0
 11
13.02499999999999
 21
8.049999999999997
 31
0.0
  0
LINE
  5
3D8
330
18
100
AcDbEntity
  8
1
100
AcDbLine
 10
15.13199999999999
 20
8.049999999999997
 30
0.0
 11
15.13199999999999
 21
31.775
 31
0.0
  0
LINE
  5
3D9
330
18
100
AcDbEntity
  8
1
100
AcDbLine
 10
15.13199999999999
 20
-18.5
 30
0.0
 11
15.13199999999999
 21
-8.050000000000004
 31
0.0
  0
LINE
  5
3DA
330
18
100
AcDbEntity
  8
1
100
AcDbLine
 10
15.13199999999999
 20
-31.775
 30
0.0
 11
15.13199999999999
 21
-25.834
 31
0.0
  0
LINE
  5
3DB
330
18
100
AcDbEntity
  8
1
100
AcDbLine
 10
9.274999999999998
 20
-21.184
 30
0.0
 11
7.167999999999999
 21
-25.834
 31
0.0
  0
LINE
  5
3DC
330
18
100
AcDbEntity
  8
1
100
AcDbLine
 10
7.167999999999999
 20
-25.834
 30
0.0
 11
3.200000000000002
 21
-25.834
 31
0.0
  0
LINE
  5
3DD
330
18
100
AcDbEntity
  8
1
100
AcDbLine
 10
9.274999999999998
 20
-21.184
 30
0.0
 11
13.02499999999999
 21
-21.184
 31
0.0
  0
LINE
  5
3DE
330
18
100
AcDbEntity
  8
1
100
AcDbLine
 10
13.02499999999999
 20
-21.184
 30
0.0
 11
15.13199999999999
 21
-25.834
 31
0.0
  0
LINE
  5
3DF
330
18
100
AcDbEntity
  8
1
100
AcDbLine
 10
15.13199999999999
 20
-25.834
 30
0.0
 11
19.1
 21
-25.834
 31
0.0
  0
LINE
  5
3E0
330
18
100
AcDbEntity
  8
SK4
100
AcDbLine
 10
-72.681
 20
0.0
 30
0.0
 11
201.7959999999999
 21
0.0
 31
0.0
  0
LINE
  5
3E1
330
18
100
AcDbEntity
  8
1
100
AcDbLine
 10
74.1
 20
14.0
 30
0.0
 11
23.37497618531996
 21
17.69484521485866
 31
0.0
  0
LINE
  5
3E2
330
18
100
AcDbEntity
  8
1
100
AcDbLine
 10
74.1
 20
-14.0
 30
0.0
 11
23.37497618531997
 21
-17.69484521485866
 31
0.0
  0
LINE
  5
3E4
330
18
100
AcDbEntity
  8
SK2
100
AcDbLine
 10
197.9789999999999
 20
14.0
 30
0.0
 11
220.0
 21
13.99999999999999
 31
0.0
  0
LINE
  5
3E5
330
18
100
AcDbEntity
  8
SK2
100
AcDbLine
 10
197.9789999999999
 20
-14.0
 30
0.0
 11
220.0
 21
-14.00000000000001
 31
0.0
  0
LINE
  5
3E6
330
18
100
AcDbEntity
  8
SK2
100
AcDbLine
 10
215.0
 20
9.429999999999994
 30
0.0
 11
215.0
 21
-9.430000000000008
 31
0.0
  0
SOLID
  5
3E7
330
18
100
AcDbEntity
  8
SK2
100
AcDbTrace
 10
214.2383333333333
 20
9.429999999999994
 30
0.0
 11
215.7616666666666
 21
9.429999999999994
 31
0.0
 12
215.0
 22
13.99999999999999
 32
0.0
 13
215.0
 23
13.99999999999999
 33
0.0
  0
SOLID
  5
3E8
330
18
100
AcDbEntity
  8
SK2
100
AcDbTrace
 10
214.2383333333333
 20
-9.430000000000008
 30
0.0
 11
215.7616666666666
 21
-9.430000000000008
 31
0.0
 12
215.0
 22
-14.00000000000001
 32
0.0
 13
215.0
 23
-14.00000000000001
 33
0.0
  0
LINE
  5
3EA
330
18
100
AcDbEntity
  8
SK2
100
AcDbLine
 10
19.04999999999999
 20
30.95
 30
0.0
 11
19.05
 21
64.52229022316988
 31
0.0
  0
LINE
  5
3EB
330
18
100
AcDbEntity
  8
SK2
100
AcDbLine
 10
0.0
 20
22.225
 30
0.0
 11
0.0000000000000035
 21
80.0
 31
0.0
  0
LINE
  5
3ED
330
18
100
AcDbEntity
  8
SK3
100
AcDbLine
 10
-59.51133
 20
8.0
 30
0.0
 11
-36.25
 21
8.0
 31
0.0
  0
LINE
  5
3EE
330
18
100
AcDbEntity
  8
SK3
100
AcDbLine
 10
-59.51133
 20
-8.0
 30
0.0
 11
-36.25
 21
-8.0
 31
0.0
  0
LINE
  5
3EF
330
18
100
AcDbEntity
  8
SK3
100
AcDbLine
 10
-58.93133
 20
-7.0
 30
0.0
 11
-25.75
 21
-7.0
 31
0.0
  0
LINE
  5
3F0
330
18
100
AcDbEntity
  8
SK3
100
AcDbLine
 10
-58.93133
 20
7.0
 30
0.0
 11
-25.75
 21
7.0
 31
0.0
  0
LINE
  5
3F1
330
18
100
AcDbEntity
  8
SK2
100
AcDbLine
 10
4.000000000328171
 20
-31.75
 30
0.0
 11
-103.9499999999999
 21
-31.74999999999997
 31
0.0
  0
LINE
  5
3F2
330
18
100
AcDbEntity
  8
SK2
100
AcDbLine
 10
4.0
 20
31.75
 30
0.0
 11
-103.9499999999999
 21
31.75000000000002
 31
0.0
  0
TEXT
  5
3F3
330
18
100
AcDbEntity
  8
6
100
AcDbText
 10
-59.90713279259613
 20
10.18014777577948
 30
0.0
 40
3.0
  1
SK40 DIN69871ADB
  7
SIMPLEX
100
AcDbText
  0
LINE
  5
3F4
330
18
100
AcDbEntity
  8
SK2
100
AcDbLine
 10
-98.95000000000001
 20
-27.17999999999997
 30
0.0
 11
-98.95000000000001
 21
27.18000000000003
 31
0.0
  0
SOLID
  5
3F5
330
18
100
AcDbEntity
  8
SK2
100
AcDbTrace
 10
-99.71166666666668
 20
-27.17999999999997
 30
0.0
 11
-98.18833333333333
 21
-27.17999999999997
 31
0.0
 12
-98.95000000000001
 22
-31.74999999999997
 32
0.0
 13
-98.95000000000001
 23
-31.74999999999997
 33
0.0
  0
SOLID
  5
3F7
330
18
100
AcDbEntity
  8
SK2
100
AcDbTrace
 10
-99.71166666666668
 20
27.18000000000003
 30
0.0
 11
-98.18833333333333
 21
27.18000000000003
 31
0.0
 12
-98.95000000000001
 22
31.75000000000002
 32
0.0
 13
-98.95000000000001
 23
31.75000000000002
 33
0.0
  0
ARC
  5
3F9
330
18
100
AcDbEntity
  8
SK3
100
AcDbCircle
 10
-67.5
 20
-9.25453
 30
0.0
 40
0.75
100
AcDbArc
 50
90.0000000235031
 51
180.0000000235031
  0
ARC
  5
3FA
330
18
100
AcDbEntity
  8
SK3
100
AcDbCircle
 10
-67.5
 20
9.25453
 30
0.0
 40
0.75
100
AcDbArc
 50
180.0
 51
270.0
  0
LINE
  5
3FB
330
18
100
AcDbEntity
  8
SK3
100
AcDbLine
 10
-59.8
 20
8.5
 30
0.0
 11
-59.8
 21
-8.504530000000004
 31
0.0
  0
LINE
  5
3FC
330
18
100
AcDbEntity
  8
SK3
100
AcDbLine
 10
-58.93133
 20
-7.0
 30
0.0
 11
-58.93133
 21
7.0
 31
0.0
  0
LINE
  5
3FD
330
18
100
AcDbEntity
  8
SK3
100
AcDbLine
 10
-67.5
 20
-8.504530000000002
 30
0.0
 11
-59.8
 21
-8.504530000000002
 31
0.0
  0
LINE
  5
3FE
330
18
100
AcDbEntity
  8
SK3
100
AcDbLine
 10
-58.93133
 20
-7.0
 30
0.0
 11
-59.8
 21
-8.504530000000002
 31
0.0
  0
LINE
  5
3FF
330
18
100
AcDbEntity
  8
SK3
100
AcDbLine
 10
-67.5
 20
8.504530000000002
 30
0.0
 11
-59.8
 21
8.504530000000002
 31
0.0
  0
LINE
  5
400
330
18
100
AcDbEntity
  8
SK3
100
AcDbLine
 10
-58.93133
 20
7.0
 30
0.0
 11
-59.8
 21
8.504530000000002
 31
0.0
  0
LINE
  5
402
330
18
100
AcDbEntity
  8
SK3
100
AcDbLine
 10
-36.25
 20
8.0
 30
0.0
 11
-36.25
 21
-8.0
 31
0.0
  0
LINE
  5
403
330
18
100
AcDbEntity
  8
SK3
100
AcDbLine
 10
-25.75
 20
7.0
 30
0.0
 11
-25.75
 21
-7.0
 31
0.0
  0
LINE
  5
404
330
18
100
AcDbEntity
  8
SK3
100
AcDbLine
 10
-24.30661785714286
 20
-4.499999999999997
 30
0.0
 11
-25.75
 21
-7.0
 31
0.0
  0
LINE
  5
405
330
18
100
AcDbEntity
  8
SK3
100
AcDbLine
 10
-24.30661785714286
 20
4.499999999999997
 30
0.0
 11
-25.75
 21
7.0
 31
0.0
  0
LINE
  5
406
330
18
100
AcDbEntity
  8
SK2
100
AcDbLine
 10
4.570000000000003
 20
60.0
 30
0.0
 11
14.48
 21
60.0
 31
0.0
  0
SOLID
  5
407
330
18
100
AcDbEntity
  8
SK2
100
AcDbTrace
 10
4.570000000000003
 20
60.76166666666667
 30
0.0
 11
4.570000000000003
 21
59.23833333333333
 31
0.0
 12
0.0000000000000032
 22
60.0
 32
0.0
 13
0.0000000000000032
 23
60.0
 33
0.0
  0
LINE
  5
408
330
18
100
AcDbEntity
  8
SK2
100
AcDbLine
 10
19.05
 20
60.0
 30
0.0
 11
45.62952380952381
 21
60.0
 31
0.0
  0
SOLID
  5
40A
330
18
100
AcDbEntity
  8
SK2
100
AcDbTrace
 10
14.48
 20
60.76166666666667
 30
0.0
 11
14.48
 21
59.23833333333333
 31
0.0
 12
19.05
 22
60.0
 32
0.0
 13
19.05
 23
60.0
 33
0.0
  0
LINE
  5
43F
330
18
100
AcDbEntity
  8
SK3
100
AcDbLine
 10
191.5
 20
14.0
 30
0.0
 11
191.5
 21
-14.0
 31
0.0
  0
LINE
  5
440
330
18
100
AcDbEntity
  8
SK3
100
AcDbLine
 10
191.5
 20
7.574999999999988
 30
0.0
 11
170.5
 21
4.5
 31
0.0
  0
LINE
  5
441
330
18
100
AcDbEntity
  8
SK3
100
AcDbLine
 10
191.5
 20
-7.574999999999988
 30
0.0
 11
170.5
 21
-4.5
 31
0.0
  0
LINE
  5
442
330
18
100
AcDbEntity
  8
SK3
100
AcDbLine
 10
165.0
 20
5.800000000000011
 30
0.0
 11
165.0
 21
-5.800000000000011
 31
0.0
  0
LINE
  5
443
330
18
100
AcDbEntity
  8
SK3
100
AcDbLine
 10
170.5
 20
-5.800000000000011
 30
0.0
 11
170.5
 21
5.800000000000011
 31
0.0
  0
LINE
  5
444
330
18
100
AcDbEntity
  8
SK3
100
AcDbLine
 10
165.7
 20
-6.5
 30
0.0
 11
169.7999999999999
 21
-6.5
 31
0.0
  0
ARC
  5
445
330
18
100
AcDbEntity
  8
SK3
100
AcDbCircle
 10
165.7
 20
-5.800000000000011
 30
0.0
 40
0.7
100
AcDbArc
 50
180.0
 51
270.0
  0
ARC
  5
446
330
18
100
AcDbEntity
  8
SK3
100
AcDbCircle
 10
169.7999999999999
 20
-5.800000000000011
 30
0.0
 40
0.7
100
AcDbArc
 50
270.0
 51
0.0
  0
LINE
  5
447
330
18
100
AcDbEntity
  8
SK3
100
AcDbLine
 10
169.8
 20
6.5
 30
0.0
 11
165.7
 21
6.5
 31
0.0
  0
ARC
  5
448
330
18
100
AcDbEntity
  8
SK3
100
AcDbCircle
 10
165.7
 20
5.800000000000011
 30
0.0
 40
0.7
100
AcDbArc
 50
90.0
 51
180.0
  0
ARC
  5
449
330
18
100
AcDbEntity
  8
SK3
100
AcDbCircle
 10
169.8
 20
5.800000000000011
 30
0.0
 40
0.7
100
AcDbArc
 50
0.0
 51
90.0
  0
LINE
  5
44A
330
18
100
AcDbEntity
  8
SK3
100
AcDbLine
 10
164.9999999999999
 20
4.5
 30
0.0
 11
-24.30661785714285
 21
4.5
 31
0.0
  0
LINE
  5
44B
330
18
100
AcDbEntity
  8
SK3
100
AcDbLine
 10
164.9999999999999
 20
-4.5
 30
0.0
 11
-24.30661785714285
 21
-4.5
 31
0.0
  0
LINE
  5
44C
330
18
100
AcDbEntity
  8
SK3
100
AcDbLine
 10
-24.30661785714285
 20
4.5
 30
0.0
 11
-24.30661785714285
 21
-4.5
 31
0.0
  0
LINE
  5
44E
330
18
100
AcDbEntity
  8
SK2
100
AcDbLine
 10
0.0
 20
22.225
 30
0.0
 11
-10.94999999999999
 21
22.225
 31
0.0
  0
LINE
  5
44F
330
18
100
AcDbEntity
  8
SK2
100
AcDbLine
 10
0.0
 20
-22.225
 30
0.0
 11
-10.95
 21
-22.22499999999999
 31
0.0
  0
LINE
  5
450
330
18
100
AcDbEntity
  8
SK2
100
AcDbLine
 10
-5.949999999999993
 20
17.655
 30
0.0
 11
-5.950000000000001
 21
-17.655
 31
0.0
  0
SOLID
  5
451
330
18
100
AcDbEntity
  8
SK2
100
AcDbTrace
 10
-6.71166666666666
 20
17.655
 30
0.0
 11
-5.188333333333327
 21
17.655
 31
0.0
 12
-5.949999999999992
 22
22.225
 32
0.0
 13
-5.949999999999992
 23
22.225
 33
0.0
  0
SOLID
  5
452
330
18
100
AcDbEntity
  8
SK2
100
AcDbTrace
 10
-6.711666666666667
 20
-17.655
 30
0.0
 11
-5.188333333333334
 21
-17.655
 31
0.0
 12
-5.950000000000002
 22
-22.225
 32
0.0
 13
-5.950000000000002
 23
-22.225
 33
0.0
  0
LINE
  5
454
330
18
100
AcDbEntity
  8
SK2
100
AcDbLine
 10
-59.51133
 20
-7.999999999999999
 30
0.0
 11
-88.95000000000001
 21
-7.999999999999991
 31
0.0
  0
LINE
  5
455
330
18
100
AcDbEntity
  8
SK2
100
AcDbLine
 10
-59.51133
 20
8.0
 30
0.0
 11
-88.95000000000001
 21
8.000000000000008
 31
0.0
  0
LINE
  5
456
330
18
100
AcDbEntity
  8
SK2
100
AcDbLine
 10
-83.95000000000001
 20
-3.429999999999991
 30
0.0
 11
-83.95000000000001
 21
3.430000000000006
 31
0.0
  0
LINE
  5
457
330
18
100
AcDbEntity
  8
SK2
100
AcDbLine
 10
-83.95000000000001
 20
8.000000000000007
 30
0.0
 11
-83.95000000000001
 21
28.70380952380953
 31
0.0
  0
SOLID
  5
458
330
18
100
AcDbEntity
  8
SK2
100
AcDbTrace
 10
-84.71166666666666
 20
-3.429999999999991
 30
0.0
 11
-83.18833333333333
 21
-3.429999999999991
 31
0.0
 12
-83.95000000000001
 22
-7.999999999999992
 32
0.0
 13
-83.95000000000001
 23
-7.999999999999992
 33
0.0
  0
SOLID
  5
459
330
18
100
AcDbEntity
  8
SK2
100
AcDbTrace
 10
-84.71166666666666
 20
3.430000000000006
 30
0.0
 11
-83.18833333333333
 21
3.430000000000006
 31
0.0
 12
-83.95000000000001
 22
8.000000000000007
 32
0.0
 13
-83.95000000000001
 23
8.000000000000007
 33
0.0
  0
LINE
  5
45B
330
18
100
AcDbEntity
  8
SK2
100
AcDbLine
 10
-68.4
 20
11.45313
 30
0.0
 11
-68.4
 21
80.0
 31
0.0
  0
LINE
  5
45C
330
18
100
AcDbEntity
  8
SK2
100
AcDbLine
 10
0.0
 20
22.225
 30
0.0
 11
0.0000000000000035
 21
80.0
 31
0.0
  0
LINE
  5
45D
330
18
100
AcDbEntity
  8
SK2
100
AcDbLine
 10
-63.83
 20
75.0
 30
0.0
 11
-4.569999999999996
 21
75.0
 31
0.0
  0
SOLID
  5
45E
330
18
100
AcDbEntity
  8
SK2
100
AcDbTrace
 10
-63.83
 20
75.76166666666667
 30
0.0
 11
-63.83
 21
74.23833333333333
 31
0.0
 12
-68.4
 22
75.0
 32
0.0
 13
-68.4
 23
75.0
 33
0.0
  0
SOLID
  5
45F
330
18
100
AcDbEntity
  8
SK2
100
AcDbTrace
 10
-4.569999999999996
 20
75.76166666666667
 30
0.0
 11
-4.569999999999996
 21
74.23833333333333
 31
0.0
 12
0.0000000000000032
 22
75.0
 32
0.0
 13
0.0000000000000032
 23
75.0
 33
0.0
  0
LINE
  5
461
330
18
100
AcDbEntity
  8
2
100
AcDbLine
 10
0.0
 20
25.113
 30
0.0
 11
0.0000000000000034
 21
80.0
 31
0.0
  0
LINE
  5
462
330
18
100
AcDbEntity
  8
2
100
AcDbLine
 10
200.0
 20
10.5
 30
0.0
 11
200.0
 21
80.0
 31
0.0
  0
LINE
  5
463
330
18
100
AcDbEntity
  8
2
100
AcDbLine
 10
4.570000000000002
 20
75.0
 30
0.0
 11
195.43
 21
75.0
 31
0.0
  0
SOLID
  5
464
330
18
100
AcDbEntity
  8
2
100
AcDbTrace
 10
4.570000000000002
 20
75.76166666666667
 30
0.0
 11
4.570000000000002
 21
74.23833333333333
 31
0.0
 12
0.0000000000000031
 22
75.0
 32
0.0
 13
0.0000000000000031
 23
75.0
 33
0.0
  0
SOLID
  5
465
330
18
100
AcDbEntity
  8
2
100
AcDbTrace
 10
195.43
 20
75.76166666666667
 30
0.0
 11
195.43
 21
74.23833333333333
 31
0.0
 12
200.0
 22
75.0
 32
0.0
 13
200.0
 23
75.0
 33
0.0
  0
TEXT
  5
467
330
18
100
AcDbEntity
  8
2
100
AcDbText
 10
94.12428571428572
 20
77.3
 30
0.0
 40
4.57
  1
200
  7
SIMPLEX
100
AcDbText
  0
TEXT
  5
468
330
18
100
AcDbEntity
  8
SK2
100
AcDbText
 10
-41.27261904761905
 20
77.3
 30
0.0
 40
4.57
  1
68.4
  7
SIMPLEX
100
AcDbText
  0
TEXT
  5
469
330
18
100
AcDbEntity
  8
SK2
100
AcDbText
 10
-86.25
 20
14.86999999999999
 30
0.0
 40
4.57
  1
M16
 50
90.0
  7
SIMPLEX
100
AcDbText
  0
TEXT
  5
46A
330
18
100
AcDbEntity
  8
SK2
100
AcDbText
 10
-8.25
 20
-11.20738095238094
 30
0.0
 40
4.57
  1
%%c
 50
90.0
  7
SIMPLEX
100
AcDbText
  0
TEXT
  5
46B
330
18
100
AcDbEntity
  8
SK2
100
AcDbText
 10
-8.25
 20
-7.072619047619045
 30
0.0
 40
4.57
  1
44.45
 50
90.0
  7
SIMPLEX
100
AcDbText
  0
TEXT
  5
46C
330
18
100
AcDbEntity
  8
SK2
100
AcDbText
 10
29.07547619047619
 20
62.30000000000001
 30
0.0
 40
4.57
  1
19.1
  7
SIMPLEX
100
AcDbText
  0
TEXT
  5
46D
330
18
100
AcDbEntity
  8
SK2
100
AcDbText
 10
-101.2499999999999
 20
-11.20738095238093
 30
0.0
 40
4.57
  1
%%c
 50
90.0
  7
SIMPLEX
100
AcDbText
  0
TEXT
  5
46E
330
18
100
AcDbEntity
  8
SK2
100
AcDbText
 10
-101.2499999999999
 20
-7.072619047619034
 30
0.0
 40
4.57
  1
63.55
 50
90.0
  7
SIMPLEX
100
AcDbText
  0
TEXT
  5
46F
330
18
100
AcDbEntity
  8
SK2
100
AcDbText
 10
212.6999999999999
 20
-5.766904761904731
 30
0.0
 40
4.57
  1
%%c
 50
90.0
  7
SIMPLEX
100
AcDbText
  0
TEXT
  5
470
330
18
100
AcDbEntity
  8
SK2
100
AcDbText
 10
212.6999999999999
 20
-1.632142857142826
 30
0.0
 40
4.57
  1
28
 50
90.0
  7
SIMPLEX
100
AcDbText
  0
ENDSEC
  0
SECTION
  2
OBJECTS
  0
DICTIONARY
  5
C
330
0
100
AcDbDictionary
  3
ACAD_GROUP
350
D
  3
ACAD_LAYOUT
350
301
  3
ACAD_MLINESTYLE
350
E
  3
ACAD_PLOTSETTINGS
350
302
1001
ACAD
1000
TREAT_AS_HARD
1070
     0
  0
DICTIONARY
  5
472
330
18
100
AcDbDictionary
  3
ACAD_LAYOUTSELFREF
350
473
  0
DICTIONARY
  5
474
330
338
100
AcDbDictionary
  3
ACAD_LAYOUTSELFREF
350
475
  0
DICTIONARY
  5
D
102
{ACAD_REACTORS
330
C
102
}
330
C
100
AcDbDictionary
1001
ACAD
1000
TREAT_AS_HARD
1070
     0
  0
DICTIONARY
  5
301
102
{ACAD_REACTORS
330
C
102
}
330
C
100
AcDbDictionary
1001
ACAD
1000
TREAT_AS_HARD
1070
     0
  0
DICTIONARY
  5
E
102
{ACAD_REACTORS
330
C
102
}
330
C
100
AcDbDictionary
  3
STANDARD
350
1B
1001
ACAD
1000
TREAT_AS_HARD
1070
     0
  0
DICTIONARY
  5
302
102
{ACAD_REACTORS
330
C
102
}
330
C
100
AcDbDictionary
1001
ACAD
1000
TREAT_AS_HARD
1070
     0
  0
XRECORD
  5
473
102
{ACAD_REACTORS
330
472
102
}
330
472
100
AcDbXrecord
340
18
  0
XRECORD
  5
475
102
{ACAD_REACTORS
330
474
102
}
330
474
100
AcDbXrecord
340
338
  0
MLINESTYLE
  5
1B
102
{ACAD_REACTORS
330
E
102
}
330
E
100
AcDbMlineStyle
  2
STANDARD
 70
     0
  3

 62
     0
 51
90.0
 52
90.0
 71
     2
 49
0.5
 62
   256
  6
BYLAYER
 49
-0.5
 62
   256
  6
BYLAYER
  0
ENDSEC
  0
EOF
