  0
SECTION
  2
HEADER
  9
$ACADVER
  1
AC1009
  9
$DWGCODEPAGE
  3
ansi_1252
  9
$INSBASE
 10
0.0
 20
0.0
 30
0.0
  9
$EXTMIN
 10
0.0
 20
0.0
 30
0.0
  9
$EXTMAX
 10
180.0
 20
160.0
 30
0.0
  9
$LIMMIN
 10
0.0
 20
0.0
  9
$LIMMAX
 10
180.0
 20
160.0
  9
$ORTHOMODE
 70
     0
  9
$REGENMODE
 70
     1
  9
$FILLMODE
 70
     1
  9
$QTEXTMODE
 70
     0
  9
$MIRRTEXT
 70
     1
  9
$DRAGMODE
 70
     2
  9
$LTSCALE
 40
1.0
  9
$OSMODE
 70
    37
  9
$ATTMODE
 70
     1
  9
$TEXTSIZE
 40
2.5
  9
$TRACEWID
 40
1.0
  9
$TEXTSTYLE
  7
STANDARD
  9
$CLAYER
  8
0
  9
$CELTYPE
  6
BYLAYER
  9
$CECOLOR
 62
   256
  9
$DIMSCALE
 40
1.0
  9
$DIMASZ
 40
2.5
  9
$DIMEXO
 40
0.625
  9
$DIMDLI
 40
3.75
  9
$DIMRND
 40
0.0
  9
$DIMDLE
 40
0.0
  9
$DIMEXE
 40
1.25
  9
$DIMTP
 40
0.0
  9
$DIMTM
 40
0.0
  9
$DIMTXT
 40
2.5
  9
$DIMCEN
 40
2.5
  9
$DIMTSZ
 40
0.0
  9
$DIMTOL
 70
     0
  9
$DIMLIM
 70
     0
  9
$DIMTIH
 70
     0
  9
$DIMTOH
 70
     0
  9
$DIMSE1
 70
     0
  9
$DIMSE2
 70
     0
  9
$DIMTAD
 70
     1
  9
$DIMZIN
 70
     8
  9
$DIMBLK
  1

  9
$DIMASO
 70
     1
  9
$DIMSHO
 70
     1
  9
$DIMPOST
  1

  9
$DIMAPOST
  1

  9
$DIMALT
 70
     0
  9
$DIMALTD
 70
     3
  9
$DIMALTF
 40
0.0393700787
  9
$DIMLFAC
 40
1.0
  9
$DIMTOFL
 70
     1
  9
$DIMTVP
 40
0.0
  9
$DIMTIX
 70
     0
  9
$DIMSOXD
 70
     0
  9
$DIMSAH
 70
     0
  9
$DIMBLK1
  1

  9
$DIMBLK2
  1

  9
$DIMSTYLE
  2
ISO-25
  9
$DIMCLRD
 70
     0
  9
$DIMCLRE
 70
     0
  9
$DIMCLRT
 70
     0
  9
$DIMTFAC
 40
1.0
  9
$DIMGAP
 40
0.625
  9
$LUNITS
 70
     2
  9
$LUPREC
 70
     4
  9
$SKETCHINC
 40
1.0
  9
$FILLETRAD
 40
10.0
  9
$AUNITS
 70
     0
  9
$AUPREC
 70
     0
  9
$MENU
  1
.
  9
$ELEVATION
 40
0.0
  9
$PELEVATION
 40
0.0
  9
$THICKNESS
 40
0.0
  9
$LIMCHECK
 70
     0
  9
$CHAMFERA
 40
10.0
  9
$CHAMFERB
 40
10.0
  9
$SKPOLY
 70
     0
  9
$TDCREATE
 40
2455378.390467836
  9
$TDUPDATE
 40
2455378.390467847
  9
$TDINDWG
 40
0.0000000116
  9
$TDUSRTIMER
 40
0.0000000116
  9
$USRTIMER
 70
     1
  9
$ANGBASE
 50
0.0
  9
$ANGDIR
 70
     0
  9
$PDMODE
 70
     0
  9
$PDSIZE
 40
0.0
  9
$PLINEWID
 40
0.0
  9
$COORDS
 70
     1
  9
$SPLFRAME
 70
     0
  9
$SPLINETYPE
 70
     6
  9
$SPLINESEGS
 70
     8
  9
$ATTDIA
 70
     0
  9
$ATTREQ
 70
     1
  9
$HANDLING
 70
     1
  9
$HANDSEED
  5
168
  9
$SURFTAB1
 70
     6
  9
$SURFTAB2
 70
     6
  9
$SURFTYPE
 70
     6
  9
$SURFU
 70
     6
  9
$SURFV
 70
     6
  9
$UCSNAME
  2

  9
$UCSORG
 10
0.0
 20
0.0
 30
0.0
  9
$UCSXDIR
 10
1.0
 20
0.0
 30
0.0
  9
$UCSYDIR
 10
0.0
 20
1.0
 30
0.0
  9
$PUCSNAME
  2

  9
$PUCSORG
 10
0.0
 20
0.0
 30
0.0
  9
$PUCSXDIR
 10
1.0
 20
0.0
 30
0.0
  9
$PUCSYDIR
 10
0.0
 20
1.0
 30
0.0
  9
$USERI1
 70
     0
  9
$USERI2
 70
     0
  9
$USERI3
 70
     0
  9
$USERI4
 70
     0
  9
$USERI5
 70
     0
  9
$USERR1
 40
0.0
  9
$USERR2
 40
0.0
  9
$USERR3
 40
0.0
  9
$USERR4
 40
0.0
  9
$USERR5
 40
0.0
  9
$WORLDVIEW
 70
     1
  9
$SHADEDGE
 70
     3
  9
$SHADEDIF
 70
    70
  9
$TILEMODE
 70
     1
  9
$MAXACTVP
 70
    64
  9
$PLIMCHECK
 70
     0
  9
$PEXTMIN
 10
0.0
 20
0.0
 30
0.0
  9
$PEXTMAX
 10
180.0
 20
160.0
 30
0.0
  9
$PLIMMIN
 10
0.0
 20
0.0
  9
$PLIMMAX
 10
180.0
 20
160.0
  9
$UNITMODE
 70
     0
  9
$VISRETAIN
 70
     1
  9
$PLINEGEN
 70
     0
  9
$PSLTSCALE
 70
     1
  0
ENDSEC
  0
SECTION
  2
TABLES
  0
TABLE
  2
VPORT
 70
     1
  0
VPORT
  2
*ACTIVE
 70
     0
 10
0.0
 20
0.0
 11
1.0
 21
1.0
 12
344.1869158879
 22
148.5
 13
0.0
 23
0.0
 14
10.0
 24
10.0
 15
10.0
 25
10.0
 16
0.0
 26
0.0
 36
1.0
 17
0.0
 27
0.0
 37
0.0
 40
297.0
 41
1.9729729729
 42
50.0
 43
0.0
 44
0.0
 50
0.0
 51
0.0
 71
     0
 72
   100
 73
     1
 74
     3
 75
     0
 76
     0
 77
     0
 78
     0
  0
ENDTAB
  0
TABLE
  2
LTYPE
 70
     3
  0
LTYPE
  2
CONTINUOUS
 70
     0
  3
Solid line
 72
    65
 73
     0
 40
0.0
  0
LTYPE
  2
HIDDEN2
 70
     0
  3
Hidden (.5x) _ _ _ _ _ _ _ _ _ _ _ _ _ _ _ _ _ 
 72
    65
 73
     2
 40
4.7625
 49
3.175
 49
-1.5875
  0
LTYPE
  2
CENTER2
 70
     0
  3
Center (.5x) ___ _ ___ _ ___ _ ___ _ ___ _ ___
 72
    65
 73
     4
 40
28.575
 49
19.05
 49
-3.175
 49
3.175
 49
-3.175
  0
ENDTAB
  0
TABLE
  2
LAYER
 70
     4
  0
LAYER
  2
0
 70
     0
 62
     7
  6
CONTINUOUS
  0
LAYER
  2
DEFAULT
 70
     0
 62
     7
  6
CONTINUOUS
  0
LAYER
  2
DV1_0
 70
     0
 62
     7
  6
CONTINUOUS
  0
LAYER
  2
DV1_STANDARD
 70
     0
 62
     7
  6
CONTINUOUS
  0
ENDTAB
  0
TABLE
  2
STYLE
 70
     3
  0
STYLE
  2
STANDARD
 70
     0
 40
0.0
 41
1.0
 50
0.0
 71
     0
 42
2.5
  3
txt
  4

  0
STYLE
  2
SEACAD_ARIAL_TTF
 70
     0
 40
0.0
 41
1.0
 50
0.0
 71
     0
 42
0.2
  3
arial.ttf
  4

  0
STYLE
  2
SEACAD_SEMECA1_TTF
 70
     0
 40
0.0
 41
1.0
 50
0.0
 71
     0
 42
0.2
  3
semeca1.ttf
  4

  0
ENDTAB
  0
TABLE
  2
VIEW
 70
     0
  0
ENDTAB
  0
TABLE
  2
UCS
 70
     0
  0
ENDTAB
  0
TABLE
  2
APPID
 70
     1
  0
APPID
  2
ACAD
 70
     0
  0
ENDTAB
  0
TABLE
  2
DIMSTYLE
 70
     1
  0
DIMSTYLE
  2
ISO-25
 70
     0
  3

  4

  5

  6

  7

 40
1.0
 41
2.5
 42
0.625
 43
3.75
 44
1.25
 45
0.0
 46
0.0
 47
0.0
 48
0.0
140
2.5
141
2.5
142
0.0
143
0.0393700787
144
1.0
145
0.0
146
1.0
147
0.625
 71
     0
 72
     0
 73
     0
 74
     0
 75
     0
 76
     0
 77
     1
 78
     8
170
     0
171
     3
172
     1
173
     0
174
     0
175
     0
176
     0
177
     0
178
     0
  0
ENDTAB
  0
ENDSEC
  0
SECTION
  2
BLOCKS
  0
BLOCK
  8
0
  2
$MODEL_SPACE
 70
     0
 10
0.0
 20
0.0
 30
0.0
  3
$MODEL_SPACE
  1

  0
ENDBLK
  5
21
  8
0
  0
BLOCK
 67
     1
  8
0
  2
$PAPER_SPACE
 70
     0
 10
0.0
 20
0.0
 30
0.0
  3
$PAPER_SPACE
  1

  0
ENDBLK
  5
1D
 67
     1
  8
0
  0
BLOCK
  8
0
  2
SE
 70
     0
 10
0.0
 20
0.0
 30
0.0
  3
SE
  1

  0
LINE
  5
62
  8
DV1_0
  6
HIDDEN2
 62
     7
 10
73.2816398714
 20
91.5956826853
 30
0.0
 11
73.2816398714
 21
82.6356805491
 31
0.0
  0
LINE
  5
63
  8
DV1_0
  6
HIDDEN2
 62
     7
 10
76.3127284134
 20
93.3456826853
 30
0.0
 11
76.3127284134
 21
80.8856805491
 31
0.0
  0
LINE
  5
64
  8
DV1_0
  6
HIDDEN2
 62
     7
 10
77.0127284134
 20
94.3956826853
 30
0.0
 11
77.0127284134
 21
79.8356805491
 31
0.0
  0
LINE
  5
65
  8
DV1_0
  6
CONTINUOUS
 62
     7
 10
85.4127280796
 20
96.5656816172
 30
0.0
 11
85.4127280796
 21
77.6656816172
 31
0.0
  0
LINE
  5
66
  8
DV1_0
  6
CONTINUOUS
 62
     7
 10
73.1627284134
 20
95.2594648051
 30
0.0
 11
73.1627284134
 21
78.9718984294
 31
0.0
  0
LINE
  5
67
  8
DV1_0
  6
CONTINUOUS
 62
     7
 10
74.1189471665
 20
77.3272450672
 30
0.0
 11
74.1189471665
 21
77.3156816172
 31
0.0
  0
ARC
  5
68
  8
DV1_0
  6
CONTINUOUS
 62
     7
 10
77.8143428159
 20
79.5682702232
 30
0.0
 40
4.321821694085006
 50
148.7658217231
 51
211.2341782769
  0
LINE
  5
69
  8
DV1_0
  6
CONTINUOUS
 62
     7
 10
79.8127284134
 20
77.3272450672
 30
0.0
 11
74.1189471665
 21
77.3272450672
 31
0.0
  0
LINE
  5
6A
  8
DV1_0
  6
CONTINUOUS
 62
     7
 10
79.8127284134
 20
81.8092953793
 30
0.0
 11
79.8127284134
 21
77.3272450672
 31
0.0
  0
LINE
  5
6B
  8
DV1_0
  6
CONTINUOUS
 62
     7
 10
74.1189471665
 20
81.8092953793
 30
0.0
 11
79.8127284134
 21
81.8092953793
 31
0.0
  0
LINE
  5
6C
  8
DV1_0
  6
CONTINUOUS
 62
     7
 10
74.1189471665
 20
82.6336313052
 30
0.0
 11
74.1189471665
 21
81.8092953793
 31
0.0
  0
POLYLINE
  5
6D
  8
DV1_0
  6
CONTINUOUS
 62
     7
 66
     1
 10
0.0
 20
0.0
 30
0.0
  0
VERTEX
  5
104
  8
DV1_0
  6
CONTINUOUS
 62
     7
 10
74.1189471665
 20
82.6336313052
 30
0.0
  0
VERTEX
  5
105
  8
DV1_0
  6
CONTINUOUS
 62
     7
 10
74.0622161735
 20
82.8529113241
 30
0.0
  0
VERTEX
  5
106
  8
DV1_0
  6
CONTINUOUS
 62
     7
 10
74.007726195
 20
83.0727472806
 30
0.0
  0
VERTEX
  5
107
  8
DV1_0
  6
CONTINUOUS
 62
     7
 10
73.9555495128
 20
83.2931313307
 30
0.0
  0
VERTEX
  5
108
  8
DV1_0
  6
CONTINUOUS
 62
     7
 10
73.9057584083
 20
83.5140556305
 30
0.0
  0
VERTEX
  5
109
  8
DV1_0
  6
CONTINUOUS
 62
     7
 10
73.8584251633
 20
83.7355123359
 30
0.0
  0
VERTEX
  5
10A
  8
DV1_0
  6
CONTINUOUS
 62
     7
 10
73.8136220593
 20
83.957493603
 30
0.0
  0
VERTEX
  5
10B
  8
DV1_0
  6
CONTINUOUS
 62
     7
 10
73.7714213781
 20
84.1799915879
 30
0.0
  0
VERTEX
  5
10C
  8
DV1_0
  6
CONTINUOUS
 62
     7
 10
73.7318954011
 20
84.4029984465
 30
0.0
  0
VERTEX
  5
10D
  8
DV1_0
  6
CONTINUOUS
 62
     7
 10
73.6951164101
 20
84.6265063348
 30
0.0
  0
VERTEX
  5
10E
  8
DV1_0
  6
CONTINUOUS
 62
     7
 10
73.6611566866
 20
84.850507409
 30
0.0
  0
VERTEX
  5
10F
  8
DV1_0
  6
CONTINUOUS
 62
     7
 10
73.6300885123
 20
85.074993825
 30
0.0
  0
VERTEX
  5
110
  8
DV1_0
  6
CONTINUOUS
 62
     7
 10
73.6019841688
 20
85.2999577388
 30
0.0
  0
VERTEX
  5
111
  8
DV1_0
  6
CONTINUOUS
 62
     7
 10
73.5769159376
 20
85.5253913065
 30
0.0
  0
VERTEX
  5
112
  8
DV1_0
  6
CONTINUOUS
 62
     7
 10
73.5549561006
 20
85.7512866841
 30
0.0
  0
VERTEX
  5
113
  8
DV1_0
  6
CONTINUOUS
 62
     7
 10
73.5361769391
 20
85.9776360276
 30
0.0
  0
VERTEX
  5
114
  8
DV1_0
  6
CONTINUOUS
 62
     7
 10
73.520650735
 20
86.2044314931
 30
0.0
  0
VERTEX
  5
115
  8
DV1_0
  6
CONTINUOUS
 62
     7
 10
73.5084497697
 20
86.4316652366
 30
0.0
  0
VERTEX
  5
116
  8
DV1_0
  6
CONTINUOUS
 62
     7
 10
73.4996463249
 20
86.659329414
 30
0.0
  0
VERTEX
  5
117
  8
DV1_0
  6
CONTINUOUS
 62
     7
 10
73.4943126823
 20
86.8874161815
 30
0.0
  0
VERTEX
  5
118
  8
DV1_0
  6
CONTINUOUS
 62
     7
 10
73.4925211235
 20
87.115917695
 30
0.0
  0
VERTEX
  5
119
  8
DV1_0
  6
CONTINUOUS
 62
     7
 10
73.4943048343
 20
87.3443616134
 30
0.0
  0
VERTEX
  5
11A
  8
DV1_0
  6
CONTINUOUS
 62
     7
 10
73.4996037084
 20
87.5722874722
 30
0.0
  0
VERTEX
  5
11B
  8
DV1_0
  6
CONTINUOUS
 62
     7
 10
73.5083500885
 20
87.7997052426
 30
0.0
  0
VERTEX
  5
11C
  8
DV1_0
  6
CONTINUOUS
 62
     7
 10
73.5204763174
 20
88.026624896
 30
0.0
  0
VERTEX
  5
11D
  8
DV1_0
  6
CONTINUOUS
 62
     7
 10
73.5359147379
 20
88.2530564033
 30
0.0
  0
VERTEX
  5
11E
  8
DV1_0
  6
CONTINUOUS
 62
     7
 10
73.554597693
 20
88.479009736
 30
0.0
  0
VERTEX
  5
11F
  8
DV1_0
  6
CONTINUOUS
 62
     7
 10
73.5764575254
 20
88.7044948652
 30
0.0
  0
VERTEX
  5
120
  8
DV1_0
  6
CONTINUOUS
 62
     7
 10
73.6014265779
 20
88.9295217621
 30
0.0
  0
VERTEX
  5
121
  8
DV1_0
  6
CONTINUOUS
 62
     7
 10
73.6294371933
 20
89.1541003979
 30
0.0
  0
VERTEX
  5
122
  8
DV1_0
  6
CONTINUOUS
 62
     7
 10
73.6604217146
 20
89.3782407439
 30
0.0
  0
VERTEX
  5
123
  8
DV1_0
  6
CONTINUOUS
 62
     7
 10
73.6943124844
 20
89.6019527713
 30
0.0
  0
VERTEX
  5
124
  8
DV1_0
  6
CONTINUOUS
 62
     7
 10
73.7310418457
 20
89.8252464512
 30
0.0
  0
VERTEX
  5
125
  8
DV1_0
  6
CONTINUOUS
 62
     7
 10
73.7705421412
 20
90.0481317549
 30
0.0
  0
VERTEX
  5
126
  8
DV1_0
  6
CONTINUOUS
 62
     7
 10
73.8127457139
 20
90.2706186537
 30
0.0
  0
VERTEX
  5
127
  8
DV1_0
  6
CONTINUOUS
 62
     7
 10
73.8575849064
 20
90.4927171186
 30
0.0
  0
VERTEX
  5
128
  8
DV1_0
  6
CONTINUOUS
 62
     7
 10
73.9049920617
 20
90.714437121
 30
0.0
  0
VERTEX
  5
129
  8
DV1_0
  6
CONTINUOUS
 62
     7
 10
73.9548995225
 20
90.9357886321
 30
0.0
  0
VERTEX
  5
12A
  8
DV1_0
  6
CONTINUOUS
 62
     7
 10
74.0072396317
 20
91.156781623
 30
0.0
  0
VERTEX
  5
12B
  8
DV1_0
  6
CONTINUOUS
 62
     7
 10
74.0619447321
 20
91.377426065
 30
0.0
  0
VERTEX
  5
12C
  8
DV1_0
  6
CONTINUOUS
 62
     7
 10
74.1189471665
 20
91.5977319293
 30
0.0
  0
SEQEND
  5
12D
  8
DV1_0
  6
CONTINUOUS
 62
     7
  0
LINE
  5
6E
  8
DV1_0
  6
CONTINUOUS
 62
     7
 10
79.8127284134
 20
82.6336313052
 30
0.0
 11
74.1189471665
 21
82.6336313052
 31
0.0
  0
LINE
  5
6F
  8
DV1_0
  6
CONTINUOUS
 62
     7
 10
79.8127284134
 20
91.5977319293
 30
0.0
 11
79.8127284134
 21
82.6336313052
 31
0.0
  0
LINE
  5
70
  8
DV1_0
  6
CONTINUOUS
 62
     7
 10
74.1189471665
 20
91.5977319293
 30
0.0
 11
79.8127284134
 21
91.5977319293
 31
0.0
  0
LINE
  5
71
  8
DV1_0
  6
CONTINUOUS
 62
     7
 10
74.1189471665
 20
92.4220678552
 30
0.0
 11
74.1189471665
 21
91.5977319293
 31
0.0
  0
ARC
  5
72
  8
DV1_0
  6
CONTINUOUS
 62
     7
 10
77.8143428159
 20
94.6630930112
 30
0.0
 40
4.321821694085038
 50
148.7658217231
 51
211.2341782769
  0
LINE
  5
73
  8
DV1_0
  6
CONTINUOUS
 62
     7
 10
79.8127284134
 20
92.4220678552
 30
0.0
 11
74.1189471665
 21
92.4220678552
 31
0.0
  0
LINE
  5
74
  8
DV1_0
  6
CONTINUOUS
 62
     7
 10
79.8127284134
 20
96.9041181673
 30
0.0
 11
79.8127284134
 21
92.4220678552
 31
0.0
  0
LINE
  5
75
  8
DV1_0
  6
CONTINUOUS
 62
     7
 10
74.1189471665
 20
96.9041181673
 30
0.0
 11
79.8127284134
 21
96.9041181673
 31
0.0
  0
LINE
  5
76
  8
DV1_0
  6
CONTINUOUS
 62
     7
 10
74.1189471665
 20
96.9041181673
 30
0.0
 11
74.1189471665
 21
96.9156816172
 31
0.0
  0
LINE
  5
77
  8
DV1_0
  6
HIDDEN2
 62
     7
 10
73.2816398714
 20
91.5956826853
 30
0.0
 11
73.1627284134
 21
91.5956826853
 31
0.0
  0
LINE
  5
78
  8
DV1_0
  6
HIDDEN2
 62
     7
 10
73.1627284134
 20
82.6356805491
 30
0.0
 11
73.2816398714
 21
82.6356805491
 31
0.0
  0
LINE
  5
79
  8
DV1_0
  6
HIDDEN2
 62
     7
 10
76.3127284134
 20
93.3456826853
 30
0.0
 11
73.2816398714
 21
91.5956826853
 31
0.0
  0
LINE
  5
7A
  8
DV1_0
  6
HIDDEN2
 62
     7
 10
73.2816398714
 20
82.6356805491
 30
0.0
 11
76.3127284134
 21
80.8856805491
 31
0.0
  0
LINE
  5
7B
  8
DV1_0
  6
HIDDEN2
 62
     7
 10
77.0127284134
 20
92.1556821513
 30
0.0
 11
76.3127284134
 21
92.1556821513
 31
0.0
  0
LINE
  5
7C
  8
DV1_0
  6
HIDDEN2
 62
     7
 10
76.3127284134
 20
82.0756810832
 30
0.0
 11
77.0127284134
 21
82.0756810832
 31
0.0
  0
ARC
  5
7D
  8
DV1_0
  6
HIDDEN2
 62
     7
 10
77.7127284134
 20
94.3956826853
 30
0.0
 40
0.7000000000000006
 50
90.0
 51
180.0
  0
ARC
  5
7E
  8
DV1_0
  6
HIDDEN2
 62
     7
 10
77.7127284134
 20
79.8356805491
 30
0.0
 40
0.6999999999999958
 50
180.0
 51
270.0
  0
LINE
  5
7F
  8
DV1_0
  6
HIDDEN2
 62
     7
 10
79.8127284551
 20
95.0956826853
 30
0.0
 11
77.7127284134
 21
95.0956826853
 31
0.0
  0
LINE
  5
80
  8
DV1_0
  6
HIDDEN2
 62
     7
 10
77.7127284134
 20
79.1356805491
 30
0.0
 11
79.8127284551
 21
79.1356805491
 31
0.0
  0
ARC
  5
81
  8
DV1_0
  6
HIDDEN2
 62
     7
 10
79.8127284551
 20
94.3956826853
 30
0.0
 40
0.7000000000000008
 50
0.0000010457
 51
90.0
  0
ARC
  5
82
  8
DV1_0
  6
HIDDEN2
 62
     7
 10
79.8127284551
 20
79.8356805491
 30
0.0
 40
0.7000000000000006
 50
270.0
 51
359.9999989543
  0
LINE
  5
83
  8
DV1_0
  6
CONTINUOUS
 62
     7
 10
85.0627280796
 20
77.3156816172
 30
0.0
 11
85.4127280796
 21
77.6656816172
 31
0.0
  0
LINE
  5
84
  8
DV1_0
  6
CONTINUOUS
 62
     7
 10
85.4127280796
 20
96.5656816172
 30
0.0
 11
85.0627280796
 21
96.9156816172
 31
0.0
  0
LINE
  5
85
  8
DV1_0
  6
CONTINUOUS
 62
     7
 10
85.0627280796
 20
96.9156816172
 30
0.0
 11
74.1189471665
 21
96.9156816172
 31
0.0
  0
LINE
  5
86
  8
DV1_0
  6
CONTINUOUS
 62
     7
 10
74.1189471665
 20
77.3156816172
 30
0.0
 11
85.0627280796
 21
77.3156816172
 31
0.0
  0
LINE
  5
87
  8
DV1_0
  6
CONTINUOUS
 62
     7
 10
74.1189471665
 20
96.9156816172
 30
0.0
 11
73.1627284134
 21
95.2594648051
 31
0.0
  0
LINE
  5
88
  8
DV1_0
  6
CONTINUOUS
 62
     7
 10
73.1627284134
 20
78.9718984294
 30
0.0
 11
74.1189471665
 21
77.3156816172
 31
0.0
  0
LINE
  5
89
  8
DV1_0
  6
CONTINUOUS
 62
     7
 10
107.4627284134
 20
80.89611992
 30
0.0
 11
107.4627284134
 21
94.3164134539
 31
0.0
  0
LINE
  5
8A
  8
DV1_0
  6
CONTINUOUS
 62
     7
 10
104.3845466555
 20
80.1174998083
 30
0.0
 11
101.4427287093
 21
80.0439464686
 31
0.0
  0
LINE
  5
8B
  8
DV1_0
  6
CONTINUOUS
 62
     7
 10
104.3960183402
 20
80.1195316824
 30
0.0
 11
101.4281979198
 21
80.0453367259
 31
0.0
  0
LINE
  5
8C
  8
DV1_0
  6
CONTINUOUS
 62
     7
 10
107.3262250667
 20
80.8157018241
 30
0.0
 11
107.4627284134
 21
80.8945181452
 31
0.0
  0
LINE
  5
8D
  8
DV1_0
  6
CONTINUOUS
 62
     7
 10
89.9627284134
 20
98.1056816172
 30
0.0
 11
89.9627284134
 21
76.1256816172
 31
0.0
  0
LINE
  5
8E
  8
DV1_0
  6
CONTINUOUS
 62
     7
 10
94.1627284134
 20
98.1056816172
 30
0.0
 11
94.1627284134
 21
76.1256816172
 31
0.0
  0
LINE
  5
8F
  8
DV1_0
  6
HIDDEN2
 62
     7
 10
80.5127284134
 20
94.3956816172
 30
0.0
 11
80.5127284134
 21
79.8356816172
 31
0.0
  0
LINE
  5
90
  8
DV1_0
  6
CONTINUOUS
 62
     7
 10
88.5627284134
 20
93.9406816172
 30
0.0
 11
88.5627284134
 21
80.2906816172
 31
0.0
  0
LINE
  5
91
  8
DV1_0
  6
CONTINUOUS
 62
     7
 10
94.2467284134
 20
79.9999227404
 30
0.0
 11
95.1287284134
 21
79.9999227404
 31
0.0
  0
ARC
  5
92
  8
DV1_0
  6
CONTINUOUS
 62
     7
 10
94.2467284134
 20
79.9159186073
 30
0.0
 40
0.0840041331235551
 50
90.0
 51
180.0
  0
ARC
  5
93
  8
DV1_0
  6
CONTINUOUS
 62
     7
 10
95.1287284134
 20
79.9159186073
 30
0.0
 40
0.0840041331235551
 50
0.0
 51
90.0
  0
LINE
  5
94
  8
DV1_0
  6
CONTINUOUS
 62
     7
 10
95.2127284134
 20
94.6229304623
 30
0.0
 11
95.2127284134
 21
85.4673118145
 31
0.0
  0
LINE
  5
95
  8
DV1_0
  6
CONTINUOUS
 62
     7
 10
95.2127284134
 20
81.2488663311
 30
0.0
 11
95.2127284134
 21
79.8899511153
 31
0.0
  0
LINE
  5
96
  8
DV1_0
  6
CONTINUOUS
 62
     7
 10
95.2127284134
 20
85.4673118145
 30
0.0
 11
95.2127284134
 21
85.3191681794
 31
0.0
  0
LINE
  5
97
  8
DV1_0
  6
CONTINUOUS
 62
     7
 10
95.2127284134
 20
94.6683200918
 30
0.0
 11
95.2127284134
 21
94.6229304623
 31
0.0
  0
ARC
  5
98
  8
DV1_0
  6
CONTINUOUS
 62
     7
 10
100.9321827498
 20
92.4829171354
 30
0.0
 40
6.106690173653604
 50
152.3702153211
 51
159.4862734578
  0
LINE
  5
99
  8
DV1_0
  6
CONTINUOUS
 62
     7
 10
95.2127284134
 20
81.354049792
 30
0.0
 11
95.2127284134
 21
81.2488663311
 31
0.0
  0
LINE
  5
9A
  8
DV1_0
  6
CONTINUOUS
 62
     7
 10
104.3845466538
 20
80.1174998083
 30
0.0
 11
104.3960183402
 21
80.1195316824
 31
0.0
  0
ARC
  5
9B
  8
DV1_0
  6
CONTINUOUS
 62
     7
 10
102.002313928
 20
93.7995942313
 30
0.0
 40
13.88790596723996
 50
279.924999805
 51
282.8151032212
  0
LINE
  5
9C
  8
DV1_0
  6
HIDDEN2
 62
     7
 10
106.1954115846
 20
80.2811841307
 30
0.0
 11
105.0827284134
 21
80.2578496614
 31
0.0
  0
LINE
  5
9D
  8
DV1_0
  6
CONTINUOUS
 62
     7
 10
105.0827284134
 20
80.2576232244
 30
0.0
 11
106.195411575
 21
80.281000435
 31
0.0
  0
ARC
  5
9E
  8
DV1_0
  6
CONTINUOUS
 62
     7
 10
132.4087903096
 20
26.2000693353
 30
0.0
 40
60.0999205562105
 50
114.6672577717
 51
114.8542830659
  0
ARC
  5
9F
  8
DV1_0
  6
CONTINUOUS
 62
     7
 10
130.5559043169
 20
30.150713881
 30
0.0
 40
55.73647852165455
 50
114.6472228473
 51
115.9167994682
  0
LINE
  5
A0
  8
DV1_0
  6
CONTINUOUS
 62
     7
 10
98.2837450355
 20
79.9649634031
 30
0.0
 11
95.2127284591
 21
79.888179751
 31
0.0
  0
POLYLINE
  5
A1
  8
DV1_0
  6
CONTINUOUS
 62
     7
 66
     1
 10
0.0
 20
0.0
 30
0.0
  0
VERTEX
  5
12F
  8
DV1_0
  6
CONTINUOUS
 62
     7
 10
98.2985268194
 20
79.9670955214
 30
0.0
  0
VERTEX
  5
130
  8
DV1_0
  6
CONTINUOUS
 62
     7
 10
98.2878938025
 20
79.9659504621
 30
0.0
  0
VERTEX
  5
131
  8
DV1_0
  6
CONTINUOUS
 62
     7
 10
98.2837450313
 20
79.964963403
 30
0.0
  0
SEQEND
  5
12E
  8
DV1_0
  6
CONTINUOUS
 62
     7
  0
POLYLINE
  5
A2
  8
DV1_0
  6
CONTINUOUS
 62
     7
 66
     1
 10
0.0
 20
0.0
 30
0.0
  0
VERTEX
  5
133
  8
DV1_0
  6
CONTINUOUS
 62
     7
 10
101.4427287063
 20
80.0439464685
 30
0.0
  0
VERTEX
  5
134
  8
DV1_0
  6
CONTINUOUS
 62
     7
 10
101.4386725438
 20
80.044723868
 30
0.0
  0
VERTEX
  5
135
  8
DV1_0
  6
CONTINUOUS
 62
     7
 10
101.4281979198
 20
80.0453367259
 30
0.0
  0
SEQEND
  5
132
  8
DV1_0
  6
CONTINUOUS
 62
     7
  0
ARC
  5
A3
  8
DV1_0
  6
HIDDEN2
 62
     7
 10
100.1941697361
 20
66.7685527085
 30
0.0
 40
13.33397853481444
 50
98.0200773399
 51
98.2373963767
  0
ARC
  5
A4
  8
DV1_0
  6
HIDDEN2
 62
     7
 10
100.1941697361
 20
66.7685527085
 30
0.0
 40
13.33397853481444
 50
84.6271022818
 51
84.8044773249
  0
ARC
  5
A5
  8
DV1_0
  6
CONTINUOUS
 62
     7
 10
100.1936469347
 20
66.794736765
 30
0.0
 40
13.30798690489472
 50
84.6771505309
 51
98.1870208701
  0
LINE
  5
A6
  8
DV1_0
  6
HIDDEN2
 62
     7
 10
81.2127284134
 20
92.6173030329
 30
0.0
 11
81.2127284134
 21
81.6140602015
 31
0.0
  0
LINE
  5
A7
  8
DV1_0
  6
HIDDEN2
 62
     7
 10
92.9646254276
 20
90.9656816172
 30
0.0
 11
92.9646254276
 21
83.2656816172
 31
0.0
  0
LINE
  5
A8
  8
DV1_0
  6
HIDDEN2
 62
     7
 10
95.9127284134
 20
90.9656816172
 30
0.0
 11
95.9127284134
 21
83.2656816172
 31
0.0
  0
LINE
  5
A9
  8
DV1_0
  6
CONTINUOUS
 62
     7
 10
107.4703599087
 20
94.3118600595
 30
0.0
 11
106.1954118104
 21
95.0479965433
 31
0.0
  0
LINE
  5
AA
  8
DV1_0
  6
CONTINUOUS
 62
     7
 10
90.1727284134
 20
98.3156816172
 30
0.0
 11
89.9627284134
 21
98.1056816172
 31
0.0
  0
LINE
  5
AB
  8
DV1_0
  6
CONTINUOUS
 62
     7
 10
89.9627284134
 20
76.1256816172
 30
0.0
 11
90.1727284134
 21
75.9156816172
 31
0.0
  0
LINE
  5
AC
  8
DV1_0
  6
CONTINUOUS
 62
     7
 10
90.1727284134
 20
75.9156816172
 30
0.0
 11
93.9527284134
 21
75.9156816172
 31
0.0
  0
LINE
  5
AD
  8
DV1_0
  6
CONTINUOUS
 62
     7
 10
93.9527284134
 20
98.3156816172
 30
0.0
 11
90.1727284134
 21
98.3156816172
 31
0.0
  0
LINE
  5
AE
  8
DV1_0
  6
CONTINUOUS
 62
     7
 10
93.9527284134
 20
75.9156816172
 30
0.0
 11
94.1627284134
 21
76.1256816172
 31
0.0
  0
LINE
  5
AF
  8
DV1_0
  6
CONTINUOUS
 62
     7
 10
94.1627284134
 20
98.1056816172
 30
0.0
 11
93.9527284134
 21
98.3156816172
 31
0.0
  0
LINE
  5
B0
  8
DV1_0
  6
CONTINUOUS
 62
     7
 10
85.4127280796
 20
79.4156816172
 30
0.0
 11
87.6877284134
 21
79.4156816172
 31
0.0
  0
LINE
  5
B1
  8
DV1_0
  6
CONTINUOUS
 62
     7
 10
87.6877284134
 20
94.8156816172
 30
0.0
 11
85.4127280796
 21
94.8156816172
 31
0.0
  0
LINE
  5
B2
  8
DV1_0
  6
CONTINUOUS
 62
     7
 10
87.6877284134
 20
79.4156816172
 30
0.0
 11
88.5627284134
 21
80.2906816172
 31
0.0
  0
LINE
  5
B3
  8
DV1_0
  6
CONTINUOUS
 62
     7
 10
88.5627284134
 20
93.9406816172
 30
0.0
 11
87.6877284134
 21
94.8156816172
 31
0.0
  0
LINE
  5
B4
  8
DV1_0
  6
CONTINUOUS
 62
     7
 10
88.5627284134
 20
80.2906816172
 30
0.0
 11
89.9627284134
 21
80.2906816172
 31
0.0
  0
LINE
  5
B5
  8
DV1_0
  6
CONTINUOUS
 62
     7
 10
89.9627284134
 20
93.9406816172
 30
0.0
 11
88.5627284134
 21
93.9406816172
 31
0.0
  0
LINE
  5
B6
  8
DV1_0
  6
CONTINUOUS
 62
     7
 10
106.1954115983
 20
95.0480744042
 30
0.0
 11
95.5207270337
 21
95.3149650699
 31
0.0
  0
ARC
  5
B7
  8
DV1_0
  6
CONTINUOUS
 62
     7
 10
94.5827284134
 20
95.3657321236
 30
0.0
 40
0.7000000000055195
 50
233.1301023541
 51
315.0
  0
LINE
  5
B8
  8
DV1_0
  6
CONTINUOUS
 62
     7
 10
95.5200061018
 20
95.3130603183
 30
0.0
 11
95.0777031602
 21
94.8707573767
 31
0.0
  0
LINE
  5
B9
  8
DV1_0
  6
HIDDEN2
 62
     7
 10
80.5127284134
 20
81.2099150131
 30
0.0
 11
81.2127284134
 21
81.6140602015
 31
0.0
  0
LINE
  5
BA
  8
DV1_0
  6
HIDDEN2
 62
     7
 10
81.2127284134
 20
92.6173030329
 30
0.0
 11
80.5127284134
 21
93.0214482214
 31
0.0
  0
LINE
  5
BB
  8
DV1_0
  6
HIDDEN2
 62
     7
 10
81.2127284134
 20
81.6140602015
 30
0.0
 11
92.9646254276
 21
83.2656816172
 31
0.0
  0
LINE
  5
BC
  8
DV1_0
  6
HIDDEN2
 62
     7
 10
92.9646254276
 20
90.9656816172
 30
0.0
 11
81.2127284134
 21
92.6173030329
 31
0.0
  0
LINE
  5
BD
  8
DV1_0
  6
HIDDEN2
 62
     7
 10
92.9646254276
 20
83.2656816172
 30
0.0
 11
95.9127284134
 21
83.2656816172
 31
0.0
  0
LINE
  5
BE
  8
DV1_0
  6
HIDDEN2
 62
     7
 10
95.9127284134
 20
90.9656816172
 30
0.0
 11
92.9646254276
 21
90.9656816172
 31
0.0
  0
LINE
  5
C0
  8
DV1_STANDARD
  6
HIDDEN2
 62
     1
 10
73.529565944
 20
88.1656913601
 30
0.0
 11
73.1627284134
 21
88.1656913601
 31
0.0
  0
LINE
  5
C1
  8
DV1_STANDARD
  6
HIDDEN2
 62
     1
 10
73.5297547865
 20
86.0656913601
 30
0.0
 11
73.1627284134
 21
86.0656913601
 31
0.0
  0
LINE
  5
C3
  8
DV1_STANDARD
  6
CENTER2
 62
     7
 10
72.1018912766
 20
87.1156816172
 30
0.0
 11
108.1000901566
 21
87.1156816172
 31
0.0
  0
LINE
  5
C4
  8
DV1_STANDARD
  6
CONTINUOUS
 62
     7
 10
95.2127284134
 20
85.3191681794
 30
0.0
 11
95.2127284134
 21
81.354049792
 31
0.0
  0
ENDBLK
  5
C6
  8
0
  0
BLOCK
  8
0
  2
GDIMGGROUP
 70
     0
 10
0.0
 20
0.0
 30
0.0
  3
GDIMGGROUP
  1

  0
POLYLINE
  5
C9
  8
DEFAULT
  6
CONTINUOUS
 62
     7
 66
     1
 10
0.0
 20
0.0
 30
0.0
  0
VERTEX
  5
137
  8
DEFAULT
  6
CONTINUOUS
 62
     7
 10
60.3176303077
 20
94.4156816731
 30
0.0
  0
VERTEX
  5
138
  8
DEFAULT
  6
CONTINUOUS
 62
     7
 10
61.1509636224
 20
94.4156816731
 30
0.0
  0
VERTEX
  5
139
  8
DEFAULT
  6
CONTINUOUS
 62
     7
 10
60.734296965
 20
96.9156816172
 30
0.0
  0
VERTEX
  5
13A
  8
DEFAULT
  6
CONTINUOUS
 62
     7
 10
60.3176303077
 20
94.4156816731
 30
0.0
  0
SEQEND
  5
136
  8
DEFAULT
  6
CONTINUOUS
 62
     7
  0
POLYLINE
  5
CA
  8
DEFAULT
  6
CONTINUOUS
 62
     7
 66
     1
 10
0.0
 20
0.0
 30
0.0
  0
VERTEX
  5
13C
  8
DEFAULT
  6
CONTINUOUS
 62
     7
 10
60.3176303077
 20
79.8156813289
 30
0.0
  0
VERTEX
  5
13D
  8
DEFAULT
  6
CONTINUOUS
 62
     7
 10
61.1509636224
 20
79.8156813289
 30
0.0
  0
VERTEX
  5
13E
  8
DEFAULT
  6
CONTINUOUS
 62
     7
 10
60.734296965
 20
77.3156813848
 30
0.0
  0
VERTEX
  5
13F
  8
DEFAULT
  6
CONTINUOUS
 62
     7
 10
60.3176303077
 20
79.8156813289
 30
0.0
  0
SEQEND
  5
13B
  8
DEFAULT
  6
CONTINUOUS
 62
     7
  0
LINE
  5
CB
  8
DEFAULT
  6
CONTINUOUS
 62
     7
 10
74.1189474264
 20
96.9156816172
 30
0.0
 11
59.484296993
 21
96.9156816172
 31
0.0
  0
LINE
  5
CC
  8
DEFAULT
  6
CONTINUOUS
 62
     7
 10
74.1189474264
 20
77.3156816172
 30
0.0
 11
59.484296993
 21
77.3156816172
 31
0.0
  0
LINE
  5
CD
  8
DEFAULT
  6
CONTINUOUS
 62
     7
 10
60.734296965
 20
96.9156816172
 30
0.0
 11
60.734296965
 21
77.3156813848
 31
0.0
  0
TEXT
  5
CF
  8
DEFAULT
  6
CONTINUOUS
 62
     7
 10
60.109296965
 20
87.4595983584
 30
0.0
 40
2.5
  1
28
 50
90.0
  7
SEACAD_ARIAL_TTF
 11
57.609296965
 21
87.4595983584
 31
0.0
 73
     3
  0
TEXT
  5
D1
  8
DEFAULT
  6
CONTINUOUS
 62
     7
 10
60.109296965
 20
82.8587211654
 30
0.0
 40
2.5
  1
O
 50
90.0
  7
SEACAD_SEMECA1_TTF
 11
57.609296965
 21
82.8587211654
 31
0.0
 73
     3
  0
ENDBLK
  5
D3
  8
0
  0
BLOCK
  8
0
  2
GDIMGGROUP1
 70
     0
 10
0.0
 20
0.0
 30
0.0
  3
GDIMGGROUP1
  1

  0
POLYLINE
  5
D6
  8
DEFAULT
  6
CONTINUOUS
 62
     7
 66
     1
 10
0.0
 20
0.0
 30
0.0
  0
VERTEX
  5
141
  8
DEFAULT
  6
CONTINUOUS
 62
     7
 10
91.6627284693
 20
66.3510289195
 30
0.0
  0
VERTEX
  5
142
  8
DEFAULT
  6
CONTINUOUS
 62
     7
 10
91.6627284693
 20
67.1843622342
 30
0.0
  0
VERTEX
  5
143
  8
DEFAULT
  6
CONTINUOUS
 62
     7
 10
94.1627284134
 20
66.7676955768
 30
0.0
  0
VERTEX
  5
144
  8
DEFAULT
  6
CONTINUOUS
 62
     7
 10
91.6627284693
 20
66.3510289195
 30
0.0
  0
SEQEND
  5
140
  8
DEFAULT
  6
CONTINUOUS
 62
     7
  0
POLYLINE
  5
D7
  8
DEFAULT
  6
CONTINUOUS
 62
     7
 66
     1
 10
0.0
 20
0.0
 30
0.0
  0
VERTEX
  5
146
  8
DEFAULT
  6
CONTINUOUS
 62
     7
 10
75.6627286406
 20
66.3510289195
 30
0.0
  0
VERTEX
  5
147
  8
DEFAULT
  6
CONTINUOUS
 62
     7
 10
75.6627286406
 20
67.1843622342
 30
0.0
  0
VERTEX
  5
148
  8
DEFAULT
  6
CONTINUOUS
 62
     7
 10
73.1627286965
 20
66.7676955768
 30
0.0
  0
VERTEX
  5
149
  8
DEFAULT
  6
CONTINUOUS
 62
     7
 10
75.6627286406
 20
66.3510289195
 30
0.0
  0
SEQEND
  5
145
  8
DEFAULT
  6
CONTINUOUS
 62
     7
  0
LINE
  5
D8
  8
DEFAULT
  6
CONTINUOUS
 62
     7
 10
94.1627284134
 20
76.1256816172
 30
0.0
 11
94.1627284134
 21
65.5176956048
 31
0.0
  0
LINE
  5
D9
  8
DEFAULT
  6
CONTINUOUS
 62
     7
 10
73.1627284134
 20
78.9718984294
 30
0.0
 11
73.1627284134
 21
65.5176956048
 31
0.0
  0
LINE
  5
DA
  8
DEFAULT
  6
CONTINUOUS
 62
     7
 10
94.1627284134
 20
66.7676955768
 30
0.0
 11
73.1627286965
 21
66.7676955768
 31
0.0
  0
TEXT
  5
DB
  8
DEFAULT
  6
CONTINUOUS
 62
     7
 10
81.7062068158
 20
67.3926955768
 30
0.0
 40
2.5
  1
30
  7
SEACAD_ARIAL_TTF
 11
81.7062068158
 21
69.8926955768
 31
0.0
 73
     3
  0
ENDBLK
  5
DD
  8
0
  0
BLOCK
  8
0
  2
GDIMGGROUP2
 70
     0
 10
0.0
 20
0.0
 30
0.0
  3
GDIMGGROUP2
  1

  0
POLYLINE
  5
E0
  8
DEFAULT
  6
CONTINUOUS
 62
     7
 66
     1
 10
0.0
 20
0.0
 30
0.0
  0
VERTEX
  5
14B
  8
DEFAULT
  6
CONTINUOUS
 62
     7
 10
66.758467665
 20
90.6656913042
 30
0.0
  0
VERTEX
  5
14C
  8
DEFAULT
  6
CONTINUOUS
 62
     7
 10
67.5918009797
 20
90.6656913042
 30
0.0
  0
VERTEX
  5
14D
  8
DEFAULT
  6
CONTINUOUS
 62
     7
 10
67.1751343223
 20
88.1656913601
 30
0.0
  0
VERTEX
  5
14E
  8
DEFAULT
  6
CONTINUOUS
 62
     7
 10
66.758467665
 20
90.6656913042
 30
0.0
  0
SEQEND
  5
14A
  8
DEFAULT
  6
CONTINUOUS
 62
     7
  0
POLYLINE
  5
E1
  8
DEFAULT
  6
CONTINUOUS
 62
     7
 66
     1
 10
0.0
 20
0.0
 30
0.0
  0
VERTEX
  5
150
  8
DEFAULT
  6
CONTINUOUS
 62
     7
 10
66.758467665
 20
83.565691416
 30
0.0
  0
VERTEX
  5
151
  8
DEFAULT
  6
CONTINUOUS
 62
     7
 10
67.5918009797
 20
83.565691416
 30
0.0
  0
VERTEX
  5
152
  8
DEFAULT
  6
CONTINUOUS
 62
     7
 10
67.1751343223
 20
86.0656913601
 30
0.0
  0
VERTEX
  5
153
  8
DEFAULT
  6
CONTINUOUS
 62
     7
 10
66.758467665
 20
83.565691416
 30
0.0
  0
SEQEND
  5
14F
  8
DEFAULT
  6
CONTINUOUS
 62
     7
  0
LINE
  5
E2
  8
DEFAULT
  6
CONTINUOUS
 62
     7
 10
73.1627284011
 20
88.1656913601
 30
0.0
 11
65.9251343502
 21
88.1656913601
 31
0.0
  0
LINE
  5
E3
  8
DEFAULT
  6
CONTINUOUS
 62
     7
 10
73.3462415999
 20
86.0656913601
 30
0.0
 11
65.9251343502
 21
86.0656913601
 31
0.0
  0
LINE
  5
E4
  8
DEFAULT
  6
CONTINUOUS
 62
     7
 10
67.1751343223
 20
93.1656912484
 30
0.0
 11
67.1751343223
 21
56.4728735529
 31
0.0
  0
TEXT
  5
E5
  8
DEFAULT
  6
CONTINUOUS
 62
     7
 10
66.5501343223
 20
57.3478733971
 30
0.0
 40
2.5
  1
O
 50
90.0
  7
SEACAD_SEMECA1_TTF
 11
64.0501343223
 21
57.3478733971
 31
0.0
 73
     3
  0
TEXT
  5
E6
  8
DEFAULT
  6
CONTINUOUS
 62
     7
 10
66.5501343223
 20
60.1987505901
 30
0.0
 40
2.5
  1
0,5-10
 50
90.0
  7
SEACAD_ARIAL_TTF
 11
64.0501343223
 21
60.1987505901
 31
0.0
 73
     3
  0
ENDBLK
  5
E8
  8
0
  0
BLOCK
  8
0
  2
GDIMGGROUP3
 70
     0
 10
0.0
 20
0.0
 30
0.0
  3
GDIMGGROUP3
  1

  0
POLYLINE
  5
EB
  8
DEFAULT
  6
CONTINUOUS
 62
     7
 66
     1
 10
0.0
 20
0.0
 30
0.0
  0
VERTEX
  5
155
  8
DEFAULT
  6
CONTINUOUS
 62
     7
 10
114.6116949112
 20
95.8156816731
 30
0.0
  0
VERTEX
  5
156
  8
DEFAULT
  6
CONTINUOUS
 62
     7
 10
113.7783615965
 20
95.8156816731
 30
0.0
  0
VERTEX
  5
157
  8
DEFAULT
  6
CONTINUOUS
 62
     7
 10
114.1950282538
 20
98.3156816172
 30
0.0
  0
VERTEX
  5
158
  8
DEFAULT
  6
CONTINUOUS
 62
     7
 10
114.6116949112
 20
95.8156816731
 30
0.0
  0
SEQEND
  5
154
  8
DEFAULT
  6
CONTINUOUS
 62
     7
  0
POLYLINE
  5
EC
  8
DEFAULT
  6
CONTINUOUS
 62
     7
 66
     1
 10
0.0
 20
0.0
 30
0.0
  0
VERTEX
  5
15A
  8
DEFAULT
  6
CONTINUOUS
 62
     7
 10
114.6116949112
 20
78.4156823601
 30
0.0
  0
VERTEX
  5
15B
  8
DEFAULT
  6
CONTINUOUS
 62
     7
 10
113.7783615965
 20
78.4156823601
 30
0.0
  0
VERTEX
  5
15C
  8
DEFAULT
  6
CONTINUOUS
 62
     7
 10
114.1950282538
 20
75.9156824159
 30
0.0
  0
VERTEX
  5
15D
  8
DEFAULT
  6
CONTINUOUS
 62
     7
 10
114.6116949112
 20
78.4156823601
 30
0.0
  0
SEQEND
  5
159
  8
DEFAULT
  6
CONTINUOUS
 62
     7
  0
LINE
  5
ED
  8
DEFAULT
  6
CONTINUOUS
 62
     7
 10
92.0627284134
 20
98.3156816172
 30
0.0
 11
115.4450282259
 21
98.3156816172
 31
0.0
  0
LINE
  5
EE
  8
DEFAULT
  6
CONTINUOUS
 62
     7
 10
92.0627284134
 20
75.9156816172
 30
0.0
 11
115.4450282259
 21
75.9156816172
 31
0.0
  0
LINE
  5
EF
  8
DEFAULT
  6
CONTINUOUS
 62
     7
 10
114.1950282538
 20
98.3156816172
 30
0.0
 11
114.1950282538
 21
75.9156824159
 31
0.0
  0
TEXT
  5
F0
  8
DEFAULT
  6
CONTINUOUS
 62
     7
 10
113.5700282538
 20
87.4595988739
 30
0.0
 40
2.5
  1
32
 50
90.0
  7
SEACAD_ARIAL_TTF
 11
111.0700282538
 21
87.4595988739
 31
0.0
 73
     3
  0
TEXT
  5
F1
  8
DEFAULT
  6
CONTINUOUS
 62
     7
 10
113.5700282538
 20
82.858721681
 30
0.0
 40
2.5
  1
O
 50
90.0
  7
SEACAD_SEMECA1_TTF
 11
111.0700282538
 21
82.858721681
 31
0.0
 73
     3
  0
ENDBLK
  5
F3
  8
0
  0
BLOCK
  8
0
  2
GDIMGGROUP4
 70
     0
 10
0.0
 20
0.0
 30
0.0
  3
GDIMGGROUP4
  1

  0
POLYLINE
  5
F6
  8
DEFAULT
  6
CONTINUOUS
 62
     7
 66
     1
 10
0.0
 20
0.0
 30
0.0
  0
VERTEX
  5
15F
  8
DEFAULT
  6
CONTINUOUS
 62
     7
 10
75.6627283575
 20
104.0463800633
 30
0.0
  0
VERTEX
  5
160
  8
DEFAULT
  6
CONTINUOUS
 62
     7
 10
75.6627283575
 20
103.2130467486
 30
0.0
  0
VERTEX
  5
161
  8
DEFAULT
  6
CONTINUOUS
 62
     7
 10
73.1627284134
 20
103.6297134059
 30
0.0
  0
VERTEX
  5
162
  8
DEFAULT
  6
CONTINUOUS
 62
     7
 10
75.6627283575
 20
104.0463800633
 30
0.0
  0
SEQEND
  5
15E
  8
DEFAULT
  6
CONTINUOUS
 62
     7
  0
POLYLINE
  5
F7
  8
DEFAULT
  6
CONTINUOUS
 62
     7
 66
     1
 10
0.0
 20
0.0
 30
0.0
  0
VERTEX
  5
164
  8
DEFAULT
  6
CONTINUOUS
 62
     7
 10
93.4127280073
 20
104.0463800633
 30
0.0
  0
VERTEX
  5
165
  8
DEFAULT
  6
CONTINUOUS
 62
     7
 10
93.4127280073
 20
103.2130467486
 30
0.0
  0
VERTEX
  5
166
  8
DEFAULT
  6
CONTINUOUS
 62
     7
 10
95.9127279514
 20
103.6297134059
 30
0.0
  0
VERTEX
  5
167
  8
DEFAULT
  6
CONTINUOUS
 62
     7
 10
93.4127280073
 20
104.0463800633
 30
0.0
  0
SEQEND
  5
163
  8
DEFAULT
  6
CONTINUOUS
 62
     7
  0
LINE
  5
F8
  8
DEFAULT
  6
CONTINUOUS
 62
     7
 10
73.1627284134
 20
95.2594648051
 30
0.0
 11
73.1627284134
 21
104.879713378
 31
0.0
  0
LINE
  5
F9
  8
DEFAULT
  6
CONTINUOUS
 62
     7
 10
95.9127284134
 20
90.9656816172
 30
0.0
 11
95.9127284134
 21
104.879713378
 31
0.0
  0
LINE
  5
FA
  8
DEFAULT
  6
CONTINUOUS
 62
     7
 10
73.1627284134
 20
103.6297134059
 30
0.0
 11
95.9127279514
 21
103.6297134059
 31
0.0
  0
TEXT
  5
FB
  8
DEFAULT
  6
CONTINUOUS
 62
     7
 10
81.1138151389
 20
104.2547134059
 30
0.0
 40
2.5
  1
32,5
  7
SEACAD_ARIAL_TTF
 11
81.1138151389
 21
106.7547134059
 31
0.0
 73
     3
  0
ENDBLK
  5
FD
  8
0
  0
ENDSEC
  0
SECTION
  2
ENTITIES
  0
INSERT
  5
5F
  8
DEFAULT
  2
SE
 10
0.0
 20
0.0
 30
0.0
  0
INSERT
  5
C8
  8
DEFAULT
  2
GDIMGGROUP
 10
0.0
 20
0.0
 30
0.0
  0
INSERT
  5
D5
  8
DEFAULT
  2
GDIMGGROUP1
 10
0.0
 20
0.0
 30
0.0
  0
INSERT
  5
DF
  8
DEFAULT
  2
GDIMGGROUP2
 10
0.0
 20
0.0
 30
0.0
  0
INSERT
  5
EA
  8
DEFAULT
  2
GDIMGGROUP3
 10
0.0
 20
0.0
 30
0.0
  0
INSERT
  5
F5
  8
DEFAULT
  2
GDIMGGROUP4
 10
0.0
 20
0.0
 30
0.0
  0
ENDSEC
  0
EOF
