  0
SECTION
  2
HEADER
  9
$ACADVER
  1
AC1009
  9
$DWGCODEPAGE
  3
ansi_1252
  9
$INSBASE
 10
0.0
 20
0.0
 30
0.0
  9
$EXTMIN
 10
0.0
 20
0.0
 30
0.0
  9
$EXTMAX
 10
180.0
 20
160.0
 30
0.0
  9
$LIMMIN
 10
0.0
 20
0.0
  9
$LIMMAX
 10
180.0
 20
160.0
  9
$ORTHOMODE
 70
     0
  9
$REGENMODE
 70
     1
  9
$FILLMODE
 70
     1
  9
$QTEXTMODE
 70
     0
  9
$MIRRTEXT
 70
     1
  9
$DRAGMODE
 70
     2
  9
$LTSCALE
 40
1.0
  9
$OSMODE
 70
    37
  9
$ATTMODE
 70
     1
  9
$TEXTSIZE
 40
2.5
  9
$TRACEWID
 40
1.0
  9
$TEXTSTYLE
  7
STANDARD
  9
$CLAYER
  8
0
  9
$CELTYPE
  6
BYLAYER
  9
$CECOLOR
 62
   256
  9
$DIMSCALE
 40
1.0
  9
$DIMASZ
 40
2.5
  9
$DIMEXO
 40
0.625
  9
$DIMDLI
 40
3.75
  9
$DIMRND
 40
0.0
  9
$DIMDLE
 40
0.0
  9
$DIMEXE
 40
1.25
  9
$DIMTP
 40
0.0
  9
$DIMTM
 40
0.0
  9
$DIMTXT
 40
2.5
  9
$DIMCEN
 40
2.5
  9
$DIMTSZ
 40
0.0
  9
$DIMTOL
 70
     0
  9
$DIMLIM
 70
     0
  9
$DIMTIH
 70
     0
  9
$DIMTOH
 70
     0
  9
$DIMSE1
 70
     0
  9
$DIMSE2
 70
     0
  9
$DIMTAD
 70
     1
  9
$DIMZIN
 70
     8
  9
$DIMBLK
  1

  9
$DIMASO
 70
     1
  9
$DIMSHO
 70
     1
  9
$DIMPOST
  1

  9
$DIMAPOST
  1

  9
$DIMALT
 70
     0
  9
$DIMALTD
 70
     3
  9
$DIMALTF
 40
0.0393700787
  9
$DIMLFAC
 40
1.0
  9
$DIMTOFL
 70
     1
  9
$DIMTVP
 40
0.0
  9
$DIMTIX
 70
     0
  9
$DIMSOXD
 70
     0
  9
$DIMSAH
 70
     0
  9
$DIMBLK1
  1

  9
$DIMBLK2
  1

  9
$DIMSTYLE
  2
ISO-25
  9
$DIMCLRD
 70
     0
  9
$DIMCLRE
 70
     0
  9
$DIMCLRT
 70
     0
  9
$DIMTFAC
 40
1.0
  9
$DIMGAP
 40
0.625
  9
$LUNITS
 70
     2
  9
$LUPREC
 70
     4
  9
$SKETCHINC
 40
1.0
  9
$FILLETRAD
 40
10.0
  9
$AUNITS
 70
     0
  9
$AUPREC
 70
     0
  9
$MENU
  1
.
  9
$ELEVATION
 40
0.0
  9
$PELEVATION
 40
0.0
  9
$THICKNESS
 40
0.0
  9
$LIMCHECK
 70
     0
  9
$CHAMFERA
 40
10.0
  9
$CHAMFERB
 40
10.0
  9
$SKPOLY
 70
     0
  9
$TDCREATE
 40
2456135.661946007
  9
$TDUPDATE
 40
2456135.661946019
  9
$TDINDWG
 40
0.0000000116
  9
$TDUSRTIMER
 40
0.0000000116
  9
$USRTIMER
 70
     1
  9
$ANGBASE
 50
0.0
  9
$ANGDIR
 70
     0
  9
$PDMODE
 70
     0
  9
$PDSIZE
 40
0.0
  9
$PLINEWID
 40
0.0
  9
$COORDS
 70
     1
  9
$SPLFRAME
 70
     0
  9
$SPLINETYPE
 70
     6
  9
$SPLINESEGS
 70
     8
  9
$ATTDIA
 70
     0
  9
$ATTREQ
 70
     1
  9
$HANDLING
 70
     1
  9
$HANDSEED
  5
56A
  9
$SURFTAB1
 70
     6
  9
$SURFTAB2
 70
     6
  9
$SURFTYPE
 70
     6
  9
$SURFU
 70
     6
  9
$SURFV
 70
     6
  9
$UCSNAME
  2

  9
$UCSORG
 10
0.0
 20
0.0
 30
0.0
  9
$UCSXDIR
 10
1.0
 20
0.0
 30
0.0
  9
$UCSYDIR
 10
0.0
 20
1.0
 30
0.0
  9
$PUCSNAME
  2

  9
$PUCSORG
 10
0.0
 20
0.0
 30
0.0
  9
$PUCSXDIR
 10
1.0
 20
0.0
 30
0.0
  9
$PUCSYDIR
 10
0.0
 20
1.0
 30
0.0
  9
$USERI1
 70
     0
  9
$USERI2
 70
     0
  9
$USERI3
 70
     0
  9
$USERI4
 70
     0
  9
$USERI5
 70
     0
  9
$USERR1
 40
0.0
  9
$USERR2
 40
0.0
  9
$USERR3
 40
0.0
  9
$USERR4
 40
0.0
  9
$USERR5
 40
0.0
  9
$WORLDVIEW
 70
     1
  9
$SHADEDGE
 70
     3
  9
$SHADEDIF
 70
    70
  9
$TILEMODE
 70
     1
  9
$MAXACTVP
 70
    64
  9
$PLIMCHECK
 70
     0
  9
$PEXTMIN
 10
0.0
 20
0.0
 30
0.0
  9
$PEXTMAX
 10
180.0
 20
160.0
 30
0.0
  9
$PLIMMIN
 10
0.0
 20
0.0
  9
$PLIMMAX
 10
180.0
 20
160.0
  9
$UNITMODE
 70
     0
  9
$VISRETAIN
 70
     1
  9
$PLINEGEN
 70
     0
  9
$PSLTSCALE
 70
     1
  0
ENDSEC
  0
SECTION
  2
TABLES
  0
TABLE
  2
VPORT
 70
     1
  0
VPORT
  2
*ACTIVE
 70
     0
 10
0.0
 20
0.0
 11
1.0
 21
1.0
 12
344.1869158879
 22
148.5
 13
0.0
 23
0.0
 14
10.0
 24
10.0
 15
10.0
 25
10.0
 16
0.0
 26
0.0
 36
1.0
 17
0.0
 27
0.0
 37
0.0
 40
297.0
 41
1.9729729729
 42
50.0
 43
0.0
 44
0.0
 50
0.0
 51
0.0
 71
     0
 72
   100
 73
     1
 74
     3
 75
     0
 76
     0
 77
     0
 78
     0
  0
ENDTAB
  0
TABLE
  2
LTYPE
 70
     3
  0
LTYPE
  2
CONTINUOUS
 70
     0
  3
Solid line
 72
    65
 73
     0
 40
0.0
  0
LTYPE
  2
HIDDEN2
 70
     0
  3
Hidden (.5x) _ _ _ _ _ _ _ _ _ _ _ _ _ _ _ _ _ 
 72
    65
 73
     2
 40
4.7625
 49
3.175
 49
-1.5875
  0
LTYPE
  2
CENTER2
 70
     0
  3
Center (.5x) ___ _ ___ _ ___ _ ___ _ ___ _ ___
 72
    65
 73
     4
 40
28.575
 49
19.05
 49
-3.175
 49
3.175
 49
-3.175
  0
ENDTAB
  0
TABLE
  2
LAYER
 70
     6
  0
LAYER
  2
0
 70
     0
 62
     7
  6
CONTINUOUS
  0
LAYER
  2
DEFAULT
 70
     0
 62
     7
  6
CONTINUOUS
  0
LAYER
  2
VISIBLE
 70
     0
 62
     7
  6
CONTINUOUS
  0
LAYER
  2
HIDDEN
 70
     0
 62
     7
  6
CONTINUOUS
  0
LAYER
  2
TANGENTE
 70
     0
 62
     7
  6
CONTINUOUS
  0
LAYER
  2
STANDARD
 70
     0
 62
     7
  6
CONTINUOUS
  0
ENDTAB
  0
TABLE
  2
STYLE
 70
     3
  0
STYLE
  2
STANDARD
 70
     0
 40
0.0
 41
1.0
 50
0.0
 71
     0
 42
2.5
  3
txt
  4

  0
STYLE
  2
SEACAD_ARIAL_TTF
 70
     0
 40
0.0
 41
1.0
 50
0.0
 71
     0
 42
0.2
  3
arial.ttf
  4

  0
STYLE
  2
SEACAD_SEMECA1_TTF
 70
     0
 40
0.0
 41
1.0
 50
0.0
 71
     0
 42
0.2
  3
semeca1.ttf
  4

  0
ENDTAB
  0
TABLE
  2
VIEW
 70
     0
  0
ENDTAB
  0
TABLE
  2
UCS
 70
     0
  0
ENDTAB
  0
TABLE
  2
APPID
 70
     1
  0
APPID
  2
ACAD
 70
     0
  0
ENDTAB
  0
TABLE
  2
DIMSTYLE
 70
     1
  0
DIMSTYLE
  2
ISO-25
 70
     0
  3

  4

  5

  6

  7

 40
1.0
 41
2.5
 42
0.625
 43
3.75
 44
1.25
 45
0.0
 46
0.0
 47
0.0
 48
0.0
140
2.5
141
2.5
142
0.0
143
0.0393700787
144
1.0
145
0.0
146
1.0
147
0.625
 71
     0
 72
     0
 73
     0
 74
     0
 75
     0
 76
     0
 77
     1
 78
     8
170
     0
171
     3
172
     1
173
     0
174
     0
175
     0
176
     0
177
     0
178
     0
  0
ENDTAB
  0
ENDSEC
  0
SECTION
  2
BLOCKS
  0
BLOCK
  8
0
  2
$MODEL_SPACE
 70
     0
 10
0.0
 20
0.0
 30
0.0
  3
$MODEL_SPACE
  1

  0
ENDBLK
  5
21
  8
0
  0
BLOCK
 67
     1
  8
0
  2
$PAPER_SPACE
 70
     0
 10
0.0
 20
0.0
 30
0.0
  3
$PAPER_SPACE
  1

  0
ENDBLK
  5
1D
 67
     1
  8
0
  0
BLOCK
  8
0
  2
SEANNOT_GROUP
 70
     0
 10
0.0
 20
0.0
 30
0.0
  3
SEANNOT_GROUP
  1

  0
POLYLINE
  5
62
  8
DEFAULT
  6
CONTINUOUS
 62
     7
 66
     1
 10
0.0
 20
0.0
 30
0.0
  0
VERTEX
  5
185
  8
DEFAULT
  6
CONTINUOUS
 62
     7
 10
83.3686395514
 20
104.1939751625
 30
0.0
  0
VERTEX
  5
186
  8
DEFAULT
  6
CONTINUOUS
 62
     7
 10
79.0253663272
 20
91.6993189554
 30
0.0
  0
SEQEND
  5
184
  8
DEFAULT
  6
CONTINUOUS
 62
     7
  0
POLYLINE
  5
63
  8
DEFAULT
  6
CONTINUOUS
 62
     7
 66
     1
 10
0.0
 20
0.0
 30
0.0
  0
VERTEX
  5
188
  8
DEFAULT
  6
CONTINUOUS
 62
     7
 10
79.4526469862
 20
94.1975267255
 30
0.0
  0
VERTEX
  5
189
  8
DEFAULT
  6
CONTINUOUS
 62
     7
 10
80.2397802815
 20
93.9239109566
 30
0.0
  0
VERTEX
  5
18A
  8
DEFAULT
  6
CONTINUOUS
 62
     7
 10
79.0253663272
 20
91.6993189554
 30
0.0
  0
VERTEX
  5
18B
  8
DEFAULT
  6
CONTINUOUS
 62
     7
 10
79.4526469862
 20
94.1975267255
 30
0.0
  0
SEQEND
  5
187
  8
DEFAULT
  6
CONTINUOUS
 62
     7
  0
LINE
  5
64
  8
DEFAULT
  6
CONTINUOUS
 62
     7
 10
83.3686395514
 20
104.1939751625
 30
0.0
 11
115.742006078
 21
104.1939751625
 31
0.0
  0
ENDBLK
  5
66
  8
0
  0
BLOCK
  8
0
  2
SE
 70
     0
 10
0.0
 20
0.0
 30
0.0
  3
SE
  1

  0
LINE
  5
6A
  8
VISIBLE
  6
CONTINUOUS
 62
     7
 10
77.6113899004
 20
67.5550177768
 30
0.0
 11
77.6113899004
 21
91.7700177768
 31
0.0
  0
LINE
  5
6D
  8
HIDDEN
  6
HIDDEN2
 62
     7
 10
86.1094026023
 20
71.1625177768
 30
0.0
 11
86.1094026023
 21
88.1625177768
 31
0.0
  0
LINE
  5
6E
  8
0
  6
HIDDEN2
 62
     7
 10
71.6113899004
 20
71.1625177768
 30
0.0
 11
71.6113899004
 21
88.1625177768
 31
0.0
  0
LINE
  5
6F
  8
0
  6
HIDDEN2
 62
     7
 10
65.6113899004
 20
75.0375177768
 30
0.0
 11
65.6113899004
 21
84.2875177768
 31
0.0
  0
LINE
  5
70
  8
VISIBLE
  6
CONTINUOUS
 62
     7
 10
76.6113899004
 20
63.9125177768
 30
0.0
 11
76.6113899004
 21
95.4125177768
 31
0.0
  0
ARC
  5
71
  8
VISIBLE
  6
CONTINUOUS
 62
     7
 10
90.9090137845
 20
41.4981494832
 30
0.0
 40
48.66545063943814
 50
88.6667320995
 51
92.7279582043
  0
LINE
  5
72
  8
VISIBLE
  6
CONTINUOUS
 62
     7
 10
90.6931686213
 20
69.1625177768
 30
0.0
 11
92.0413524706
 21
69.1705914081
 31
0.0
  0
LINE
  5
73
  8
VISIBLE
  6
CONTINUOUS
 62
     7
 10
63.6113899004
 20
64.4289200402
 30
0.0
 11
63.6113899004
 21
67.4944242531
 31
0.0
  0
LINE
  5
74
  8
VISIBLE
  6
CONTINUOUS
 62
     7
 10
66.6738899004
 20
65.7784350554
 30
0.0
 11
66.6738899004
 21
69.2333398124
 31
0.0
  0
LINE
  5
75
  8
VISIBLE
  6
CONTINUOUS
 62
     7
 10
68.5488899004
 20
65.7784350554
 30
0.0
 11
68.5488899004
 21
69.2333398124
 31
0.0
  0
ARC
  5
76
  8
VISIBLE
  6
CONTINUOUS
 62
     7
 10
70.0554954229
 20
48.2459672789
 30
0.0
 40
16.18304928831487
 50
75.4854414311
 51
89.8021062676
  0
LINE
  5
77
  8
VISIBLE
  6
CONTINUOUS
 62
     7
 10
70.1113899004
 20
64.4289200402
 30
0.0
 11
69.3001394378
 21
64.4289200402
 31
0.0
  0
POLYLINE
  5
78
  8
VISIBLE
  6
CONTINUOUS
 62
     7
 66
     1
 10
0.0
 20
0.0
 30
0.0
  0
VERTEX
  5
18C
  8
VISIBLE
  6
CONTINUOUS
 62
     7
 10
69.3001394378
 20
64.4289200402
 30
0.0
  0
VERTEX
  5
18D
  8
VISIBLE
  6
CONTINUOUS
 62
     7
 10
69.2687654376
 20
64.4851101711
 30
0.0
  0
VERTEX
  5
18E
  8
VISIBLE
  6
CONTINUOUS
 62
     7
 10
69.2373971686
 20
64.5413034623
 30
0.0
  0
VERTEX
  5
18F
  8
VISIBLE
  6
CONTINUOUS
 62
     7
 10
69.2060347022
 20
64.597499953
 30
0.0
  0
VERTEX
  5
190
  8
VISIBLE
  6
CONTINUOUS
 62
     7
 10
69.1746781099
 20
64.6536996827
 30
0.0
  0
VERTEX
  5
191
  8
VISIBLE
  6
CONTINUOUS
 62
     7
 10
69.1433274632
 20
64.7099026908
 30
0.0
  0
VERTEX
  5
192
  8
VISIBLE
  6
CONTINUOUS
 62
     7
 10
69.1119828335
 20
64.7661090165
 30
0.0
  0
VERTEX
  5
193
  8
VISIBLE
  6
CONTINUOUS
 62
     7
 10
69.0806442924
 20
64.8223186991
 30
0.0
  0
VERTEX
  5
194
  8
VISIBLE
  6
CONTINUOUS
 62
     7
 10
69.0493119113
 20
64.8785317782
 30
0.0
  0
VERTEX
  5
195
  8
VISIBLE
  6
CONTINUOUS
 62
     7
 10
69.0179857617
 20
64.9347482929
 30
0.0
  0
VERTEX
  5
196
  8
VISIBLE
  6
CONTINUOUS
 62
     7
 10
68.9866659151
 20
64.9909682827
 30
0.0
  0
VERTEX
  5
197
  8
VISIBLE
  6
CONTINUOUS
 62
     7
 10
68.9553524429
 20
65.0471917869
 30
0.0
  0
VERTEX
  5
198
  8
VISIBLE
  6
CONTINUOUS
 62
     7
 10
68.9240454166
 20
65.1034188448
 30
0.0
  0
VERTEX
  5
199
  8
VISIBLE
  6
CONTINUOUS
 62
     7
 10
68.8927449078
 20
65.1596494959
 30
0.0
  0
VERTEX
  5
19A
  8
VISIBLE
  6
CONTINUOUS
 62
     7
 10
68.8614509878
 20
65.2158837793
 30
0.0
  0
VERTEX
  5
19B
  8
VISIBLE
  6
CONTINUOUS
 62
     7
 10
68.8301637281
 20
65.2721217346
 30
0.0
  0
VERTEX
  5
19C
  8
VISIBLE
  6
CONTINUOUS
 62
     7
 10
68.7988832003
 20
65.328363401
 30
0.0
  0
VERTEX
  5
19D
  8
VISIBLE
  6
CONTINUOUS
 62
     7
 10
68.7676094757
 20
65.3846088179
 30
0.0
  0
VERTEX
  5
19E
  8
VISIBLE
  6
CONTINUOUS
 62
     7
 10
68.736342626
 20
65.4408580247
 30
0.0
  0
VERTEX
  5
19F
  8
VISIBLE
  6
CONTINUOUS
 62
     7
 10
68.7050827225
 20
65.4971110606
 30
0.0
  0
VERTEX
  5
1A0
  8
VISIBLE
  6
CONTINUOUS
 62
     7
 10
68.6738298367
 20
65.5533679651
 30
0.0
  0
VERTEX
  5
1A1
  8
VISIBLE
  6
CONTINUOUS
 62
     7
 10
68.6425840401
 20
65.6096287775
 30
0.0
  0
VERTEX
  5
1A2
  8
VISIBLE
  6
CONTINUOUS
 62
     7
 10
68.6113454042
 20
65.6658935371
 30
0.0
  0
VERTEX
  5
1A3
  8
VISIBLE
  6
CONTINUOUS
 62
     7
 10
68.5801140005
 20
65.7221622833
 30
0.0
  0
VERTEX
  5
1A4
  8
VISIBLE
  6
CONTINUOUS
 62
     7
 10
68.5488899004
 20
65.7784350554
 30
0.0
  0
SEQEND
  5
1A5
  8
VISIBLE
  6
CONTINUOUS
 62
     7
  0
POLYLINE
  5
79
  8
VISIBLE
  6
CONTINUOUS
 62
     7
 66
     1
 10
0.0
 20
0.0
 30
0.0
  0
VERTEX
  5
1A6
  8
VISIBLE
  6
CONTINUOUS
 62
     7
 10
66.6738899004
 20
65.7784350554
 30
0.0
  0
VERTEX
  5
1A7
  8
VISIBLE
  6
CONTINUOUS
 62
     7
 10
66.6426658003
 20
65.7221622833
 30
0.0
  0
VERTEX
  5
1A8
  8
VISIBLE
  6
CONTINUOUS
 62
     7
 10
66.6114343966
 20
65.6658935371
 30
0.0
  0
VERTEX
  5
1A9
  8
VISIBLE
  6
CONTINUOUS
 62
     7
 10
66.5801957607
 20
65.6096287775
 30
0.0
  0
VERTEX
  5
1AA
  8
VISIBLE
  6
CONTINUOUS
 62
     7
 10
66.5489499641
 20
65.5533679651
 30
0.0
  0
VERTEX
  5
1AB
  8
VISIBLE
  6
CONTINUOUS
 62
     7
 10
66.5176970784
 20
65.4971110606
 30
0.0
  0
VERTEX
  5
1AC
  8
VISIBLE
  6
CONTINUOUS
 62
     7
 10
66.4864371748
 20
65.4408580247
 30
0.0
  0
VERTEX
  5
1AD
  8
VISIBLE
  6
CONTINUOUS
 62
     7
 10
66.4551703251
 20
65.3846088179
 30
0.0
  0
VERTEX
  5
1AE
  8
VISIBLE
  6
CONTINUOUS
 62
     7
 10
66.4238966006
 20
65.328363401
 30
0.0
  0
VERTEX
  5
1AF
  8
VISIBLE
  6
CONTINUOUS
 62
     7
 10
66.3926160727
 20
65.2721217346
 30
0.0
  0
VERTEX
  5
1B0
  8
VISIBLE
  6
CONTINUOUS
 62
     7
 10
66.3613288131
 20
65.2158837793
 30
0.0
  0
VERTEX
  5
1B1
  8
VISIBLE
  6
CONTINUOUS
 62
     7
 10
66.3300348931
 20
65.1596494959
 30
0.0
  0
VERTEX
  5
1B2
  8
VISIBLE
  6
CONTINUOUS
 62
     7
 10
66.2987343842
 20
65.1034188448
 30
0.0
  0
VERTEX
  5
1B3
  8
VISIBLE
  6
CONTINUOUS
 62
     7
 10
66.2674273579
 20
65.0471917869
 30
0.0
  0
VERTEX
  5
1B4
  8
VISIBLE
  6
CONTINUOUS
 62
     7
 10
66.2361138857
 20
64.9909682827
 30
0.0
  0
VERTEX
  5
1B5
  8
VISIBLE
  6
CONTINUOUS
 62
     7
 10
66.2047940391
 20
64.9347482929
 30
0.0
  0
VERTEX
  5
1B6
  8
VISIBLE
  6
CONTINUOUS
 62
     7
 10
66.1734678895
 20
64.8785317782
 30
0.0
  0
VERTEX
  5
1B7
  8
VISIBLE
  6
CONTINUOUS
 62
     7
 10
66.1421355084
 20
64.8223186991
 30
0.0
  0
VERTEX
  5
1B8
  8
VISIBLE
  6
CONTINUOUS
 62
     7
 10
66.1107969673
 20
64.7661090165
 30
0.0
  0
VERTEX
  5
1B9
  8
VISIBLE
  6
CONTINUOUS
 62
     7
 10
66.0794523376
 20
64.7099026908
 30
0.0
  0
VERTEX
  5
1BA
  8
VISIBLE
  6
CONTINUOUS
 62
     7
 10
66.0481016909
 20
64.6536996827
 30
0.0
  0
VERTEX
  5
1BB
  8
VISIBLE
  6
CONTINUOUS
 62
     7
 10
66.0167450987
 20
64.597499953
 30
0.0
  0
VERTEX
  5
1BC
  8
VISIBLE
  6
CONTINUOUS
 62
     7
 10
65.9853826323
 20
64.5413034623
 30
0.0
  0
VERTEX
  5
1BD
  8
VISIBLE
  6
CONTINUOUS
 62
     7
 10
65.9540143632
 20
64.4851101711
 30
0.0
  0
VERTEX
  5
1BE
  8
VISIBLE
  6
CONTINUOUS
 62
     7
 10
65.922640363
 20
64.4289200402
 30
0.0
  0
SEQEND
  5
1BF
  8
VISIBLE
  6
CONTINUOUS
 62
     7
  0
LINE
  5
7A
  8
VISIBLE
  6
CONTINUOUS
 62
     7
 10
65.922640363
 20
64.4289200402
 30
0.0
 11
63.6113899004
 21
64.4289200402
 31
0.0
  0
LINE
  5
7B
  8
VISIBLE
  6
CONTINUOUS
 62
     7
 10
66.6738899004
 20
66.4125177768
 30
0.0
 11
68.5488899004
 21
66.4125177768
 31
0.0
  0
ARC
  5
7C
  8
VISIBLE
  6
CONTINUOUS
 62
     7
 10
69.530714516
 20
111.0589335897
 30
0.0
 40
16.30315657511959
 50
270.2835265601
 51
286.3180158533
  0
LINE
  5
7D
  8
VISIBLE
  6
CONTINUOUS
 62
     7
 10
69.6113899004
 20
94.7559766249
 30
0.0
 11
69.3001394378
 21
94.7559766249
 31
0.0
  0
POLYLINE
  5
7E
  8
VISIBLE
  6
CONTINUOUS
 62
     7
 66
     1
 10
0.0
 20
0.0
 30
0.0
  0
VERTEX
  5
1C0
  8
VISIBLE
  6
CONTINUOUS
 62
     7
 10
69.3001394378
 20
94.7559766249
 30
0.0
  0
VERTEX
  5
1C1
  8
VISIBLE
  6
CONTINUOUS
 62
     7
 10
69.26874441
 20
94.6992248231
 30
0.0
  0
VERTEX
  5
1C2
  8
VISIBLE
  6
CONTINUOUS
 62
     7
 10
69.2373567823
 20
94.6424689054
 30
0.0
  0
VERTEX
  5
1C3
  8
VISIBLE
  6
CONTINUOUS
 62
     7
 10
69.2059766481
 20
94.5857088208
 30
0.0
  0
VERTEX
  5
1C4
  8
VISIBLE
  6
CONTINUOUS
 62
     7
 10
69.1746041006
 20
94.5289445186
 30
0.0
  0
VERTEX
  5
1C5
  8
VISIBLE
  6
CONTINUOUS
 62
     7
 10
69.1432392329
 20
94.472175948
 30
0.0
  0
VERTEX
  5
1C6
  8
VISIBLE
  6
CONTINUOUS
 62
     7
 10
69.1118821384
 20
94.415403058
 30
0.0
  0
VERTEX
  5
1C7
  8
VISIBLE
  6
CONTINUOUS
 62
     7
 10
69.0805329101
 20
94.358625798
 30
0.0
  0
VERTEX
  5
1C8
  8
VISIBLE
  6
CONTINUOUS
 62
     7
 10
69.0491916413
 20
94.3018441171
 30
0.0
  0
VERTEX
  5
1C9
  8
VISIBLE
  6
CONTINUOUS
 62
     7
 10
69.0178584253
 20
94.2450579644
 30
0.0
  0
VERTEX
  5
1CA
  8
VISIBLE
  6
CONTINUOUS
 62
     7
 10
68.9865333553
 20
94.1882672891
 30
0.0
  0
VERTEX
  5
1CB
  8
VISIBLE
  6
CONTINUOUS
 62
     7
 10
68.9552165244
 20
94.1314720405
 30
0.0
  0
VERTEX
  5
1CC
  8
VISIBLE
  6
CONTINUOUS
 62
     7
 10
68.9239080258
 20
94.0746721676
 30
0.0
  0
VERTEX
  5
1CD
  8
VISIBLE
  6
CONTINUOUS
 62
     7
 10
68.8926079529
 20
94.0178676198
 30
0.0
  0
VERTEX
  5
1CE
  8
VISIBLE
  6
CONTINUOUS
 62
     7
 10
68.8613163988
 20
93.961058346
 30
0.0
  0
VERTEX
  5
1CF
  8
VISIBLE
  6
CONTINUOUS
 62
     7
 10
68.8300334568
 20
93.9042442956
 30
0.0
  0
VERTEX
  5
1D0
  8
VISIBLE
  6
CONTINUOUS
 62
     7
 10
68.7987592199
 20
93.8474254177
 30
0.0
  0
VERTEX
  5
1D1
  8
VISIBLE
  6
CONTINUOUS
 62
     7
 10
68.7674937816
 20
93.7906016615
 30
0.0
  0
VERTEX
  5
1D2
  8
VISIBLE
  6
CONTINUOUS
 62
     7
 10
68.7362372349
 20
93.7337729761
 30
0.0
  0
VERTEX
  5
1D3
  8
VISIBLE
  6
CONTINUOUS
 62
     7
 10
68.7049896732
 20
93.6769393108
 30
0.0
  0
VERTEX
  5
1D4
  8
VISIBLE
  6
CONTINUOUS
 62
     7
 10
68.6737511895
 20
93.6201006147
 30
0.0
  0
VERTEX
  5
1D5
  8
VISIBLE
  6
CONTINUOUS
 62
     7
 10
68.6425218772
 20
93.563256837
 30
0.0
  0
VERTEX
  5
1D6
  8
VISIBLE
  6
CONTINUOUS
 62
     7
 10
68.6113018294
 20
93.5064079268
 30
0.0
  0
VERTEX
  5
1D7
  8
VISIBLE
  6
CONTINUOUS
 62
     7
 10
68.5800911394
 20
93.4495538334
 30
0.0
  0
VERTEX
  5
1D8
  8
VISIBLE
  6
CONTINUOUS
 62
     7
 10
68.5488899004
 20
93.3926945059
 30
0.0
  0
SEQEND
  5
1D9
  8
VISIBLE
  6
CONTINUOUS
 62
     7
  0
LINE
  5
7F
  8
VISIBLE
  6
CONTINUOUS
 62
     7
 10
66.6738899004
 20
92.9125177768
 30
0.0
 11
68.5488899004
 21
92.9125177768
 31
0.0
  0
POLYLINE
  5
80
  8
VISIBLE
  6
CONTINUOUS
 62
     7
 66
     1
 10
0.0
 20
0.0
 30
0.0
  0
VERTEX
  5
1DA
  8
VISIBLE
  6
CONTINUOUS
 62
     7
 10
66.6738899004
 20
93.3926945059
 30
0.0
  0
VERTEX
  5
1DB
  8
VISIBLE
  6
CONTINUOUS
 62
     7
 10
66.6426886614
 20
93.4495538334
 30
0.0
  0
VERTEX
  5
1DC
  8
VISIBLE
  6
CONTINUOUS
 62
     7
 10
66.6114779714
 20
93.5064079268
 30
0.0
  0
VERTEX
  5
1DD
  8
VISIBLE
  6
CONTINUOUS
 62
     7
 10
66.5802579236
 20
93.563256837
 30
0.0
  0
VERTEX
  5
1DE
  8
VISIBLE
  6
CONTINUOUS
 62
     7
 10
66.5490286113
 20
93.6201006147
 30
0.0
  0
VERTEX
  5
1DF
  8
VISIBLE
  6
CONTINUOUS
 62
     7
 10
66.5177901277
 20
93.6769393108
 30
0.0
  0
VERTEX
  5
1E0
  8
VISIBLE
  6
CONTINUOUS
 62
     7
 10
66.4865425659
 20
93.7337729761
 30
0.0
  0
VERTEX
  5
1E1
  8
VISIBLE
  6
CONTINUOUS
 62
     7
 10
66.4552860192
 20
93.7906016615
 30
0.0
  0
VERTEX
  5
1E2
  8
VISIBLE
  6
CONTINUOUS
 62
     7
 10
66.4240205809
 20
93.8474254177
 30
0.0
  0
VERTEX
  5
1E3
  8
VISIBLE
  6
CONTINUOUS
 62
     7
 10
66.3927463441
 20
93.9042442956
 30
0.0
  0
VERTEX
  5
1E4
  8
VISIBLE
  6
CONTINUOUS
 62
     7
 10
66.361463402
 20
93.961058346
 30
0.0
  0
VERTEX
  5
1E5
  8
VISIBLE
  6
CONTINUOUS
 62
     7
 10
66.3301718479
 20
94.0178676198
 30
0.0
  0
VERTEX
  5
1E6
  8
VISIBLE
  6
CONTINUOUS
 62
     7
 10
66.298871775
 20
94.0746721676
 30
0.0
  0
VERTEX
  5
1E7
  8
VISIBLE
  6
CONTINUOUS
 62
     7
 10
66.2675632765
 20
94.1314720405
 30
0.0
  0
VERTEX
  5
1E8
  8
VISIBLE
  6
CONTINUOUS
 62
     7
 10
66.2362464456
 20
94.1882672891
 30
0.0
  0
VERTEX
  5
1E9
  8
VISIBLE
  6
CONTINUOUS
 62
     7
 10
66.2049213755
 20
94.2450579644
 30
0.0
  0
VERTEX
  5
1EA
  8
VISIBLE
  6
CONTINUOUS
 62
     7
 10
66.1735881595
 20
94.3018441171
 30
0.0
  0
VERTEX
  5
1EB
  8
VISIBLE
  6
CONTINUOUS
 62
     7
 10
66.1422468907
 20
94.358625798
 30
0.0
  0
VERTEX
  5
1EC
  8
VISIBLE
  6
CONTINUOUS
 62
     7
 10
66.1108976625
 20
94.415403058
 30
0.0
  0
VERTEX
  5
1ED
  8
VISIBLE
  6
CONTINUOUS
 62
     7
 10
66.0795405679
 20
94.472175948
 30
0.0
  0
VERTEX
  5
1EE
  8
VISIBLE
  6
CONTINUOUS
 62
     7
 10
66.0481757002
 20
94.5289445186
 30
0.0
  0
VERTEX
  5
1EF
  8
VISIBLE
  6
CONTINUOUS
 62
     7
 10
66.0168031527
 20
94.5857088208
 30
0.0
  0
VERTEX
  5
1F0
  8
VISIBLE
  6
CONTINUOUS
 62
     7
 10
65.9854230185
 20
94.6424689054
 30
0.0
  0
VERTEX
  5
1F1
  8
VISIBLE
  6
CONTINUOUS
 62
     7
 10
65.9540353909
 20
94.6992248231
 30
0.0
  0
VERTEX
  5
1F2
  8
VISIBLE
  6
CONTINUOUS
 62
     7
 10
65.922640363
 20
94.7559766249
 30
0.0
  0
SEQEND
  5
1F3
  8
VISIBLE
  6
CONTINUOUS
 62
     7
  0
LINE
  5
81
  8
VISIBLE
  6
CONTINUOUS
 62
     7
 10
65.922640363
 20
94.7559766249
 30
0.0
 11
63.6113899004
 21
94.7559766249
 31
0.0
  0
LINE
  5
82
  8
VISIBLE
  6
CONTINUOUS
 62
     7
 10
63.6113899004
 20
69.6625177768
 30
0.0
 11
63.6113899004
 21
94.7559766249
 31
0.0
  0
LINE
  5
83
  8
VISIBLE
  6
CONTINUOUS
 62
     7
 10
63.6113899004
 20
69.6625177768
 30
0.0
 11
65.922640363
 21
69.6625177768
 31
0.0
  0
LINE
  5
84
  8
VISIBLE
  6
CONTINUOUS
 62
     7
 10
63.6113899004
 20
67.4944242531
 30
0.0
 11
65.922640363
 21
67.4944242531
 31
0.0
  0
LINE
  5
85
  8
VISIBLE
  6
CONTINUOUS
 62
     7
 10
66.6738899004
 20
69.6625177768
 30
0.0
 11
66.6738899004
 21
93.3926945059
 31
0.0
  0
LINE
  5
86
  8
VISIBLE
  6
CONTINUOUS
 62
     7
 10
65.922640363
 20
69.6625177768
 30
0.0
 11
66.6738899004
 21
69.6625177768
 31
0.0
  0
LINE
  5
87
  8
VISIBLE
  6
CONTINUOUS
 62
     7
 10
68.5488899004
 20
69.6625177768
 30
0.0
 11
68.5488899004
 21
93.3926945059
 31
0.0
  0
ARC
  5
88
  8
VISIBLE
  6
CONTINUOUS
 62
     7
 10
70.3634334384
 20
71.0810515102
 30
0.0
 40
3.595472295280838
 50
265.980254236
 51
336.7631264548
  0
LINE
  5
89
  8
VISIBLE
  6
CONTINUOUS
 62
     7
 10
69.3001394378
 20
69.6625177768
 30
0.0
 11
73.6672468522
 21
69.6625177768
 31
0.0
  0
LINE
  5
8A
  8
VISIBLE
  6
CONTINUOUS
 62
     7
 10
68.5488899004
 20
69.6625177768
 30
0.0
 11
69.3001394378
 21
69.6625177768
 31
0.0
  0
POLYLINE
  5
8B
  8
VISIBLE
  6
CONTINUOUS
 62
     7
 66
     1
 10
0.0
 20
0.0
 30
0.0
  0
VERTEX
  5
1F4
  8
VISIBLE
  6
CONTINUOUS
 62
     7
 10
68.5488899004
 20
69.2333398124
 30
0.0
  0
VERTEX
  5
1F5
  8
VISIBLE
  6
CONTINUOUS
 62
     7
 10
68.5792618014
 20
69.1605792635
 30
0.0
  0
VERTEX
  5
1F6
  8
VISIBLE
  6
CONTINUOUS
 62
     7
 10
68.6097224442
 20
69.0878449571
 30
0.0
  0
VERTEX
  5
1F7
  8
VISIBLE
  6
CONTINUOUS
 62
     7
 10
68.6402707572
 20
69.01513694
 30
0.0
  0
VERTEX
  5
1F8
  8
VISIBLE
  6
CONTINUOUS
 62
     7
 10
68.6709056688
 20
68.942455259
 30
0.0
  0
VERTEX
  5
1F9
  8
VISIBLE
  6
CONTINUOUS
 62
     7
 10
68.7016261076
 20
68.8697999609
 30
0.0
  0
VERTEX
  5
1FA
  8
VISIBLE
  6
CONTINUOUS
 62
     7
 10
68.7324310019
 20
68.7971710924
 30
0.0
  0
VERTEX
  5
1FB
  8
VISIBLE
  6
CONTINUOUS
 62
     7
 10
68.7633192803
 20
68.7245687003
 30
0.0
  0
VERTEX
  5
1FC
  8
VISIBLE
  6
CONTINUOUS
 62
     7
 10
68.7942898711
 20
68.6519928314
 30
0.0
  0
VERTEX
  5
1FD
  8
VISIBLE
  6
CONTINUOUS
 62
     7
 10
68.8253417029
 20
68.5794435325
 30
0.0
  0
VERTEX
  5
1FE
  8
VISIBLE
  6
CONTINUOUS
 62
     7
 10
68.8564737041
 20
68.5069208503
 30
0.0
  0
VERTEX
  5
1FF
  8
VISIBLE
  6
CONTINUOUS
 62
     7
 10
68.887684803
 20
68.4344248317
 30
0.0
  0
VERTEX
  5
200
  8
VISIBLE
  6
CONTINUOUS
 62
     7
 10
68.9189739283
 20
68.3619555233
 30
0.0
  0
VERTEX
  5
201
  8
VISIBLE
  6
CONTINUOUS
 62
     7
 10
68.9503400083
 20
68.2895129721
 30
0.0
  0
VERTEX
  5
202
  8
VISIBLE
  6
CONTINUOUS
 62
     7
 10
68.9817819715
 20
68.2170972246
 30
0.0
  0
VERTEX
  5
203
  8
VISIBLE
  6
CONTINUOUS
 62
     7
 10
69.0132987463
 20
68.1447083278
 30
0.0
  0
VERTEX
  5
204
  8
VISIBLE
  6
CONTINUOUS
 62
     7
 10
69.0448892612
 20
68.0723463285
 30
0.0
  0
VERTEX
  5
205
  8
VISIBLE
  6
CONTINUOUS
 62
     7
 10
69.0765524446
 20
68.0000112732
 30
0.0
  0
VERTEX
  5
206
  8
VISIBLE
  6
CONTINUOUS
 62
     7
 10
69.1082872251
 20
67.927703209
 30
0.0
  0
VERTEX
  5
207
  8
VISIBLE
  6
CONTINUOUS
 62
     7
 10
69.140092531
 20
67.8554221825
 30
0.0
  0
VERTEX
  5
208
  8
VISIBLE
  6
CONTINUOUS
 62
     7
 10
69.1719672907
 20
67.7831682405
 30
0.0
  0
VERTEX
  5
209
  8
VISIBLE
  6
CONTINUOUS
 62
     7
 10
69.2039104329
 20
67.7109414298
 30
0.0
  0
VERTEX
  5
20A
  8
VISIBLE
  6
CONTINUOUS
 62
     7
 10
69.2359208858
 20
67.6387417971
 30
0.0
  0
VERTEX
  5
20B
  8
VISIBLE
  6
CONTINUOUS
 62
     7
 10
69.2679975779
 20
67.5665693893
 30
0.0
  0
VERTEX
  5
20C
  8
VISIBLE
  6
CONTINUOUS
 62
     7
 10
69.3001394378
 20
67.4944242531
 30
0.0
  0
SEQEND
  5
20D
  8
VISIBLE
  6
CONTINUOUS
 62
     7
  0
LINE
  5
8C
  8
VISIBLE
  6
CONTINUOUS
 62
     7
 10
69.3001394378
 20
67.4944242531
 30
0.0
 11
70.1113899004
 21
67.4944242531
 31
0.0
  0
POLYLINE
  5
8D
  8
VISIBLE
  6
CONTINUOUS
 62
     7
 66
     1
 10
0.0
 20
0.0
 30
0.0
  0
VERTEX
  5
20E
  8
VISIBLE
  6
CONTINUOUS
 62
     7
 10
65.922640363
 20
67.4944242531
 30
0.0
  0
VERTEX
  5
20F
  8
VISIBLE
  6
CONTINUOUS
 62
     7
 10
65.9547822229
 20
67.5665693893
 30
0.0
  0
VERTEX
  5
210
  8
VISIBLE
  6
CONTINUOUS
 62
     7
 10
65.9868589151
 20
67.6387417971
 30
0.0
  0
VERTEX
  5
211
  8
VISIBLE
  6
CONTINUOUS
 62
     7
 10
66.018869368
 20
67.7109414298
 30
0.0
  0
VERTEX
  5
212
  8
VISIBLE
  6
CONTINUOUS
 62
     7
 10
66.0508125101
 20
67.7831682405
 30
0.0
  0
VERTEX
  5
213
  8
VISIBLE
  6
CONTINUOUS
 62
     7
 10
66.0826872699
 20
67.8554221825
 30
0.0
  0
VERTEX
  5
214
  8
VISIBLE
  6
CONTINUOUS
 62
     7
 10
66.1144925757
 20
67.927703209
 30
0.0
  0
VERTEX
  5
215
  8
VISIBLE
  6
CONTINUOUS
 62
     7
 10
66.1462273562
 20
68.0000112732
 30
0.0
  0
VERTEX
  5
216
  8
VISIBLE
  6
CONTINUOUS
 62
     7
 10
66.1778905396
 20
68.0723463285
 30
0.0
  0
VERTEX
  5
217
  8
VISIBLE
  6
CONTINUOUS
 62
     7
 10
66.2094810545
 20
68.1447083278
 30
0.0
  0
VERTEX
  5
218
  8
VISIBLE
  6
CONTINUOUS
 62
     7
 10
66.2409978294
 20
68.2170972246
 30
0.0
  0
VERTEX
  5
219
  8
VISIBLE
  6
CONTINUOUS
 62
     7
 10
66.2724397925
 20
68.2895129721
 30
0.0
  0
VERTEX
  5
21A
  8
VISIBLE
  6
CONTINUOUS
 62
     7
 10
66.3038058725
 20
68.3619555233
 30
0.0
  0
VERTEX
  5
21B
  8
VISIBLE
  6
CONTINUOUS
 62
     7
 10
66.3350949978
 20
68.4344248317
 30
0.0
  0
VERTEX
  5
21C
  8
VISIBLE
  6
CONTINUOUS
 62
     7
 10
66.3663060968
 20
68.5069208503
 30
0.0
  0
VERTEX
  5
21D
  8
VISIBLE
  6
CONTINUOUS
 62
     7
 10
66.3974380979
 20
68.5794435325
 30
0.0
  0
VERTEX
  5
21E
  8
VISIBLE
  6
CONTINUOUS
 62
     7
 10
66.4284899297
 20
68.6519928314
 30
0.0
  0
VERTEX
  5
21F
  8
VISIBLE
  6
CONTINUOUS
 62
     7
 10
66.4594605205
 20
68.7245687003
 30
0.0
  0
VERTEX
  5
220
  8
VISIBLE
  6
CONTINUOUS
 62
     7
 10
66.4903487989
 20
68.7971710924
 30
0.0
  0
VERTEX
  5
221
  8
VISIBLE
  6
CONTINUOUS
 62
     7
 10
66.5211536933
 20
68.8697999609
 30
0.0
  0
VERTEX
  5
222
  8
VISIBLE
  6
CONTINUOUS
 62
     7
 10
66.551874132
 20
68.942455259
 30
0.0
  0
VERTEX
  5
223
  8
VISIBLE
  6
CONTINUOUS
 62
     7
 10
66.5825090437
 20
69.01513694
 30
0.0
  0
VERTEX
  5
224
  8
VISIBLE
  6
CONTINUOUS
 62
     7
 10
66.6130573567
 20
69.0878449571
 30
0.0
  0
VERTEX
  5
225
  8
VISIBLE
  6
CONTINUOUS
 62
     7
 10
66.6435179994
 20
69.1605792635
 30
0.0
  0
VERTEX
  5
226
  8
VISIBLE
  6
CONTINUOUS
 62
     7
 10
66.6738899004
 20
69.2333398124
 30
0.0
  0
SEQEND
  5
227
  8
VISIBLE
  6
CONTINUOUS
 62
     7
  0
LINE
  5
8E
  8
VISIBLE
  6
CONTINUOUS
 62
     7
 10
66.6738899004
 20
69.2333398124
 30
0.0
 11
66.6738899004
 21
69.6625177768
 31
0.0
  0
LINE
  5
8F
  8
VISIBLE
  6
CONTINUOUS
 62
     7
 10
68.5488899004
 20
69.6625177768
 30
0.0
 11
68.5488899004
 21
69.2333398124
 31
0.0
  0
LINE
  5
90
  8
VISIBLE
  6
CONTINUOUS
 62
     7
 10
63.6113899004
 20
67.4944242531
 30
0.0
 11
63.6113899004
 21
69.6625177768
 31
0.0
  0
CIRCLE
  5
91
  8
0
  6
HIDDEN2
 62
     7
 10
73.1113899004
 20
79.6625177768
 30
0.0
 40
2.5
  0
ARC
  5
92
  8
VISIBLE
  6
CONTINUOUS
 62
     7
 10
92.0161476137
 20
71.5938725809
 30
0.0
 40
2.42341224876894
 50
270.5959192294
 51
272.2523558728
  0
LINE
  5
93
  8
VISIBLE
  6
CONTINUOUS
 62
     7
 10
92.6113899004
 20
89.5886999318
 30
0.0
 11
92.6113899004
 21
69.7337885341
 31
0.0
  0
LINE
  5
94
  8
VISIBLE
  6
CONTINUOUS
 62
     7
 10
92.1113899004
 20
90.148769392
 30
0.0
 11
92.0413524706
 21
90.1504248158
 31
0.0
  0
POLYLINE
  5
95
  8
VISIBLE
  6
CONTINUOUS
 62
     7
 66
     1
 10
0.0
 20
0.0
 30
0.0
  0
VERTEX
  5
228
  8
VISIBLE
  6
CONTINUOUS
 62
     7
 10
92.6113899004
 20
89.5886999318
 30
0.0
  0
VERTEX
  5
229
  8
VISIBLE
  6
CONTINUOUS
 62
     7
 10
92.6113360533
 20
89.5930500061
 30
0.0
  0
VERTEX
  5
22A
  8
VISIBLE
  6
CONTINUOUS
 62
     7
 10
92.6111745892
 20
89.5973584031
 30
0.0
  0
VERTEX
  5
22B
  8
VISIBLE
  6
CONTINUOUS
 62
     7
 10
92.6109056243
 20
89.6016260703
 30
0.0
  0
VERTEX
  5
22C
  8
VISIBLE
  6
CONTINUOUS
 62
     7
 10
92.6105292744
 20
89.6058539555
 30
0.0
  0
VERTEX
  5
22D
  8
VISIBLE
  6
CONTINUOUS
 62
     7
 10
92.6100456556
 20
89.6100430063
 30
0.0
  0
VERTEX
  5
22E
  8
VISIBLE
  6
CONTINUOUS
 62
     7
 10
92.6094548839
 20
89.6141941703
 30
0.0
  0
VERTEX
  5
22F
  8
VISIBLE
  6
CONTINUOUS
 62
     7
 10
92.6087570753
 20
89.6183083951
 30
0.0
  0
VERTEX
  5
230
  8
VISIBLE
  6
CONTINUOUS
 62
     7
 10
92.6079523458
 20
89.6223866284
 30
0.0
  0
VERTEX
  5
231
  8
VISIBLE
  6
CONTINUOUS
 62
     7
 10
92.6070408115
 20
89.6264298178
 30
0.0
  0
VERTEX
  5
232
  8
VISIBLE
  6
CONTINUOUS
 62
     7
 10
92.6060225883
 20
89.630438911
 30
0.0
  0
VERTEX
  5
233
  8
VISIBLE
  6
CONTINUOUS
 62
     7
 10
92.6048977922
 20
89.6344148556
 30
0.0
  0
VERTEX
  5
234
  8
VISIBLE
  6
CONTINUOUS
 62
     7
 10
92.6036665392
 20
89.6383585993
 30
0.0
  0
VERTEX
  5
235
  8
VISIBLE
  6
CONTINUOUS
 62
     7
 10
92.6023289454
 20
89.6422710896
 30
0.0
  0
VERTEX
  5
236
  8
VISIBLE
  6
CONTINUOUS
 62
     7
 10
92.6008851268
 20
89.6461532742
 30
0.0
  0
VERTEX
  5
237
  8
VISIBLE
  6
CONTINUOUS
 62
     7
 10
92.5993351993
 20
89.6500061009
 30
0.0
  0
VERTEX
  5
238
  8
VISIBLE
  6
CONTINUOUS
 62
     7
 10
92.5976792789
 20
89.6538305171
 30
0.0
  0
VERTEX
  5
239
  8
VISIBLE
  6
CONTINUOUS
 62
     7
 10
92.5959174818
 20
89.6576274705
 30
0.0
  0
VERTEX
  5
23A
  8
VISIBLE
  6
CONTINUOUS
 62
     7
 10
92.5940499238
 20
89.6613979089
 30
0.0
  0
VERTEX
  5
23B
  8
VISIBLE
  6
CONTINUOUS
 62
     7
 10
92.592076721
 20
89.6651427798
 30
0.0
  0
VERTEX
  5
23C
  8
VISIBLE
  6
CONTINUOUS
 62
     7
 10
92.5899979894
 20
89.6688630308
 30
0.0
  0
VERTEX
  5
23D
  8
VISIBLE
  6
CONTINUOUS
 62
     7
 10
92.5878138449
 20
89.6725596096
 30
0.0
  0
VERTEX
  5
23E
  8
VISIBLE
  6
CONTINUOUS
 62
     7
 10
92.5855244037
 20
89.6762334639
 30
0.0
  0
VERTEX
  5
23F
  8
VISIBLE
  6
CONTINUOUS
 62
     7
 10
92.5831297817
 20
89.6798855412
 30
0.0
  0
VERTEX
  5
240
  8
VISIBLE
  6
CONTINUOUS
 62
     7
 10
92.5806300949
 20
89.6835167893
 30
0.0
  0
VERTEX
  5
241
  8
VISIBLE
  6
CONTINUOUS
 62
     7
 10
92.5780254594
 20
89.6871281557
 30
0.0
  0
VERTEX
  5
242
  8
VISIBLE
  6
CONTINUOUS
 62
     7
 10
92.575315991
 20
89.6907205881
 30
0.0
  0
VERTEX
  5
243
  8
VISIBLE
  6
CONTINUOUS
 62
     7
 10
92.5724995454
 20
89.6942964734
 30
0.0
  0
VERTEX
  5
244
  8
VISIBLE
  6
CONTINUOUS
 62
     7
 10
92.5695705849
 20
89.6978626786
 30
0.0
  0
VERTEX
  5
245
  8
VISIBLE
  6
CONTINUOUS
 62
     7
 10
92.5665241363
 20
89.7014268712
 30
0.0
  0
VERTEX
  5
246
  8
VISIBLE
  6
CONTINUOUS
 62
     7
 10
92.5633552261
 20
89.704996719
 30
0.0
  0
VERTEX
  5
247
  8
VISIBLE
  6
CONTINUOUS
 62
     7
 10
92.5600588809
 20
89.7085798898
 30
0.0
  0
VERTEX
  5
248
  8
VISIBLE
  6
CONTINUOUS
 62
     7
 10
92.5566301274
 20
89.7121840512
 30
0.0
  0
VERTEX
  5
249
  8
VISIBLE
  6
CONTINUOUS
 62
     7
 10
92.5530639922
 20
89.7158168709
 30
0.0
  0
VERTEX
  5
24A
  8
VISIBLE
  6
CONTINUOUS
 62
     7
 10
92.5493555018
 20
89.7194860166
 30
0.0
  0
VERTEX
  5
24B
  8
VISIBLE
  6
CONTINUOUS
 62
     7
 10
92.545499683
 20
89.7231991561
 30
0.0
  0
VERTEX
  5
24C
  8
VISIBLE
  6
CONTINUOUS
 62
     7
 10
92.5414915622
 20
89.7269639571
 30
0.0
  0
VERTEX
  5
24D
  8
VISIBLE
  6
CONTINUOUS
 62
     7
 10
92.5373261661
 20
89.7307880871
 30
0.0
  0
VERTEX
  5
24E
  8
VISIBLE
  6
CONTINUOUS
 62
     7
 10
92.5329985213
 20
89.7346792141
 30
0.0
  0
VERTEX
  5
24F
  8
VISIBLE
  6
CONTINUOUS
 62
     7
 10
92.5285036545
 20
89.7386450055
 30
0.0
  0
VERTEX
  5
250
  8
VISIBLE
  6
CONTINUOUS
 62
     7
 10
92.5238186924
 20
89.7427013691
 30
0.0
  0
VERTEX
  5
251
  8
VISIBLE
  6
CONTINUOUS
 62
     7
 10
92.5189184413
 20
89.7468768722
 30
0.0
  0
VERTEX
  5
252
  8
VISIBLE
  6
CONTINUOUS
 62
     7
 10
92.5137944466
 20
89.7511981722
 30
0.0
  0
VERTEX
  5
253
  8
VISIBLE
  6
CONTINUOUS
 62
     7
 10
92.5084382542
 20
89.7556919266
 30
0.0
  0
VERTEX
  5
254
  8
VISIBLE
  6
CONTINUOUS
 62
     7
 10
92.5028414094
 20
89.760384793
 30
0.0
  0
VERTEX
  5
255
  8
VISIBLE
  6
CONTINUOUS
 62
     7
 10
92.4969954581
 20
89.7653034286
 30
0.0
  0
VERTEX
  5
256
  8
VISIBLE
  6
CONTINUOUS
 62
     7
 10
92.4908919457
 20
89.7704744911
 30
0.0
  0
VERTEX
  5
257
  8
VISIBLE
  6
CONTINUOUS
 62
     7
 10
92.4845224179
 20
89.7759246379
 30
0.0
  0
VERTEX
  5
258
  8
VISIBLE
  6
CONTINUOUS
 62
     7
 10
92.4778784203
 20
89.7816805264
 30
0.0
  0
VERTEX
  5
259
  8
VISIBLE
  6
CONTINUOUS
 62
     7
 10
92.4709514986
 20
89.7877688141
 30
0.0
  0
VERTEX
  5
25A
  8
VISIBLE
  6
CONTINUOUS
 62
     7
 10
92.4637331983
 20
89.7942161585
 30
0.0
  0
VERTEX
  5
25B
  8
VISIBLE
  6
CONTINUOUS
 62
     7
 10
92.456215065
 20
89.801049217
 30
0.0
  0
VERTEX
  5
25C
  8
VISIBLE
  6
CONTINUOUS
 62
     7
 10
92.4483886444
 20
89.8082946471
 30
0.0
  0
VERTEX
  5
25D
  8
VISIBLE
  6
CONTINUOUS
 62
     7
 10
92.4403753347
 20
89.8158783634
 30
0.0
  0
VERTEX
  5
25E
  8
VISIBLE
  6
CONTINUOUS
 62
     7
 10
92.4323173863
 20
89.8236831547
 30
0.0
  0
VERTEX
  5
25F
  8
VISIBLE
  6
CONTINUOUS
 62
     7
 10
92.4242376231
 20
89.8316709893
 30
0.0
  0
VERTEX
  5
260
  8
VISIBLE
  6
CONTINUOUS
 62
     7
 10
92.416158869
 20
89.8398038359
 30
0.0
  0
VERTEX
  5
261
  8
VISIBLE
  6
CONTINUOUS
 62
     7
 10
92.408103948
 20
89.8480436629
 30
0.0
  0
VERTEX
  5
262
  8
VISIBLE
  6
CONTINUOUS
 62
     7
 10
92.4000956839
 20
89.8563524389
 30
0.0
  0
VERTEX
  5
263
  8
VISIBLE
  6
CONTINUOUS
 62
     7
 10
92.3921569007
 20
89.8646921324
 30
0.0
  0
VERTEX
  5
264
  8
VISIBLE
  6
CONTINUOUS
 62
     7
 10
92.3843104223
 20
89.873024712
 30
0.0
  0
VERTEX
  5
265
  8
VISIBLE
  6
CONTINUOUS
 62
     7
 10
92.3765790725
 20
89.8813121461
 30
0.0
  0
VERTEX
  5
266
  8
VISIBLE
  6
CONTINUOUS
 62
     7
 10
92.3689856754
 20
89.8895164032
 30
0.0
  0
VERTEX
  5
267
  8
VISIBLE
  6
CONTINUOUS
 62
     7
 10
92.3615530547
 20
89.897599452
 30
0.0
  0
VERTEX
  5
268
  8
VISIBLE
  6
CONTINUOUS
 62
     7
 10
92.3543040345
 20
89.9055232608
 30
0.0
  0
VERTEX
  5
269
  8
VISIBLE
  6
CONTINUOUS
 62
     7
 10
92.3472614387
 20
89.9132497984
 30
0.0
  0
VERTEX
  5
26A
  8
VISIBLE
  6
CONTINUOUS
 62
     7
 10
92.3403836902
 20
89.9208068931
 30
0.0
  0
VERTEX
  5
26B
  8
VISIBLE
  6
CONTINUOUS
 62
     7
 10
92.3336090317
 20
89.9282506653
 30
0.0
  0
VERTEX
  5
26C
  8
VISIBLE
  6
CONTINUOUS
 62
     7
 10
92.326930017
 20
89.9355855208
 30
0.0
  0
VERTEX
  5
26D
  8
VISIBLE
  6
CONTINUOUS
 62
     7
 10
92.3203391994
 20
89.9428158656
 30
0.0
  0
VERTEX
  5
26E
  8
VISIBLE
  6
CONTINUOUS
 62
     7
 10
92.3138291327
 20
89.9499461056
 30
0.0
  0
VERTEX
  5
26F
  8
VISIBLE
  6
CONTINUOUS
 62
     7
 10
92.3073923702
 20
89.9569806466
 30
0.0
  0
VERTEX
  5
270
  8
VISIBLE
  6
CONTINUOUS
 62
     7
 10
92.3010214657
 20
89.9639238947
 30
0.0
  0
VERTEX
  5
271
  8
VISIBLE
  6
CONTINUOUS
 62
     7
 10
92.2947089726
 20
89.9707802557
 30
0.0
  0
VERTEX
  5
272
  8
VISIBLE
  6
CONTINUOUS
 62
     7
 10
92.2884474444
 20
89.9775541355
 30
0.0
  0
VERTEX
  5
273
  8
VISIBLE
  6
CONTINUOUS
 62
     7
 10
92.2822294349
 20
89.98424994
 30
0.0
  0
VERTEX
  5
274
  8
VISIBLE
  6
CONTINUOUS
 62
     7
 10
92.2760474974
 20
89.9908720752
 30
0.0
  0
VERTEX
  5
275
  8
VISIBLE
  6
CONTINUOUS
 62
     7
 10
92.2698941856
 20
89.997424947
 30
0.0
  0
VERTEX
  5
276
  8
VISIBLE
  6
CONTINUOUS
 62
     7
 10
92.263762053
 20
90.0039129613
 30
0.0
  0
VERTEX
  5
277
  8
VISIBLE
  6
CONTINUOUS
 62
     7
 10
92.2576533781
 20
90.0103320889
 30
0.0
  0
VERTEX
  5
278
  8
VISIBLE
  6
CONTINUOUS
 62
     7
 10
92.2515745693
 20
90.0166759816
 30
0.0
  0
VERTEX
  5
279
  8
VISIBLE
  6
CONTINUOUS
 62
     7
 10
92.2455243755
 20
90.0229455664
 30
0.0
  0
VERTEX
  5
27A
  8
VISIBLE
  6
CONTINUOUS
 62
     7
 10
92.2395015455
 20
90.0291417704
 30
0.0
  0
VERTEX
  5
27B
  8
VISIBLE
  6
CONTINUOUS
 62
     7
 10
92.2335048281
 20
90.0352655208
 30
0.0
  0
VERTEX
  5
27C
  8
VISIBLE
  6
CONTINUOUS
 62
     7
 10
92.227532972
 20
90.0413177446
 30
0.0
  0
VERTEX
  5
27D
  8
VISIBLE
  6
CONTINUOUS
 62
     7
 10
92.2215847262
 20
90.047299369
 30
0.0
  0
VERTEX
  5
27E
  8
VISIBLE
  6
CONTINUOUS
 62
     7
 10
92.2156588393
 20
90.053211321
 30
0.0
  0
VERTEX
  5
27F
  8
VISIBLE
  6
CONTINUOUS
 62
     7
 10
92.2097540603
 20
90.0590545279
 30
0.0
  0
VERTEX
  5
280
  8
VISIBLE
  6
CONTINUOUS
 62
     7
 10
92.2038691379
 20
90.0648299166
 30
0.0
  0
VERTEX
  5
281
  8
VISIBLE
  6
CONTINUOUS
 62
     7
 10
92.1980028208
 20
90.0705384143
 30
0.0
  0
VERTEX
  5
282
  8
VISIBLE
  6
CONTINUOUS
 62
     7
 10
92.192153858
 20
90.0761809481
 30
0.0
  0
VERTEX
  5
283
  8
VISIBLE
  6
CONTINUOUS
 62
     7
 10
92.1863209982
 20
90.0817584451
 30
0.0
  0
VERTEX
  5
284
  8
VISIBLE
  6
CONTINUOUS
 62
     7
 10
92.1805029902
 20
90.0872718325
 30
0.0
  0
VERTEX
  5
285
  8
VISIBLE
  6
CONTINUOUS
 62
     7
 10
92.1746985828
 20
90.0927220372
 30
0.0
  0
VERTEX
  5
286
  8
VISIBLE
  6
CONTINUOUS
 62
     7
 10
92.1689065249
 20
90.0981099865
 30
0.0
  0
VERTEX
  5
287
  8
VISIBLE
  6
CONTINUOUS
 62
     7
 10
92.1631255651
 20
90.1034366074
 30
0.0
  0
VERTEX
  5
288
  8
VISIBLE
  6
CONTINUOUS
 62
     7
 10
92.1573544525
 20
90.1087028271
 30
0.0
  0
VERTEX
  5
289
  8
VISIBLE
  6
CONTINUOUS
 62
     7
 10
92.1515919356
 20
90.1139095726
 30
0.0
  0
VERTEX
  5
28A
  8
VISIBLE
  6
CONTINUOUS
 62
     7
 10
92.1458367634
 20
90.1190577711
 30
0.0
  0
VERTEX
  5
28B
  8
VISIBLE
  6
CONTINUOUS
 62
     7
 10
92.1400876846
 20
90.1241483496
 30
0.0
  0
VERTEX
  5
28C
  8
VISIBLE
  6
CONTINUOUS
 62
     7
 10
92.1343434481
 20
90.1291822353
 30
0.0
  0
VERTEX
  5
28D
  8
VISIBLE
  6
CONTINUOUS
 62
     7
 10
92.1286028026
 20
90.1341603553
 30
0.0
  0
VERTEX
  5
28E
  8
VISIBLE
  6
CONTINUOUS
 62
     7
 10
92.1228644969
 20
90.1390836367
 30
0.0
  0
VERTEX
  5
28F
  8
VISIBLE
  6
CONTINUOUS
 62
     7
 10
92.1171272799
 20
90.1439530065
 30
0.0
  0
VERTEX
  5
290
  8
VISIBLE
  6
CONTINUOUS
 62
     7
 10
92.1113899004
 20
90.148769392
 30
0.0
  0
SEQEND
  5
291
  8
VISIBLE
  6
CONTINUOUS
 62
     7
  0
POLYLINE
  5
96
  8
VISIBLE
  6
CONTINUOUS
 62
     7
 66
     1
 10
0.0
 20
0.0
 30
0.0
  0
VERTEX
  5
292
  8
VISIBLE
  6
CONTINUOUS
 62
     7
 10
92.1113899004
 20
69.1723326093
 30
0.0
  0
VERTEX
  5
293
  8
VISIBLE
  6
CONTINUOUS
 62
     7
 10
92.1141387683
 20
69.1746121238
 30
0.0
  0
VERTEX
  5
294
  8
VISIBLE
  6
CONTINUOUS
 62
     7
 10
92.1168890881
 20
69.176904951
 30
0.0
  0
VERTEX
  5
295
  8
VISIBLE
  6
CONTINUOUS
 62
     7
 10
92.119640933
 20
69.179211137
 30
0.0
  0
VERTEX
  5
296
  8
VISIBLE
  6
CONTINUOUS
 62
     7
 10
92.1223943764
 20
69.1815307281
 30
0.0
  0
VERTEX
  5
297
  8
VISIBLE
  6
CONTINUOUS
 62
     7
 10
92.1251494917
 20
69.1838637706
 30
0.0
  0
VERTEX
  5
298
  8
VISIBLE
  6
CONTINUOUS
 62
     7
 10
92.1279063523
 20
69.1862103108
 30
0.0
  0
VERTEX
  5
299
  8
VISIBLE
  6
CONTINUOUS
 62
     7
 10
92.1306650313
 20
69.1885703947
 30
0.0
  0
VERTEX
  5
29A
  8
VISIBLE
  6
CONTINUOUS
 62
     7
 10
92.1334256023
 20
69.1909440688
 30
0.0
  0
VERTEX
  5
29B
  8
VISIBLE
  6
CONTINUOUS
 62
     7
 10
92.1361881386
 20
69.1933313792
 30
0.0
  0
VERTEX
  5
29C
  8
VISIBLE
  6
CONTINUOUS
 62
     7
 10
92.1389527134
 20
69.1957323723
 30
0.0
  0
VERTEX
  5
29D
  8
VISIBLE
  6
CONTINUOUS
 62
     7
 10
92.1417194002
 20
69.1981470941
 30
0.0
  0
VERTEX
  5
29E
  8
VISIBLE
  6
CONTINUOUS
 62
     7
 10
92.1444882722
 20
69.2005755911
 30
0.0
  0
VERTEX
  5
29F
  8
VISIBLE
  6
CONTINUOUS
 62
     7
 10
92.1472594029
 20
69.2030179095
 30
0.0
  0
VERTEX
  5
2A0
  8
VISIBLE
  6
CONTINUOUS
 62
     7
 10
92.1500328656
 20
69.2054740954
 30
0.0
  0
VERTEX
  5
2A1
  8
VISIBLE
  6
CONTINUOUS
 62
     7
 10
92.1528087336
 20
69.2079441952
 30
0.0
  0
VERTEX
  5
2A2
  8
VISIBLE
  6
CONTINUOUS
 62
     7
 10
92.1555870803
 20
69.2104282551
 30
0.0
  0
VERTEX
  5
2A3
  8
VISIBLE
  6
CONTINUOUS
 62
     7
 10
92.158367979
 20
69.2129263213
 30
0.0
  0
VERTEX
  5
2A4
  8
VISIBLE
  6
CONTINUOUS
 62
     7
 10
92.1611515031
 20
69.2154384401
 30
0.0
  0
VERTEX
  5
2A5
  8
VISIBLE
  6
CONTINUOUS
 62
     7
 10
92.1639377259
 20
69.2179646577
 30
0.0
  0
VERTEX
  5
2A6
  8
VISIBLE
  6
CONTINUOUS
 62
     7
 10
92.1667267207
 20
69.2205050205
 30
0.0
  0
VERTEX
  5
2A7
  8
VISIBLE
  6
CONTINUOUS
 62
     7
 10
92.169518561
 20
69.2230595746
 30
0.0
  0
VERTEX
  5
2A8
  8
VISIBLE
  6
CONTINUOUS
 62
     7
 10
92.17231332
 20
69.2256283662
 30
0.0
  0
VERTEX
  5
2A9
  8
VISIBLE
  6
CONTINUOUS
 62
     7
 10
92.1751110711
 20
69.2282114417
 30
0.0
  0
VERTEX
  5
2AA
  8
VISIBLE
  6
CONTINUOUS
 62
     7
 10
92.1779118877
 20
69.2308088473
 30
0.0
  0
VERTEX
  5
2AB
  8
VISIBLE
  6
CONTINUOUS
 62
     7
 10
92.180715843
 20
69.2334206292
 30
0.0
  0
VERTEX
  5
2AC
  8
VISIBLE
  6
CONTINUOUS
 62
     7
 10
92.1835230105
 20
69.2360468337
 30
0.0
  0
VERTEX
  5
2AD
  8
VISIBLE
  6
CONTINUOUS
 62
     7
 10
92.1863334634
 20
69.238687507
 30
0.0
  0
VERTEX
  5
2AE
  8
VISIBLE
  6
CONTINUOUS
 62
     7
 10
92.1891472752
 20
69.2413426954
 30
0.0
  0
VERTEX
  5
2AF
  8
VISIBLE
  6
CONTINUOUS
 62
     7
 10
92.1919645192
 20
69.2440124451
 30
0.0
  0
VERTEX
  5
2B0
  8
VISIBLE
  6
CONTINUOUS
 62
     7
 10
92.1947852687
 20
69.2466968024
 30
0.0
  0
VERTEX
  5
2B1
  8
VISIBLE
  6
CONTINUOUS
 62
     7
 10
92.197609597
 20
69.2493958136
 30
0.0
  0
VERTEX
  5
2B2
  8
VISIBLE
  6
CONTINUOUS
 62
     7
 10
92.2004375776
 20
69.2521095248
 30
0.0
  0
VERTEX
  5
2B3
  8
VISIBLE
  6
CONTINUOUS
 62
     7
 10
92.2032692837
 20
69.2548379823
 30
0.0
  0
VERTEX
  5
2B4
  8
VISIBLE
  6
CONTINUOUS
 62
     7
 10
92.2061047887
 20
69.2575812323
 30
0.0
  0
VERTEX
  5
2B5
  8
VISIBLE
  6
CONTINUOUS
 62
     7
 10
92.208944166
 20
69.2603393212
 30
0.0
  0
VERTEX
  5
2B6
  8
VISIBLE
  6
CONTINUOUS
 62
     7
 10
92.2117874889
 20
69.2631122952
 30
0.0
  0
VERTEX
  5
2B7
  8
VISIBLE
  6
CONTINUOUS
 62
     7
 10
92.2146348307
 20
69.2659002005
 30
0.0
  0
VERTEX
  5
2B8
  8
VISIBLE
  6
CONTINUOUS
 62
     7
 10
92.2174862648
 20
69.2687030833
 30
0.0
  0
VERTEX
  5
2B9
  8
VISIBLE
  6
CONTINUOUS
 62
     7
 10
92.2203418645
 20
69.27152099
 30
0.0
  0
VERTEX
  5
2BA
  8
VISIBLE
  6
CONTINUOUS
 62
     7
 10
92.2232017033
 20
69.2743539667
 30
0.0
  0
VERTEX
  5
2BB
  8
VISIBLE
  6
CONTINUOUS
 62
     7
 10
92.2260658543
 20
69.2772020597
 30
0.0
  0
VERTEX
  5
2BC
  8
VISIBLE
  6
CONTINUOUS
 62
     7
 10
92.2289343911
 20
69.2800653153
 30
0.0
  0
VERTEX
  5
2BD
  8
VISIBLE
  6
CONTINUOUS
 62
     7
 10
92.2318073868
 20
69.2829437797
 30
0.0
  0
VERTEX
  5
2BE
  8
VISIBLE
  6
CONTINUOUS
 62
     7
 10
92.234684915
 20
69.2858374991
 30
0.0
  0
VERTEX
  5
2BF
  8
VISIBLE
  6
CONTINUOUS
 62
     7
 10
92.2375670488
 20
69.2887465198
 30
0.0
  0
VERTEX
  5
2C0
  8
VISIBLE
  6
CONTINUOUS
 62
     7
 10
92.2404538617
 20
69.2916708881
 30
0.0
  0
VERTEX
  5
2C1
  8
VISIBLE
  6
CONTINUOUS
 62
     7
 10
92.2433449079
 20
69.2946102062
 30
0.0
  0
VERTEX
  5
2C2
  8
VISIBLE
  6
CONTINUOUS
 62
     7
 10
92.2462410524
 20
69.2975657026
 30
0.0
  0
VERTEX
  5
2C3
  8
VISIBLE
  6
CONTINUOUS
 62
     7
 10
92.2491433635
 20
69.3005382927
 30
0.0
  0
VERTEX
  5
2C4
  8
VISIBLE
  6
CONTINUOUS
 62
     7
 10
92.2520522475
 20
69.303528139
 30
0.0
  0
VERTEX
  5
2C5
  8
VISIBLE
  6
CONTINUOUS
 62
     7
 10
92.2549681107
 20
69.3065354043
 30
0.0
  0
VERTEX
  5
2C6
  8
VISIBLE
  6
CONTINUOUS
 62
     7
 10
92.2578913595
 20
69.3095602512
 30
0.0
  0
VERTEX
  5
2C7
  8
VISIBLE
  6
CONTINUOUS
 62
     7
 10
92.2608224003
 20
69.3126028425
 30
0.0
  0
VERTEX
  5
2C8
  8
VISIBLE
  6
CONTINUOUS
 62
     7
 10
92.2637616392
 20
69.3156633408
 30
0.0
  0
VERTEX
  5
2C9
  8
VISIBLE
  6
CONTINUOUS
 62
     7
 10
92.2667094828
 20
69.3187419089
 30
0.0
  0
VERTEX
  5
2CA
  8
VISIBLE
  6
CONTINUOUS
 62
     7
 10
92.2696663373
 20
69.3218387094
 30
0.0
  0
VERTEX
  5
2CB
  8
VISIBLE
  6
CONTINUOUS
 62
     7
 10
92.2726326091
 20
69.324953905
 30
0.0
  0
VERTEX
  5
2CC
  8
VISIBLE
  6
CONTINUOUS
 62
     7
 10
92.2756087044
 20
69.3280876585
 30
0.0
  0
VERTEX
  5
2CD
  8
VISIBLE
  6
CONTINUOUS
 62
     7
 10
92.2785950297
 20
69.3312401325
 30
0.0
  0
VERTEX
  5
2CE
  8
VISIBLE
  6
CONTINUOUS
 62
     7
 10
92.2815919913
 20
69.3344114897
 30
0.0
  0
VERTEX
  5
2CF
  8
VISIBLE
  6
CONTINUOUS
 62
     7
 10
92.2845999955
 20
69.3376018929
 30
0.0
  0
VERTEX
  5
2D0
  8
VISIBLE
  6
CONTINUOUS
 62
     7
 10
92.2876194486
 20
69.3408115046
 30
0.0
  0
VERTEX
  5
2D1
  8
VISIBLE
  6
CONTINUOUS
 62
     7
 10
92.290650757
 20
69.3440404877
 30
0.0
  0
VERTEX
  5
2D2
  8
VISIBLE
  6
CONTINUOUS
 62
     7
 10
92.2936943271
 20
69.3472890047
 30
0.0
  0
VERTEX
  5
2D3
  8
VISIBLE
  6
CONTINUOUS
 62
     7
 10
92.2967505651
 20
69.3505572185
 30
0.0
  0
VERTEX
  5
2D4
  8
VISIBLE
  6
CONTINUOUS
 62
     7
 10
92.2998198774
 20
69.3538452916
 30
0.0
  0
VERTEX
  5
2D5
  8
VISIBLE
  6
CONTINUOUS
 62
     7
 10
92.3029026703
 20
69.3571533868
 30
0.0
  0
VERTEX
  5
2D6
  8
VISIBLE
  6
CONTINUOUS
 62
     7
 10
92.3059993502
 20
69.3604816669
 30
0.0
  0
VERTEX
  5
2D7
  8
VISIBLE
  6
CONTINUOUS
 62
     7
 10
92.3091103234
 20
69.3638302943
 30
0.0
  0
VERTEX
  5
2D8
  8
VISIBLE
  6
CONTINUOUS
 62
     7
 10
92.3122359962
 20
69.367199432
 30
0.0
  0
VERTEX
  5
2D9
  8
VISIBLE
  6
CONTINUOUS
 62
     7
 10
92.315376775
 20
69.3705892425
 30
0.0
  0
VERTEX
  5
2DA
  8
VISIBLE
  6
CONTINUOUS
 62
     7
 10
92.3185330661
 20
69.3739998886
 30
0.0
  0
VERTEX
  5
2DB
  8
VISIBLE
  6
CONTINUOUS
 62
     7
 10
92.3217052759
 20
69.377431533
 30
0.0
  0
VERTEX
  5
2DC
  8
VISIBLE
  6
CONTINUOUS
 62
     7
 10
92.3248938107
 20
69.3808843383
 30
0.0
  0
VERTEX
  5
2DD
  8
VISIBLE
  6
CONTINUOUS
 62
     7
 10
92.3280990768
 20
69.3843584673
 30
0.0
  0
VERTEX
  5
2DE
  8
VISIBLE
  6
CONTINUOUS
 62
     7
 10
92.3313214805
 20
69.3878540826
 30
0.0
  0
VERTEX
  5
2DF
  8
VISIBLE
  6
CONTINUOUS
 62
     7
 10
92.3345614283
 20
69.3913713469
 30
0.0
  0
VERTEX
  5
2E0
  8
VISIBLE
  6
CONTINUOUS
 62
     7
 10
92.3378327545
 20
69.3949245797
 30
0.0
  0
VERTEX
  5
2E1
  8
VISIBLE
  6
CONTINUOUS
 62
     7
 10
92.3411301067
 20
69.3985065123
 30
0.0
  0
VERTEX
  5
2E2
  8
VISIBLE
  6
CONTINUOUS
 62
     7
 10
92.3444522871
 20
69.4021147467
 30
0.0
  0
VERTEX
  5
2E3
  8
VISIBLE
  6
CONTINUOUS
 62
     7
 10
92.3477998202
 20
69.4057487638
 30
0.0
  0
VERTEX
  5
2E4
  8
VISIBLE
  6
CONTINUOUS
 62
     7
 10
92.3511732303
 20
69.4094080442
 30
0.0
  0
VERTEX
  5
2E5
  8
VISIBLE
  6
CONTINUOUS
 62
     7
 10
92.354573042
 20
69.4130920687
 30
0.0
  0
VERTEX
  5
2E6
  8
VISIBLE
  6
CONTINUOUS
 62
     7
 10
92.3579997798
 20
69.416800318
 30
0.0
  0
VERTEX
  5
2E7
  8
VISIBLE
  6
CONTINUOUS
 62
     7
 10
92.361453968
 20
69.4205322729
 30
0.0
  0
VERTEX
  5
2E8
  8
VISIBLE
  6
CONTINUOUS
 62
     7
 10
92.3649361312
 20
69.424287414
 30
0.0
  0
VERTEX
  5
2E9
  8
VISIBLE
  6
CONTINUOUS
 62
     7
 10
92.3684467938
 20
69.4280652221
 30
0.0
  0
VERTEX
  5
2EA
  8
VISIBLE
  6
CONTINUOUS
 62
     7
 10
92.3719864802
 20
69.4318651779
 30
0.0
  0
VERTEX
  5
2EB
  8
VISIBLE
  6
CONTINUOUS
 62
     7
 10
92.3755557149
 20
69.4356867622
 30
0.0
  0
VERTEX
  5
2EC
  8
VISIBLE
  6
CONTINUOUS
 62
     7
 10
92.3791340056
 20
69.4395064623
 30
0.0
  0
VERTEX
  5
2ED
  8
VISIBLE
  6
CONTINUOUS
 62
     7
 10
92.3827544474
 20
69.4433574639
 30
0.0
  0
VERTEX
  5
2EE
  8
VISIBLE
  6
CONTINUOUS
 62
     7
 10
92.3864168
 20
69.4472378888
 30
0.0
  0
VERTEX
  5
2EF
  8
VISIBLE
  6
CONTINUOUS
 62
     7
 10
92.3901173695
 20
69.4511421735
 30
0.0
  0
VERTEX
  5
2F0
  8
VISIBLE
  6
CONTINUOUS
 62
     7
 10
92.3938524614
 20
69.4550647544
 30
0.0
  0
VERTEX
  5
2F1
  8
VISIBLE
  6
CONTINUOUS
 62
     7
 10
92.3976183818
 20
69.459000068
 30
0.0
  0
VERTEX
  5
2F2
  8
VISIBLE
  6
CONTINUOUS
 62
     7
 10
92.4014114364
 20
69.4629425507
 30
0.0
  0
VERTEX
  5
2F3
  8
VISIBLE
  6
CONTINUOUS
 62
     7
 10
92.405227931
 20
69.466886639
 30
0.0
  0
VERTEX
  5
2F4
  8
VISIBLE
  6
CONTINUOUS
 62
     7
 10
92.4090641716
 20
69.4708267693
 30
0.0
  0
VERTEX
  5
2F5
  8
VISIBLE
  6
CONTINUOUS
 62
     7
 10
92.4129164638
 20
69.4747573782
 30
0.0
  0
VERTEX
  5
2F6
  8
VISIBLE
  6
CONTINUOUS
 62
     7
 10
92.4167811137
 20
69.4786729021
 30
0.0
  0
VERTEX
  5
2F7
  8
VISIBLE
  6
CONTINUOUS
 62
     7
 10
92.4206544269
 20
69.4825677774
 30
0.0
  0
VERTEX
  5
2F8
  8
VISIBLE
  6
CONTINUOUS
 62
     7
 10
92.4245562077
 20
69.486459555
 30
0.0
  0
VERTEX
  5
2F9
  8
VISIBLE
  6
CONTINUOUS
 62
     7
 10
92.4284806639
 20
69.4903406887
 30
0.0
  0
VERTEX
  5
2FA
  8
VISIBLE
  6
CONTINUOUS
 62
     7
 10
92.432408787
 20
69.4941927497
 30
0.0
  0
VERTEX
  5
2FB
  8
VISIBLE
  6
CONTINUOUS
 62
     7
 10
92.4363295089
 20
69.4980053588
 30
0.0
  0
VERTEX
  5
2FC
  8
VISIBLE
  6
CONTINUOUS
 62
     7
 10
92.4402317615
 20
69.5017681369
 30
0.0
  0
VERTEX
  5
2FD
  8
VISIBLE
  6
CONTINUOUS
 62
     7
 10
92.4441044766
 20
69.5054707049
 30
0.0
  0
VERTEX
  5
2FE
  8
VISIBLE
  6
CONTINUOUS
 62
     7
 10
92.4479365862
 20
69.5091026836
 30
0.0
  0
VERTEX
  5
2FF
  8
VISIBLE
  6
CONTINUOUS
 62
     7
 10
92.451717022
 20
69.5126536937
 30
0.0
  0
VERTEX
  5
300
  8
VISIBLE
  6
CONTINUOUS
 62
     7
 10
92.4554488203
 20
69.5161271032
 30
0.0
  0
VERTEX
  5
301
  8
VISIBLE
  6
CONTINUOUS
 62
     7
 10
92.4591341276
 20
69.5195278516
 30
0.0
  0
VERTEX
  5
302
  8
VISIBLE
  6
CONTINUOUS
 62
     7
 10
92.4627653575
 20
69.5228515353
 30
0.0
  0
VERTEX
  5
303
  8
VISIBLE
  6
CONTINUOUS
 62
     7
 10
92.4663377909
 20
69.526096357
 30
0.0
  0
VERTEX
  5
304
  8
VISIBLE
  6
CONTINUOUS
 62
     7
 10
92.469846709
 20
69.5292605191
 30
0.0
  0
VERTEX
  5
305
  8
VISIBLE
  6
CONTINUOUS
 62
     7
 10
92.4732873927
 20
69.5323422241
 30
0.0
  0
VERTEX
  5
306
  8
VISIBLE
  6
CONTINUOUS
 62
     7
 10
92.4766551229
 20
69.5353396746
 30
0.0
  0
VERTEX
  5
307
  8
VISIBLE
  6
CONTINUOUS
 62
     7
 10
92.4799451809
 20
69.538251073
 30
0.0
  0
VERTEX
  5
308
  8
VISIBLE
  6
CONTINUOUS
 62
     7
 10
92.4831464727
 20
69.541069785
 30
0.0
  0
VERTEX
  5
309
  8
VISIBLE
  6
CONTINUOUS
 62
     7
 10
92.4862773405
 20
69.5438157749
 30
0.0
  0
VERTEX
  5
30A
  8
VISIBLE
  6
CONTINUOUS
 62
     7
 10
92.4893428314
 20
69.5464952458
 30
0.0
  0
VERTEX
  5
30B
  8
VISIBLE
  6
CONTINUOUS
 62
     7
 10
92.4923441012
 20
69.5491108943
 30
0.0
  0
VERTEX
  5
30C
  8
VISIBLE
  6
CONTINUOUS
 62
     7
 10
92.4952823056
 20
69.5516654171
 30
0.0
  0
VERTEX
  5
30D
  8
VISIBLE
  6
CONTINUOUS
 62
     7
 10
92.4981586006
 20
69.5541615109
 30
0.0
  0
VERTEX
  5
30E
  8
VISIBLE
  6
CONTINUOUS
 62
     7
 10
92.500974142
 20
69.5566018722
 30
0.0
  0
VERTEX
  5
30F
  8
VISIBLE
  6
CONTINUOUS
 62
     7
 10
92.5037300855
 20
69.5589891977
 30
0.0
  0
VERTEX
  5
310
  8
VISIBLE
  6
CONTINUOUS
 62
     7
 10
92.5064275871
 20
69.5613261842
 30
0.0
  0
VERTEX
  5
311
  8
VISIBLE
  6
CONTINUOUS
 62
     7
 10
92.5090678026
 20
69.5636155283
 30
0.0
  0
VERTEX
  5
312
  8
VISIBLE
  6
CONTINUOUS
 62
     7
 10
92.5116518878
 20
69.5658599266
 30
0.0
  0
VERTEX
  5
313
  8
VISIBLE
  6
CONTINUOUS
 62
     7
 10
92.5141809985
 20
69.5680620757
 30
0.0
  0
VERTEX
  5
314
  8
VISIBLE
  6
CONTINUOUS
 62
     7
 10
92.5166562906
 20
69.5702246724
 30
0.0
  0
VERTEX
  5
315
  8
VISIBLE
  6
CONTINUOUS
 62
     7
 10
92.5190789199
 20
69.5723504134
 30
0.0
  0
VERTEX
  5
316
  8
VISIBLE
  6
CONTINUOUS
 62
     7
 10
92.5214500422
 20
69.5744419952
 30
0.0
  0
VERTEX
  5
317
  8
VISIBLE
  6
CONTINUOUS
 62
     7
 10
92.5237606594
 20
69.5764935438
 30
0.0
  0
VERTEX
  5
318
  8
VISIBLE
  6
CONTINUOUS
 62
     7
 10
92.5260286862
 20
69.5785228824
 30
0.0
  0
VERTEX
  5
319
  8
VISIBLE
  6
CONTINUOUS
 62
     7
 10
92.528258985
 20
69.5805346565
 30
0.0
  0
VERTEX
  5
31A
  8
VISIBLE
  6
CONTINUOUS
 62
     7
 10
92.5304519014
 20
69.5825294556
 30
0.0
  0
VERTEX
  5
31B
  8
VISIBLE
  6
CONTINUOUS
 62
     7
 10
92.5326077813
 20
69.584507869
 30
0.0
  0
VERTEX
  5
31C
  8
VISIBLE
  6
CONTINUOUS
 62
     7
 10
92.5347269702
 20
69.5864704861
 30
0.0
  0
VERTEX
  5
31D
  8
VISIBLE
  6
CONTINUOUS
 62
     7
 10
92.536809814
 20
69.5884178965
 30
0.0
  0
VERTEX
  5
31E
  8
VISIBLE
  6
CONTINUOUS
 62
     7
 10
92.5388566582
 20
69.5903506895
 30
0.0
  0
VERTEX
  5
31F
  8
VISIBLE
  6
CONTINUOUS
 62
     7
 10
92.5408678487
 20
69.5922694546
 30
0.0
  0
VERTEX
  5
320
  8
VISIBLE
  6
CONTINUOUS
 62
     7
 10
92.542843731
 20
69.5941747811
 30
0.0
  0
VERTEX
  5
321
  8
VISIBLE
  6
CONTINUOUS
 62
     7
 10
92.544784651
 20
69.5960672586
 30
0.0
  0
VERTEX
  5
322
  8
VISIBLE
  6
CONTINUOUS
 62
     7
 10
92.5466909543
 20
69.5979474764
 30
0.0
  0
VERTEX
  5
323
  8
VISIBLE
  6
CONTINUOUS
 62
     7
 10
92.5485629865
 20
69.5998160239
 30
0.0
  0
VERTEX
  5
324
  8
VISIBLE
  6
CONTINUOUS
 62
     7
 10
92.5504010935
 20
69.6016734907
 30
0.0
  0
VERTEX
  5
325
  8
VISIBLE
  6
CONTINUOUS
 62
     7
 10
92.5522056209
 20
69.6035204661
 30
0.0
  0
VERTEX
  5
326
  8
VISIBLE
  6
CONTINUOUS
 62
     7
 10
92.5539769144
 20
69.6053575395
 30
0.0
  0
VERTEX
  5
327
  8
VISIBLE
  6
CONTINUOUS
 62
     7
 10
92.5557153197
 20
69.6071853004
 30
0.0
  0
VERTEX
  5
328
  8
VISIBLE
  6
CONTINUOUS
 62
     7
 10
92.5574211825
 20
69.6090043381
 30
0.0
  0
VERTEX
  5
329
  8
VISIBLE
  6
CONTINUOUS
 62
     7
 10
92.5590948485
 20
69.6108152423
 30
0.0
  0
VERTEX
  5
32A
  8
VISIBLE
  6
CONTINUOUS
 62
     7
 10
92.5607366634
 20
69.6126186021
 30
0.0
  0
VERTEX
  5
32B
  8
VISIBLE
  6
CONTINUOUS
 62
     7
 10
92.5623469729
 20
69.6144150071
 30
0.0
  0
VERTEX
  5
32C
  8
VISIBLE
  6
CONTINUOUS
 62
     7
 10
92.5639261227
 20
69.6162050468
 30
0.0
  0
VERTEX
  5
32D
  8
VISIBLE
  6
CONTINUOUS
 62
     7
 10
92.5654744586
 20
69.6179893104
 30
0.0
  0
VERTEX
  5
32E
  8
VISIBLE
  6
CONTINUOUS
 62
     7
 10
92.5669923262
 20
69.6197683875
 30
0.0
  0
VERTEX
  5
32F
  8
VISIBLE
  6
CONTINUOUS
 62
     7
 10
92.5684800711
 20
69.6215428675
 30
0.0
  0
VERTEX
  5
330
  8
VISIBLE
  6
CONTINUOUS
 62
     7
 10
92.5699380392
 20
69.6233133398
 30
0.0
  0
VERTEX
  5
331
  8
VISIBLE
  6
CONTINUOUS
 62
     7
 10
92.5713665761
 20
69.6250803939
 30
0.0
  0
VERTEX
  5
332
  8
VISIBLE
  6
CONTINUOUS
 62
     7
 10
92.5727660275
 20
69.6268446191
 30
0.0
  0
VERTEX
  5
333
  8
VISIBLE
  6
CONTINUOUS
 62
     7
 10
92.5741367392
 20
69.6286066048
 30
0.0
  0
VERTEX
  5
334
  8
VISIBLE
  6
CONTINUOUS
 62
     7
 10
92.5754790567
 20
69.6303669406
 30
0.0
  0
VERTEX
  5
335
  8
VISIBLE
  6
CONTINUOUS
 62
     7
 10
92.5767933259
 20
69.6321262159
 30
0.0
  0
VERTEX
  5
336
  8
VISIBLE
  6
CONTINUOUS
 62
     7
 10
92.5780798924
 20
69.6338850199
 30
0.0
  0
VERTEX
  5
337
  8
VISIBLE
  6
CONTINUOUS
 62
     7
 10
92.5793391019
 20
69.6356439423
 30
0.0
  0
VERTEX
  5
338
  8
VISIBLE
  6
CONTINUOUS
 62
     7
 10
92.5805713001
 20
69.6374035724
 30
0.0
  0
VERTEX
  5
339
  8
VISIBLE
  6
CONTINUOUS
 62
     7
 10
92.5817768327
 20
69.6391644997
 30
0.0
  0
VERTEX
  5
33A
  8
VISIBLE
  6
CONTINUOUS
 62
     7
 10
92.5829560455
 20
69.6409273135
 30
0.0
  0
VERTEX
  5
33B
  8
VISIBLE
  6
CONTINUOUS
 62
     7
 10
92.584109284
 20
69.6426926033
 30
0.0
  0
VERTEX
  5
33C
  8
VISIBLE
  6
CONTINUOUS
 62
     7
 10
92.5852368941
 20
69.6444609585
 30
0.0
  0
VERTEX
  5
33D
  8
VISIBLE
  6
CONTINUOUS
 62
     7
 10
92.5863392215
 20
69.6462329686
 30
0.0
  0
VERTEX
  5
33E
  8
VISIBLE
  6
CONTINUOUS
 62
     7
 10
92.5874166117
 20
69.6480092229
 30
0.0
  0
VERTEX
  5
33F
  8
VISIBLE
  6
CONTINUOUS
 62
     7
 10
92.5884694106
 20
69.649790311
 30
0.0
  0
VERTEX
  5
340
  8
VISIBLE
  6
CONTINUOUS
 62
     7
 10
92.5894979638
 20
69.6515768222
 30
0.0
  0
VERTEX
  5
341
  8
VISIBLE
  6
CONTINUOUS
 62
     7
 10
92.590502617
 20
69.6533693459
 30
0.0
  0
VERTEX
  5
342
  8
VISIBLE
  6
CONTINUOUS
 62
     7
 10
92.5914837159
 20
69.6551684716
 30
0.0
  0
VERTEX
  5
343
  8
VISIBLE
  6
CONTINUOUS
 62
     7
 10
92.5924416063
 20
69.6569747887
 30
0.0
  0
VERTEX
  5
344
  8
VISIBLE
  6
CONTINUOUS
 62
     7
 10
92.5933766338
 20
69.6587888867
 30
0.0
  0
VERTEX
  5
345
  8
VISIBLE
  6
CONTINUOUS
 62
     7
 10
92.5942891441
 20
69.6606113549
 30
0.0
  0
VERTEX
  5
346
  8
VISIBLE
  6
CONTINUOUS
 62
     7
 10
92.595179483
 20
69.6624427828
 30
0.0
  0
VERTEX
  5
347
  8
VISIBLE
  6
CONTINUOUS
 62
     7
 10
92.5960479961
 20
69.6642837598
 30
0.0
  0
VERTEX
  5
348
  8
VISIBLE
  6
CONTINUOUS
 62
     7
 10
92.5968950291
 20
69.6661348753
 30
0.0
  0
VERTEX
  5
349
  8
VISIBLE
  6
CONTINUOUS
 62
     7
 10
92.5977211373
 20
69.6679972028
 30
0.0
  0
VERTEX
  5
34A
  8
VISIBLE
  6
CONTINUOUS
 62
     7
 10
92.5985285353
 20
69.6698776042
 30
0.0
  0
VERTEX
  5
34B
  8
VISIBLE
  6
CONTINUOUS
 62
     7
 10
92.5993118709
 20
69.6717654731
 30
0.0
  0
VERTEX
  5
34C
  8
VISIBLE
  6
CONTINUOUS
 62
     7
 10
92.6000710946
 20
69.6736607722
 30
0.0
  0
VERTEX
  5
34D
  8
VISIBLE
  6
CONTINUOUS
 62
     7
 10
92.6008061569
 20
69.6755634638
 30
0.0
  0
VERTEX
  5
34E
  8
VISIBLE
  6
CONTINUOUS
 62
     7
 10
92.6015170081
 20
69.6774735104
 30
0.0
  0
VERTEX
  5
34F
  8
VISIBLE
  6
CONTINUOUS
 62
     7
 10
92.6022035987
 20
69.6793908744
 30
0.0
  0
VERTEX
  5
350
  8
VISIBLE
  6
CONTINUOUS
 62
     7
 10
92.6028658792
 20
69.6813155184
 30
0.0
  0
VERTEX
  5
351
  8
VISIBLE
  6
CONTINUOUS
 62
     7
 10
92.6035037999
 20
69.6832474047
 30
0.0
  0
VERTEX
  5
352
  8
VISIBLE
  6
CONTINUOUS
 62
     7
 10
92.6041173112
 20
69.6851864959
 30
0.0
  0
VERTEX
  5
353
  8
VISIBLE
  6
CONTINUOUS
 62
     7
 10
92.6047063637
 20
69.6871327544
 30
0.0
  0
VERTEX
  5
354
  8
VISIBLE
  6
CONTINUOUS
 62
     7
 10
92.6052709077
 20
69.6890861427
 30
0.0
  0
VERTEX
  5
355
  8
VISIBLE
  6
CONTINUOUS
 62
     7
 10
92.6058108937
 20
69.6910466232
 30
0.0
  0
VERTEX
  5
356
  8
VISIBLE
  6
CONTINUOUS
 62
     7
 10
92.6063262721
 20
69.6930141583
 30
0.0
  0
VERTEX
  5
357
  8
VISIBLE
  6
CONTINUOUS
 62
     7
 10
92.6068169932
 20
69.6949887107
 30
0.0
  0
VERTEX
  5
358
  8
VISIBLE
  6
CONTINUOUS
 62
     7
 10
92.6072830077
 20
69.6969702426
 30
0.0
  0
VERTEX
  5
359
  8
VISIBLE
  6
CONTINUOUS
 62
     7
 10
92.6077242658
 20
69.6989587166
 30
0.0
  0
VERTEX
  5
35A
  8
VISIBLE
  6
CONTINUOUS
 62
     7
 10
92.608140718
 20
69.7009540951
 30
0.0
  0
VERTEX
  5
35B
  8
VISIBLE
  6
CONTINUOUS
 62
     7
 10
92.6085323147
 20
69.7029563406
 30
0.0
  0
VERTEX
  5
35C
  8
VISIBLE
  6
CONTINUOUS
 62
     7
 10
92.6088990064
 20
69.7049654155
 30
0.0
  0
VERTEX
  5
35D
  8
VISIBLE
  6
CONTINUOUS
 62
     7
 10
92.6092407435
 20
69.7069812824
 30
0.0
  0
VERTEX
  5
35E
  8
VISIBLE
  6
CONTINUOUS
 62
     7
 10
92.6095574764
 20
69.7090039036
 30
0.0
  0
VERTEX
  5
35F
  8
VISIBLE
  6
CONTINUOUS
 62
     7
 10
92.6098491555
 20
69.7110332416
 30
0.0
  0
VERTEX
  5
360
  8
VISIBLE
  6
CONTINUOUS
 62
     7
 10
92.6101157313
 20
69.7130692589
 30
0.0
  0
VERTEX
  5
361
  8
VISIBLE
  6
CONTINUOUS
 62
     7
 10
92.6103571542
 20
69.715111918
 30
0.0
  0
VERTEX
  5
362
  8
VISIBLE
  6
CONTINUOUS
 62
     7
 10
92.6105733747
 20
69.7171611813
 30
0.0
  0
VERTEX
  5
363
  8
VISIBLE
  6
CONTINUOUS
 62
     7
 10
92.610764343
 20
69.7192170112
 30
0.0
  0
VERTEX
  5
364
  8
VISIBLE
  6
CONTINUOUS
 62
     7
 10
92.6109300098
 20
69.7212793703
 30
0.0
  0
VERTEX
  5
365
  8
VISIBLE
  6
CONTINUOUS
 62
     7
 10
92.6110703254
 20
69.7233482209
 30
0.0
  0
VERTEX
  5
366
  8
VISIBLE
  6
CONTINUOUS
 62
     7
 10
92.6111852402
 20
69.7254235256
 30
0.0
  0
VERTEX
  5
367
  8
VISIBLE
  6
CONTINUOUS
 62
     7
 10
92.6112747047
 20
69.7275052469
 30
0.0
  0
VERTEX
  5
368
  8
VISIBLE
  6
CONTINUOUS
 62
     7
 10
92.6113386693
 20
69.729593347
 30
0.0
  0
VERTEX
  5
369
  8
VISIBLE
  6
CONTINUOUS
 62
     7
 10
92.6113770844
 20
69.7316877886
 30
0.0
  0
VERTEX
  5
36A
  8
VISIBLE
  6
CONTINUOUS
 62
     7
 10
92.6113899004
 20
69.7337885341
 30
0.0
  0
SEQEND
  5
36B
  8
VISIBLE
  6
CONTINUOUS
 62
     7
  0
LINE
  5
97
  8
0
  6
HIDDEN2
 62
     7
 10
92.1113899004
 20
87.5632629948
 30
0.0
 11
92.6113899004
 21
87.8957902125
 31
0.0
  0
LINE
  5
98
  8
0
  6
HIDDEN2
 62
     7
 10
92.6113899004
 20
71.4292453411
 30
0.0
 11
92.1187554598
 21
71.7567725588
 31
0.0
  0
ARC
  5
99
  8
HIDDEN
  6
HIDDEN2
 62
     7
 10
81.1143688882
 20
59.8630256799
 30
0.0
 40
9.976698252557517
 50
79.1849500772
 51
97.9535607909
  0
ARC
  5
9A
  8
HIDDEN
  6
HIDDEN2
 62
     7
 10
81.1143688882
 20
99.4620098737
 30
0.0
 40
9.976698252557517
 50
262.0464392091
 51
280.8150499228
  0
POLYLINE
  5
9B
  8
HIDDEN
  6
HIDDEN2
 62
     7
 66
     1
 10
0.0
 20
0.0
 30
0.0
  0
VERTEX
  5
36C
  8
HIDDEN
  6
HIDDEN2
 62
     7
 10
79.7338888996
 20
69.7437535389
 30
0.0
  0
VERTEX
  5
36D
  8
HIDDEN
  6
HIDDEN2
 62
     7
 10
79.7102999002
 20
69.7405124201
 30
0.0
  0
VERTEX
  5
36E
  8
HIDDEN
  6
HIDDEN2
 62
     7
 10
79.6872340387
 20
69.7374113509
 30
0.0
  0
VERTEX
  5
36F
  8
HIDDEN
  6
HIDDEN2
 62
     7
 10
79.6646951627
 20
69.7344473181
 30
0.0
  0
VERTEX
  5
370
  8
HIDDEN
  6
HIDDEN2
 62
     7
 10
79.6426871196
 20
69.7316173084
 30
0.0
  0
VERTEX
  5
371
  8
HIDDEN
  6
HIDDEN2
 62
     7
 10
79.6212137571
 20
69.7289183085
 30
0.0
  0
VERTEX
  5
372
  8
HIDDEN
  6
HIDDEN2
 62
     7
 10
79.6002789226
 20
69.7263473052
 30
0.0
  0
VERTEX
  5
373
  8
HIDDEN
  6
HIDDEN2
 62
     7
 10
79.5798864636
 20
69.7239012852
 30
0.0
  0
VERTEX
  5
374
  8
HIDDEN
  6
HIDDEN2
 62
     7
 10
79.5600402276
 20
69.7215772353
 30
0.0
  0
VERTEX
  5
375
  8
HIDDEN
  6
HIDDEN2
 62
     7
 10
79.5407440621
 20
69.7193721423
 30
0.0
  0
VERTEX
  5
376
  8
HIDDEN
  6
HIDDEN2
 62
     7
 10
79.5220018146
 20
69.7172829928
 30
0.0
  0
VERTEX
  5
377
  8
HIDDEN
  6
HIDDEN2
 62
     7
 10
79.5038173326
 20
69.7153067735
 30
0.0
  0
VERTEX
  5
378
  8
HIDDEN
  6
HIDDEN2
 62
     7
 10
79.4861944637
 20
69.7134404714
 30
0.0
  0
VERTEX
  5
379
  8
HIDDEN
  6
HIDDEN2
 62
     7
 10
79.4691370554
 20
69.711681073
 30
0.0
  0
VERTEX
  5
37A
  8
HIDDEN
  6
HIDDEN2
 62
     7
 10
79.4526489551
 20
69.7100255652
 30
0.0
  0
VERTEX
  5
37B
  8
HIDDEN
  6
HIDDEN2
 62
     7
 10
79.4367340103
 20
69.7084709347
 30
0.0
  0
VERTEX
  5
37C
  8
HIDDEN
  6
HIDDEN2
 62
     7
 10
79.4213960686
 20
69.7070141681
 30
0.0
  0
VERTEX
  5
37D
  8
HIDDEN
  6
HIDDEN2
 62
     7
 10
79.4066389775
 20
69.7056522524
 30
0.0
  0
VERTEX
  5
37E
  8
HIDDEN
  6
HIDDEN2
 62
     7
 10
79.3924665844
 20
69.7043821741
 30
0.0
  0
VERTEX
  5
37F
  8
HIDDEN
  6
HIDDEN2
 62
     7
 10
79.3788827369
 20
69.7032009201
 30
0.0
  0
VERTEX
  5
380
  8
HIDDEN
  6
HIDDEN2
 62
     7
 10
79.3658912826
 20
69.7021054771
 30
0.0
  0
VERTEX
  5
381
  8
HIDDEN
  6
HIDDEN2
 62
     7
 10
79.3534960688
 20
69.7010928319
 30
0.0
  0
VERTEX
  5
382
  8
HIDDEN
  6
HIDDEN2
 62
     7
 10
79.3417009431
 20
69.7001599711
 30
0.0
  0
VERTEX
  5
383
  8
HIDDEN
  6
HIDDEN2
 62
     7
 10
79.330509753
 20
69.6993038816
 30
0.0
  0
VERTEX
  5
384
  8
HIDDEN
  6
HIDDEN2
 62
     7
 10
79.319926346
 20
69.6985215501
 30
0.0
  0
VERTEX
  5
385
  8
HIDDEN
  6
HIDDEN2
 62
     7
 10
79.3099545696
 20
69.6978099632
 30
0.0
  0
VERTEX
  5
386
  8
HIDDEN
  6
HIDDEN2
 62
     7
 10
79.3005982714
 20
69.6971661078
 30
0.0
  0
VERTEX
  5
387
  8
HIDDEN
  6
HIDDEN2
 62
     7
 10
79.2918612987
 20
69.6965869707
 30
0.0
  0
VERTEX
  5
388
  8
HIDDEN
  6
HIDDEN2
 62
     7
 10
79.2837474993
 20
69.6960695385
 30
0.0
  0
VERTEX
  5
389
  8
HIDDEN
  6
HIDDEN2
 62
     7
 10
79.2762607204
 20
69.6956107979
 30
0.0
  0
VERTEX
  5
38A
  8
HIDDEN
  6
HIDDEN2
 62
     7
 10
79.2694048097
 20
69.6952077358
 30
0.0
  0
VERTEX
  5
38B
  8
HIDDEN
  6
HIDDEN2
 62
     7
 10
79.2631836147
 20
69.6948573389
 30
0.0
  0
VERTEX
  5
38C
  8
HIDDEN
  6
HIDDEN2
 62
     7
 10
79.2576009828
 20
69.694556594
 30
0.0
  0
VERTEX
  5
38D
  8
HIDDEN
  6
HIDDEN2
 62
     7
 10
79.2526607616
 20
69.6943024876
 30
0.0
  0
VERTEX
  5
38E
  8
HIDDEN
  6
HIDDEN2
 62
     7
 10
79.2483667986
 20
69.6940920067
 30
0.0
  0
VERTEX
  5
38F
  8
HIDDEN
  6
HIDDEN2
 62
     7
 10
79.2447229412
 20
69.693922138
 30
0.0
  0
VERTEX
  5
390
  8
HIDDEN
  6
HIDDEN2
 62
     7
 10
79.241733037
 20
69.6937898681
 30
0.0
  0
VERTEX
  5
391
  8
HIDDEN
  6
HIDDEN2
 62
     7
 10
79.2394009335
 20
69.6936921839
 30
0.0
  0
VERTEX
  5
392
  8
HIDDEN
  6
HIDDEN2
 62
     7
 10
79.2377304783
 20
69.6936260721
 30
0.0
  0
VERTEX
  5
393
  8
HIDDEN
  6
HIDDEN2
 62
     7
 10
79.2367255187
 20
69.6935885194
 30
0.0
  0
VERTEX
  5
394
  8
HIDDEN
  6
HIDDEN2
 62
     7
 10
79.2363899025
 20
69.6935765126
 30
0.0
  0
SEQEND
  5
395
  8
HIDDEN
  6
HIDDEN2
 62
     7
  0
POLYLINE
  5
9C
  8
HIDDEN
  6
HIDDEN2
 62
     7
 66
     1
 10
0.0
 20
0.0
 30
0.0
  0
VERTEX
  5
396
  8
HIDDEN
  6
HIDDEN2
 62
     7
 10
79.2363899025
 20
89.631459041
 30
0.0
  0
VERTEX
  5
397
  8
HIDDEN
  6
HIDDEN2
 62
     7
 10
79.2373237043
 20
89.6314255902
 30
0.0
  0
VERTEX
  5
398
  8
HIDDEN
  6
HIDDEN2
 62
     7
 10
79.2401114766
 20
89.6313151956
 30
0.0
  0
VERTEX
  5
399
  8
HIDDEN
  6
HIDDEN2
 62
     7
 10
79.2447351323
 20
89.631113955
 30
0.0
  0
VERTEX
  5
39A
  8
HIDDEN
  6
HIDDEN2
 62
     7
 10
79.2511765844
 20
89.6308079664
 30
0.0
  0
VERTEX
  5
39B
  8
HIDDEN
  6
HIDDEN2
 62
     7
 10
79.259417746
 20
89.6303833278
 30
0.0
  0
VERTEX
  5
39C
  8
HIDDEN
  6
HIDDEN2
 62
     7
 10
79.2694405301
 20
89.6298261372
 30
0.0
  0
VERTEX
  5
39D
  8
HIDDEN
  6
HIDDEN2
 62
     7
 10
79.2812268495
 20
89.6291224927
 30
0.0
  0
VERTEX
  5
39E
  8
HIDDEN
  6
HIDDEN2
 62
     7
 10
79.2947586175
 20
89.628258492
 30
0.0
  0
VERTEX
  5
39F
  8
HIDDEN
  6
HIDDEN2
 62
     7
 10
79.3100177468
 20
89.6272202334
 30
0.0
  0
VERTEX
  5
3A0
  8
HIDDEN
  6
HIDDEN2
 62
     7
 10
79.3269861507
 20
89.6259938146
 30
0.0
  0
VERTEX
  5
3A1
  8
HIDDEN
  6
HIDDEN2
 62
     7
 10
79.3456457419
 20
89.6245653338
 30
0.0
  0
VERTEX
  5
3A2
  8
HIDDEN
  6
HIDDEN2
 62
     7
 10
79.3659784336
 20
89.6229208888
 30
0.0
  0
VERTEX
  5
3A3
  8
HIDDEN
  6
HIDDEN2
 62
     7
 10
79.3879661387
 20
89.6210465778
 30
0.0
  0
VERTEX
  5
3A4
  8
HIDDEN
  6
HIDDEN2
 62
     7
 10
79.4115907703
 20
89.6189284986
 30
0.0
  0
VERTEX
  5
3A5
  8
HIDDEN
  6
HIDDEN2
 62
     7
 10
79.4368342413
 20
89.6165527492
 30
0.0
  0
VERTEX
  5
3A6
  8
HIDDEN
  6
HIDDEN2
 62
     7
 10
79.4636784647
 20
89.6139054276
 30
0.0
  0
VERTEX
  5
3A7
  8
HIDDEN
  6
HIDDEN2
 62
     7
 10
79.4921053536
 20
89.6109726319
 30
0.0
  0
VERTEX
  5
3A8
  8
HIDDEN
  6
HIDDEN2
 62
     7
 10
79.5220968209
 20
89.6077404599
 30
0.0
  0
VERTEX
  5
3A9
  8
HIDDEN
  6
HIDDEN2
 62
     7
 10
79.5536347796
 20
89.6041950097
 30
0.0
  0
VERTEX
  5
3AA
  8
HIDDEN
  6
HIDDEN2
 62
     7
 10
79.5867011428
 20
89.6003223793
 30
0.0
  0
VERTEX
  5
3AB
  8
HIDDEN
  6
HIDDEN2
 62
     7
 10
79.6212778233
 20
89.5961086666
 30
0.0
  0
VERTEX
  5
3AC
  8
HIDDEN
  6
HIDDEN2
 62
     7
 10
79.6573467343
 20
89.5915399696
 30
0.0
  0
VERTEX
  5
3AD
  8
HIDDEN
  6
HIDDEN2
 62
     7
 10
79.6948897888
 20
89.5866023863
 30
0.0
  0
VERTEX
  5
3AE
  8
HIDDEN
  6
HIDDEN2
 62
     7
 10
79.7338888996
 20
89.5812820147
 30
0.0
  0
SEQEND
  5
3AF
  8
HIDDEN
  6
HIDDEN2
 62
     7
  0
ARC
  5
9D
  8
VISIBLE
  6
CONTINUOUS
 62
     7
 10
81.6897404937
 20
102.9400437133
 30
0.0
 40
11.55217653863678
 50
256.6653469387
 51
277.6098377869
  0
ARC
  5
9E
  8
VISIBLE
  6
CONTINUOUS
 62
     7
 10
81.6890584301
 20
56.3993893388
 30
0.0
 40
11.53800974942285
 50
82.377028566
 51
103.3477871732
  0
LINE
  5
9F
  8
VISIBLE
  6
CONTINUOUS
 62
     7
 10
88.3613899004
 20
90.0920142082
 30
0.0
 11
88.5928368431
 21
90.1084509666
 31
0.0
  0
LINE
  5
A0
  8
HIDDEN
  6
HIDDEN2
 62
     7
 10
88.3613899004
 20
87.5632629948
 30
0.0
 11
92.1113899004
 21
87.5632629948
 31
0.0
  0
LINE
  5
A1
  8
HIDDEN
  6
HIDDEN2
 62
     7
 10
87.6113899004
 20
90.6899777357
 30
0.0
 11
87.6113899004
 21
88.7175177768
 31
0.0
  0
LINE
  5
A2
  8
HIDDEN
  6
HIDDEN2
 62
     7
 10
87.6113899004
 20
88.7175177768
 30
0.0
 11
87.6113899004
 21
87.821057781
 31
0.0
  0
LINE
  5
A4
  8
TANGENTE
  6
CONTINUOUS
 62
     7
 10
88.3613899004
 20
90.1084509666
 30
0.0
 11
88.3613899004
 21
90.1575177768
 31
0.0
  0
ARC
  5
A5
  8
VISIBLE
  6
CONTINUOUS
 62
     7
 10
88.3401275787
 20
90.4278373753
 30
0.0
 40
0.3364955956372301
 50
242.859563867
 51
273.6227916234
  0
POLYLINE
  5
A6
  8
HIDDEN
  6
HIDDEN2
 62
     7
 66
     1
 10
0.0
 20
0.0
 30
0.0
  0
VERTEX
  5
3B0
  8
HIDDEN
  6
HIDDEN2
 62
     7
 10
87.6113899004
 20
87.821057781
 30
0.0
  0
VERTEX
  5
3B1
  8
HIDDEN
  6
HIDDEN2
 62
     7
 10
87.6114730711
 20
87.8177565307
 30
0.0
  0
VERTEX
  5
3B2
  8
HIDDEN
  6
HIDDEN2
 62
     7
 10
87.6117223487
 20
87.8144454309
 30
0.0
  0
VERTEX
  5
3B3
  8
HIDDEN
  6
HIDDEN2
 62
     7
 10
87.6121373816
 20
87.8111249004
 30
0.0
  0
VERTEX
  5
3B4
  8
HIDDEN
  6
HIDDEN2
 62
     7
 10
87.6127178181
 20
87.8077953584
 30
0.0
  0
VERTEX
  5
3B5
  8
HIDDEN
  6
HIDDEN2
 62
     7
 10
87.6134633068
 20
87.8044572236
 30
0.0
  0
VERTEX
  5
3B6
  8
HIDDEN
  6
HIDDEN2
 62
     7
 10
87.6143734958
 20
87.801110915
 30
0.0
  0
VERTEX
  5
3B7
  8
HIDDEN
  6
HIDDEN2
 62
     7
 10
87.6154480336
 20
87.7977568517
 30
0.0
  0
VERTEX
  5
3B8
  8
HIDDEN
  6
HIDDEN2
 62
     7
 10
87.6166865686
 20
87.7943954526
 30
0.0
  0
VERTEX
  5
3B9
  8
HIDDEN
  6
HIDDEN2
 62
     7
 10
87.6180887491
 20
87.7910271365
 30
0.0
  0
VERTEX
  5
3BA
  8
HIDDEN
  6
HIDDEN2
 62
     7
 10
87.6196542235
 20
87.7876523226
 30
0.0
  0
VERTEX
  5
3BB
  8
HIDDEN
  6
HIDDEN2
 62
     7
 10
87.6213826402
 20
87.7842714297
 30
0.0
  0
VERTEX
  5
3BC
  8
HIDDEN
  6
HIDDEN2
 62
     7
 10
87.6232736475
 20
87.7808848767
 30
0.0
  0
VERTEX
  5
3BD
  8
HIDDEN
  6
HIDDEN2
 62
     7
 10
87.6253268939
 20
87.7774930827
 30
0.0
  0
VERTEX
  5
3BE
  8
HIDDEN
  6
HIDDEN2
 62
     7
 10
87.6275420276
 20
87.7740964667
 30
0.0
  0
VERTEX
  5
3BF
  8
HIDDEN
  6
HIDDEN2
 62
     7
 10
87.6299186972
 20
87.7706954474
 30
0.0
  0
VERTEX
  5
3C0
  8
HIDDEN
  6
HIDDEN2
 62
     7
 10
87.6324565508
 20
87.767290444
 30
0.0
  0
VERTEX
  5
3C1
  8
HIDDEN
  6
HIDDEN2
 62
     7
 10
87.635155237
 20
87.7638818754
 30
0.0
  0
VERTEX
  5
3C2
  8
HIDDEN
  6
HIDDEN2
 62
     7
 10
87.6380144041
 20
87.7604701605
 30
0.0
  0
VERTEX
  5
3C3
  8
HIDDEN
  6
HIDDEN2
 62
     7
 10
87.6410337004
 20
87.7570557182
 30
0.0
  0
VERTEX
  5
3C4
  8
HIDDEN
  6
HIDDEN2
 62
     7
 10
87.6442127744
 20
87.7536389676
 30
0.0
  0
VERTEX
  5
3C5
  8
HIDDEN
  6
HIDDEN2
 62
     7
 10
87.6475512743
 20
87.7502203276
 30
0.0
  0
VERTEX
  5
3C6
  8
HIDDEN
  6
HIDDEN2
 62
     7
 10
87.6510488487
 20
87.7468002171
 30
0.0
  0
VERTEX
  5
3C7
  8
HIDDEN
  6
HIDDEN2
 62
     7
 10
87.6547051457
 20
87.7433790551
 30
0.0
  0
VERTEX
  5
3C8
  8
HIDDEN
  6
HIDDEN2
 62
     7
 10
87.6585198139
 20
87.7399572606
 30
0.0
  0
VERTEX
  5
3C9
  8
HIDDEN
  6
HIDDEN2
 62
     7
 10
87.6624925016
 20
87.7365352525
 30
0.0
  0
VERTEX
  5
3CA
  8
HIDDEN
  6
HIDDEN2
 62
     7
 10
87.6666228572
 20
87.7331134498
 30
0.0
  0
VERTEX
  5
3CB
  8
HIDDEN
  6
HIDDEN2
 62
     7
 10
87.6709045107
 20
87.729697923
 30
0.0
  0
VERTEX
  5
3CC
  8
HIDDEN
  6
HIDDEN2
 62
     7
 10
87.6753312587
 20
87.7262946362
 30
0.0
  0
VERTEX
  5
3CD
  8
HIDDEN
  6
HIDDEN2
 62
     7
 10
87.6799029994
 20
87.7229038482
 30
0.0
  0
VERTEX
  5
3CE
  8
HIDDEN
  6
HIDDEN2
 62
     7
 10
87.6846196311
 20
87.7195258178
 30
0.0
  0
VERTEX
  5
3CF
  8
HIDDEN
  6
HIDDEN2
 62
     7
 10
87.689481052
 20
87.7161608039
 30
0.0
  0
VERTEX
  5
3D0
  8
HIDDEN
  6
HIDDEN2
 62
     7
 10
87.6944871601
 20
87.7128090654
 30
0.0
  0
VERTEX
  5
3D1
  8
HIDDEN
  6
HIDDEN2
 62
     7
 10
87.6996378539
 20
87.7094708612
 30
0.0
  0
VERTEX
  5
3D2
  8
HIDDEN
  6
HIDDEN2
 62
     7
 10
87.7049330313
 20
87.70614645
 30
0.0
  0
VERTEX
  5
3D3
  8
HIDDEN
  6
HIDDEN2
 62
     7
 10
87.7103725907
 20
87.7028360908
 30
0.0
  0
VERTEX
  5
3D4
  8
HIDDEN
  6
HIDDEN2
 62
     7
 10
87.7159564303
 20
87.6995400425
 30
0.0
  0
VERTEX
  5
3D5
  8
HIDDEN
  6
HIDDEN2
 62
     7
 10
87.7216844482
 20
87.6962585638
 30
0.0
  0
VERTEX
  5
3D6
  8
HIDDEN
  6
HIDDEN2
 62
     7
 10
87.7275565426
 20
87.6929919137
 30
0.0
  0
VERTEX
  5
3D7
  8
HIDDEN
  6
HIDDEN2
 62
     7
 10
87.7335726118
 20
87.689740351
 30
0.0
  0
VERTEX
  5
3D8
  8
HIDDEN
  6
HIDDEN2
 62
     7
 10
87.7397393732
 20
87.6865019263
 30
0.0
  0
VERTEX
  5
3D9
  8
HIDDEN
  6
HIDDEN2
 62
     7
 10
87.7460613979
 20
87.6832759044
 30
0.0
  0
VERTEX
  5
3DA
  8
HIDDEN
  6
HIDDEN2
 62
     7
 10
87.7525353649
 20
87.680064365
 30
0.0
  0
VERTEX
  5
3DB
  8
HIDDEN
  6
HIDDEN2
 62
     7
 10
87.759157953
 20
87.6768693881
 30
0.0
  0
VERTEX
  5
3DC
  8
HIDDEN
  6
HIDDEN2
 62
     7
 10
87.7659258411
 20
87.6736930536
 30
0.0
  0
VERTEX
  5
3DD
  8
HIDDEN
  6
HIDDEN2
 62
     7
 10
87.7728357079
 20
87.6705374414
 30
0.0
  0
VERTEX
  5
3DE
  8
HIDDEN
  6
HIDDEN2
 62
     7
 10
87.7798842325
 20
87.6674046315
 30
0.0
  0
VERTEX
  5
3DF
  8
HIDDEN
  6
HIDDEN2
 62
     7
 10
87.7870680935
 20
87.6642967037
 30
0.0
  0
VERTEX
  5
3E0
  8
HIDDEN
  6
HIDDEN2
 62
     7
 10
87.7943839699
 20
87.6612157379
 30
0.0
  0
VERTEX
  5
3E1
  8
HIDDEN
  6
HIDDEN2
 62
     7
 10
87.8018285405
 20
87.6581638141
 30
0.0
  0
VERTEX
  5
3E2
  8
HIDDEN
  6
HIDDEN2
 62
     7
 10
87.8093984841
 20
87.6551430121
 30
0.0
  0
VERTEX
  5
3E3
  8
HIDDEN
  6
HIDDEN2
 62
     7
 10
87.8170904797
 20
87.652155412
 30
0.0
  0
VERTEX
  5
3E4
  8
HIDDEN
  6
HIDDEN2
 62
     7
 10
87.8249012061
 20
87.6492030934
 30
0.0
  0
VERTEX
  5
3E5
  8
HIDDEN
  6
HIDDEN2
 62
     7
 10
87.832826665
 20
87.6462872019
 30
0.0
  0
VERTEX
  5
3E6
  8
HIDDEN
  6
HIDDEN2
 62
     7
 10
87.8408652637
 20
87.6434077951
 30
0.0
  0
VERTEX
  5
3E7
  8
HIDDEN
  6
HIDDEN2
 62
     7
 10
87.8490172897
 20
87.640565322
 30
0.0
  0
VERTEX
  5
3E8
  8
HIDDEN
  6
HIDDEN2
 62
     7
 10
87.8572830305
 20
87.6377602313
 30
0.0
  0
VERTEX
  5
3E9
  8
HIDDEN
  6
HIDDEN2
 62
     7
 10
87.8656627734
 20
87.6349929719
 30
0.0
  0
VERTEX
  5
3EA
  8
HIDDEN
  6
HIDDEN2
 62
     7
 10
87.8741568059
 20
87.6322639926
 30
0.0
  0
VERTEX
  5
3EB
  8
HIDDEN
  6
HIDDEN2
 62
     7
 10
87.8827654154
 20
87.6295737422
 30
0.0
  0
VERTEX
  5
3EC
  8
HIDDEN
  6
HIDDEN2
 62
     7
 10
87.8914888893
 20
87.6269226695
 30
0.0
  0
VERTEX
  5
3ED
  8
HIDDEN
  6
HIDDEN2
 62
     7
 10
87.900327515
 20
87.6243112234
 30
0.0
  0
VERTEX
  5
3EE
  8
HIDDEN
  6
HIDDEN2
 62
     7
 10
87.90928158
 20
87.6217398527
 30
0.0
  0
VERTEX
  5
3EF
  8
HIDDEN
  6
HIDDEN2
 62
     7
 10
87.9183513716
 20
87.6192090063
 30
0.0
  0
VERTEX
  5
3F0
  8
HIDDEN
  6
HIDDEN2
 62
     7
 10
87.9275371774
 20
87.6167191328
 30
0.0
  0
VERTEX
  5
3F1
  8
HIDDEN
  6
HIDDEN2
 62
     7
 10
87.9368392847
 20
87.6142706812
 30
0.0
  0
VERTEX
  5
3F2
  8
HIDDEN
  6
HIDDEN2
 62
     7
 10
87.9462645331
 20
87.6118637259
 30
0.0
  0
VERTEX
  5
3F3
  8
HIDDEN
  6
HIDDEN2
 62
     7
 10
87.9558154125
 20
87.6094992645
 30
0.0
  0
VERTEX
  5
3F4
  8
HIDDEN
  6
HIDDEN2
 62
     7
 10
87.9654856861
 20
87.6071791308
 30
0.0
  0
VERTEX
  5
3F5
  8
HIDDEN
  6
HIDDEN2
 62
     7
 10
87.9752691169
 20
87.6049051585
 30
0.0
  0
VERTEX
  5
3F6
  8
HIDDEN
  6
HIDDEN2
 62
     7
 10
87.9851594682
 20
87.6026791813
 30
0.0
  0
VERTEX
  5
3F7
  8
HIDDEN
  6
HIDDEN2
 62
     7
 10
87.9951505031
 20
87.6005030329
 30
0.0
  0
VERTEX
  5
3F8
  8
HIDDEN
  6
HIDDEN2
 62
     7
 10
88.0052359847
 20
87.5983785469
 30
0.0
  0
VERTEX
  5
3F9
  8
HIDDEN
  6
HIDDEN2
 62
     7
 10
88.0154096761
 20
87.5963075572
 30
0.0
  0
VERTEX
  5
3FA
  8
HIDDEN
  6
HIDDEN2
 62
     7
 10
88.0256653404
 20
87.5942918974
 30
0.0
  0
VERTEX
  5
3FB
  8
HIDDEN
  6
HIDDEN2
 62
     7
 10
88.0359967408
 20
87.5923334012
 30
0.0
  0
VERTEX
  5
3FC
  8
HIDDEN
  6
HIDDEN2
 62
     7
 10
88.0463976404
 20
87.5904339024
 30
0.0
  0
VERTEX
  5
3FD
  8
HIDDEN
  6
HIDDEN2
 62
     7
 10
88.0568618024
 20
87.5885952346
 30
0.0
  0
VERTEX
  5
3FE
  8
HIDDEN
  6
HIDDEN2
 62
     7
 10
88.0673829899
 20
87.5868192316
 30
0.0
  0
VERTEX
  5
3FF
  8
HIDDEN
  6
HIDDEN2
 62
     7
 10
88.0779710401
 20
87.5851048916
 30
0.0
  0
VERTEX
  5
400
  8
HIDDEN
  6
HIDDEN2
 62
     7
 10
88.0886381586
 20
87.5834503926
 30
0.0
  0
VERTEX
  5
401
  8
HIDDEN
  6
HIDDEN2
 62
     7
 10
88.0993816611
 20
87.5818563378
 30
0.0
  0
VERTEX
  5
402
  8
HIDDEN
  6
HIDDEN2
 62
     7
 10
88.110198863
 20
87.5803233303
 30
0.0
  0
VERTEX
  5
403
  8
HIDDEN
  6
HIDDEN2
 62
     7
 10
88.1210870798
 20
87.5788519734
 30
0.0
  0
VERTEX
  5
404
  8
HIDDEN
  6
HIDDEN2
 62
     7
 10
88.1320436272
 20
87.5774428703
 30
0.0
  0
VERTEX
  5
405
  8
HIDDEN
  6
HIDDEN2
 62
     7
 10
88.1430658205
 20
87.576096624
 30
0.0
  0
VERTEX
  5
406
  8
HIDDEN
  6
HIDDEN2
 62
     7
 10
88.1541509754
 20
87.5748138379
 30
0.0
  0
VERTEX
  5
407
  8
HIDDEN
  6
HIDDEN2
 62
     7
 10
88.1652964075
 20
87.573595115
 30
0.0
  0
VERTEX
  5
408
  8
HIDDEN
  6
HIDDEN2
 62
     7
 10
88.1764994321
 20
87.5724410586
 30
0.0
  0
VERTEX
  5
409
  8
HIDDEN
  6
HIDDEN2
 62
     7
 10
88.1877573649
 20
87.5713522719
 30
0.0
  0
VERTEX
  5
40A
  8
HIDDEN
  6
HIDDEN2
 62
     7
 10
88.1990675214
 20
87.570329358
 30
0.0
  0
VERTEX
  5
40B
  8
HIDDEN
  6
HIDDEN2
 62
     7
 10
88.2104272172
 20
87.5693729201
 30
0.0
  0
VERTEX
  5
40C
  8
HIDDEN
  6
HIDDEN2
 62
     7
 10
88.2218337677
 20
87.5684835614
 30
0.0
  0
VERTEX
  5
40D
  8
HIDDEN
  6
HIDDEN2
 62
     7
 10
88.2332844885
 20
87.5676618851
 30
0.0
  0
VERTEX
  5
40E
  8
HIDDEN
  6
HIDDEN2
 62
     7
 10
88.2447766951
 20
87.5669084944
 30
0.0
  0
VERTEX
  5
40F
  8
HIDDEN
  6
HIDDEN2
 62
     7
 10
88.2563077032
 20
87.5662239925
 30
0.0
  0
VERTEX
  5
410
  8
HIDDEN
  6
HIDDEN2
 62
     7
 10
88.2678748281
 20
87.5656089825
 30
0.0
  0
VERTEX
  5
411
  8
HIDDEN
  6
HIDDEN2
 62
     7
 10
88.2794753855
 20
87.5650640676
 30
0.0
  0
VERTEX
  5
412
  8
HIDDEN
  6
HIDDEN2
 62
     7
 10
88.2911066908
 20
87.5645898511
 30
0.0
  0
VERTEX
  5
413
  8
HIDDEN
  6
HIDDEN2
 62
     7
 10
88.3027660597
 20
87.5641869361
 30
0.0
  0
VERTEX
  5
414
  8
HIDDEN
  6
HIDDEN2
 62
     7
 10
88.3144508076
 20
87.5638559257
 30
0.0
  0
VERTEX
  5
415
  8
HIDDEN
  6
HIDDEN2
 62
     7
 10
88.3261582501
 20
87.5635974232
 30
0.0
  0
VERTEX
  5
416
  8
HIDDEN
  6
HIDDEN2
 62
     7
 10
88.3378857027
 20
87.5634120318
 30
0.0
  0
VERTEX
  5
417
  8
HIDDEN
  6
HIDDEN2
 62
     7
 10
88.349630481
 20
87.5633003546
 30
0.0
  0
VERTEX
  5
418
  8
HIDDEN
  6
HIDDEN2
 62
     7
 10
88.3613899004
 20
87.5632629948
 30
0.0
  0
SEQEND
  5
419
  8
HIDDEN
  6
HIDDEN2
 62
     7
  0
POLYLINE
  5
A7
  8
VISIBLE
  6
CONTINUOUS
 62
     7
 66
     1
 10
0.0
 20
0.0
 30
0.0
  0
VERTEX
  5
41A
  8
VISIBLE
  6
CONTINUOUS
 62
     7
 10
88.1866273546
 20
90.1283929446
 30
0.0
  0
VERTEX
  5
41B
  8
VISIBLE
  6
CONTINUOUS
 62
     7
 10
88.1743845069
 20
90.1346236781
 30
0.0
  0
VERTEX
  5
41C
  8
VISIBLE
  6
CONTINUOUS
 62
     7
 10
88.1624131734
 20
90.1409347418
 30
0.0
  0
VERTEX
  5
41D
  8
VISIBLE
  6
CONTINUOUS
 62
     7
 10
88.1506964609
 20
90.1473168136
 30
0.0
  0
VERTEX
  5
41E
  8
VISIBLE
  6
CONTINUOUS
 62
     7
 10
88.1392174763
 20
90.1537605712
 30
0.0
  0
VERTEX
  5
41F
  8
VISIBLE
  6
CONTINUOUS
 62
     7
 10
88.1279593266
 20
90.1602566924
 30
0.0
  0
VERTEX
  5
420
  8
VISIBLE
  6
CONTINUOUS
 62
     7
 10
88.1169051186
 20
90.166795855
 30
0.0
  0
VERTEX
  5
421
  8
VISIBLE
  6
CONTINUOUS
 62
     7
 10
88.1060379593
 20
90.1733687367
 30
0.0
  0
VERTEX
  5
422
  8
VISIBLE
  6
CONTINUOUS
 62
     7
 10
88.0953409554
 20
90.1799660153
 30
0.0
  0
VERTEX
  5
423
  8
VISIBLE
  6
CONTINUOUS
 62
     7
 10
88.0847972141
 20
90.1865783687
 30
0.0
  0
VERTEX
  5
424
  8
VISIBLE
  6
CONTINUOUS
 62
     7
 10
88.074389842
 20
90.1931964746
 30
0.0
  0
VERTEX
  5
425
  8
VISIBLE
  6
CONTINUOUS
 62
     7
 10
88.0641019462
 20
90.1998110107
 30
0.0
  0
VERTEX
  5
426
  8
VISIBLE
  6
CONTINUOUS
 62
     7
 10
88.0539250759
 20
90.2064237491
 30
0.0
  0
VERTEX
  5
427
  8
VISIBLE
  6
CONTINUOUS
 62
     7
 10
88.0438603308
 20
90.2130421892
 30
0.0
  0
VERTEX
  5
428
  8
VISIBLE
  6
CONTINUOUS
 62
     7
 10
88.0339051431
 20
90.2196656
 30
0.0
  0
VERTEX
  5
429
  8
VISIBLE
  6
CONTINUOUS
 62
     7
 10
88.0240569449
 20
90.2262932501
 30
0.0
  0
VERTEX
  5
42A
  8
VISIBLE
  6
CONTINUOUS
 62
     7
 10
88.0143131685
 20
90.2329244086
 30
0.0
  0
VERTEX
  5
42B
  8
VISIBLE
  6
CONTINUOUS
 62
     7
 10
88.0046712462
 20
90.2395583441
 30
0.0
  0
VERTEX
  5
42C
  8
VISIBLE
  6
CONTINUOUS
 62
     7
 10
87.99512861
 20
90.2461943255
 30
0.0
  0
VERTEX
  5
42D
  8
VISIBLE
  6
CONTINUOUS
 62
     7
 10
87.9856826924
 20
90.2528316218
 30
0.0
  0
VERTEX
  5
42E
  8
VISIBLE
  6
CONTINUOUS
 62
     7
 10
87.9763309254
 20
90.2594695016
 30
0.0
  0
VERTEX
  5
42F
  8
VISIBLE
  6
CONTINUOUS
 62
     7
 10
87.9670707413
 20
90.2661072339
 30
0.0
  0
VERTEX
  5
430
  8
VISIBLE
  6
CONTINUOUS
 62
     7
 10
87.9578995722
 20
90.2727440875
 30
0.0
  0
VERTEX
  5
431
  8
VISIBLE
  6
CONTINUOUS
 62
     7
 10
87.9488140021
 20
90.2793811575
 30
0.0
  0
VERTEX
  5
432
  8
VISIBLE
  6
CONTINUOUS
 62
     7
 10
87.9398132389
 20
90.2860196422
 30
0.0
  0
VERTEX
  5
433
  8
VISIBLE
  6
CONTINUOUS
 62
     7
 10
87.9308986513
 20
90.292658965
 30
0.0
  0
VERTEX
  5
434
  8
VISIBLE
  6
CONTINUOUS
 62
     7
 10
87.9220716083
 20
90.2992985494
 30
0.0
  0
VERTEX
  5
435
  8
VISIBLE
  6
CONTINUOUS
 62
     7
 10
87.9133334785
 20
90.3059378189
 30
0.0
  0
VERTEX
  5
436
  8
VISIBLE
  6
CONTINUOUS
 62
     7
 10
87.9046856307
 20
90.3125761971
 30
0.0
  0
VERTEX
  5
437
  8
VISIBLE
  6
CONTINUOUS
 62
     7
 10
87.8961294336
 20
90.3192131073
 30
0.0
  0
VERTEX
  5
438
  8
VISIBLE
  6
CONTINUOUS
 62
     7
 10
87.8876662561
 20
90.3258479731
 30
0.0
  0
VERTEX
  5
439
  8
VISIBLE
  6
CONTINUOUS
 62
     7
 10
87.8792974669
 20
90.3324802179
 30
0.0
  0
VERTEX
  5
43A
  8
VISIBLE
  6
CONTINUOUS
 62
     7
 10
87.8710244347
 20
90.3391092653
 30
0.0
  0
VERTEX
  5
43B
  8
VISIBLE
  6
CONTINUOUS
 62
     7
 10
87.8628485283
 20
90.3457345387
 30
0.0
  0
VERTEX
  5
43C
  8
VISIBLE
  6
CONTINUOUS
 62
     7
 10
87.8547711165
 20
90.3523554617
 30
0.0
  0
VERTEX
  5
43D
  8
VISIBLE
  6
CONTINUOUS
 62
     7
 10
87.846793568
 20
90.3589714576
 30
0.0
  0
VERTEX
  5
43E
  8
VISIBLE
  6
CONTINUOUS
 62
     7
 10
87.8389172516
 20
90.3655819501
 30
0.0
  0
VERTEX
  5
43F
  8
VISIBLE
  6
CONTINUOUS
 62
     7
 10
87.8311435361
 20
90.3721863626
 30
0.0
  0
VERTEX
  5
440
  8
VISIBLE
  6
CONTINUOUS
 62
     7
 10
87.8234737902
 20
90.3787841185
 30
0.0
  0
VERTEX
  5
441
  8
VISIBLE
  6
CONTINUOUS
 62
     7
 10
87.8159093827
 20
90.3853746414
 30
0.0
  0
VERTEX
  5
442
  8
VISIBLE
  6
CONTINUOUS
 62
     7
 10
87.8084516823
 20
90.3919573547
 30
0.0
  0
VERTEX
  5
443
  8
VISIBLE
  6
CONTINUOUS
 62
     7
 10
87.8011020578
 20
90.398531682
 30
0.0
  0
VERTEX
  5
444
  8
VISIBLE
  6
CONTINUOUS
 62
     7
 10
87.7938618781
 20
90.4050970467
 30
0.0
  0
VERTEX
  5
445
  8
VISIBLE
  6
CONTINUOUS
 62
     7
 10
87.7867325117
 20
90.4116528723
 30
0.0
  0
VERTEX
  5
446
  8
VISIBLE
  6
CONTINUOUS
 62
     7
 10
87.7797153276
 20
90.4181985824
 30
0.0
  0
VERTEX
  5
447
  8
VISIBLE
  6
CONTINUOUS
 62
     7
 10
87.7728139754
 20
90.4247318057
 30
0.0
  0
VERTEX
  5
448
  8
VISIBLE
  6
CONTINUOUS
 62
     7
 10
87.7660321949
 20
90.431250507
 30
0.0
  0
VERTEX
  5
449
  8
VISIBLE
  6
CONTINUOUS
 62
     7
 10
87.7593714901
 20
90.4377546137
 30
0.0
  0
VERTEX
  5
44A
  8
VISIBLE
  6
CONTINUOUS
 62
     7
 10
87.7528333646
 20
90.4442440532
 30
0.0
  0
VERTEX
  5
44B
  8
VISIBLE
  6
CONTINUOUS
 62
     7
 10
87.7464193224
 20
90.4507187528
 30
0.0
  0
VERTEX
  5
44C
  8
VISIBLE
  6
CONTINUOUS
 62
     7
 10
87.7401308671
 20
90.4571786399
 30
0.0
  0
VERTEX
  5
44D
  8
VISIBLE
  6
CONTINUOUS
 62
     7
 10
87.7339695027
 20
90.4636236418
 30
0.0
  0
VERTEX
  5
44E
  8
VISIBLE
  6
CONTINUOUS
 62
     7
 10
87.7279367329
 20
90.470053686
 30
0.0
  0
VERTEX
  5
44F
  8
VISIBLE
  6
CONTINUOUS
 62
     7
 10
87.7220340616
 20
90.4764686997
 30
0.0
  0
VERTEX
  5
450
  8
VISIBLE
  6
CONTINUOUS
 62
     7
 10
87.7162629926
 20
90.4828686104
 30
0.0
  0
VERTEX
  5
451
  8
VISIBLE
  6
CONTINUOUS
 62
     7
 10
87.7106250296
 20
90.4892533453
 30
0.0
  0
VERTEX
  5
452
  8
VISIBLE
  6
CONTINUOUS
 62
     7
 10
87.7051216765
 20
90.4956228319
 30
0.0
  0
VERTEX
  5
453
  8
VISIBLE
  6
CONTINUOUS
 62
     7
 10
87.6997544372
 20
90.5019769975
 30
0.0
  0
VERTEX
  5
454
  8
VISIBLE
  6
CONTINUOUS
 62
     7
 10
87.6945248154
 20
90.5083157695
 30
0.0
  0
VERTEX
  5
455
  8
VISIBLE
  6
CONTINUOUS
 62
     7
 10
87.6894343149
 20
90.5146390753
 30
0.0
  0
VERTEX
  5
456
  8
VISIBLE
  6
CONTINUOUS
 62
     7
 10
87.6844844395
 20
90.5209468421
 30
0.0
  0
VERTEX
  5
457
  8
VISIBLE
  6
CONTINUOUS
 62
     7
 10
87.6796766932
 20
90.5272389975
 30
0.0
  0
VERTEX
  5
458
  8
VISIBLE
  6
CONTINUOUS
 62
     7
 10
87.6750125796
 20
90.5335154686
 30
0.0
  0
VERTEX
  5
459
  8
VISIBLE
  6
CONTINUOUS
 62
     7
 10
87.6704936026
 20
90.5397761829
 30
0.0
  0
VERTEX
  5
45A
  8
VISIBLE
  6
CONTINUOUS
 62
     7
 10
87.666121266
 20
90.5460210678
 30
0.0
  0
VERTEX
  5
45B
  8
VISIBLE
  6
CONTINUOUS
 62
     7
 10
87.6618970737
 20
90.5522500506
 30
0.0
  0
VERTEX
  5
45C
  8
VISIBLE
  6
CONTINUOUS
 62
     7
 10
87.6578225294
 20
90.5584630587
 30
0.0
  0
VERTEX
  5
45D
  8
VISIBLE
  6
CONTINUOUS
 62
     7
 10
87.6538995287
 20
90.5646614843
 30
0.0
  0
VERTEX
  5
45E
  8
VISIBLE
  6
CONTINUOUS
 62
     7
 10
87.6501307988
 20
90.5708460537
 30
0.0
  0
VERTEX
  5
45F
  8
VISIBLE
  6
CONTINUOUS
 62
     7
 10
87.646519091
 20
90.5770156956
 30
0.0
  0
VERTEX
  5
460
  8
VISIBLE
  6
CONTINUOUS
 62
     7
 10
87.6430671563
 20
90.5831693386
 30
0.0
  0
VERTEX
  5
461
  8
VISIBLE
  6
CONTINUOUS
 62
     7
 10
87.639777746
 20
90.5893059114
 30
0.0
  0
VERTEX
  5
462
  8
VISIBLE
  6
CONTINUOUS
 62
     7
 10
87.6366536113
 20
90.5954243425
 30
0.0
  0
VERTEX
  5
463
  8
VISIBLE
  6
CONTINUOUS
 62
     7
 10
87.6336975033
 20
90.6015235606
 30
0.0
  0
VERTEX
  5
464
  8
VISIBLE
  6
CONTINUOUS
 62
     7
 10
87.6309121732
 20
90.6076024943
 30
0.0
  0
VERTEX
  5
465
  8
VISIBLE
  6
CONTINUOUS
 62
     7
 10
87.6283003723
 20
90.6136600723
 30
0.0
  0
VERTEX
  5
466
  8
VISIBLE
  6
CONTINUOUS
 62
     7
 10
87.6258648517
 20
90.6196952231
 30
0.0
  0
VERTEX
  5
467
  8
VISIBLE
  6
CONTINUOUS
 62
     7
 10
87.6236083626
 20
90.6257068754
 30
0.0
  0
VERTEX
  5
468
  8
VISIBLE
  6
CONTINUOUS
 62
     7
 10
87.6215336561
 20
90.6316939578
 30
0.0
  0
VERTEX
  5
469
  8
VISIBLE
  6
CONTINUOUS
 62
     7
 10
87.6196434836
 20
90.637655399
 30
0.0
  0
VERTEX
  5
46A
  8
VISIBLE
  6
CONTINUOUS
 62
     7
 10
87.6179405961
 20
90.6435901275
 30
0.0
  0
VERTEX
  5
46B
  8
VISIBLE
  6
CONTINUOUS
 62
     7
 10
87.6164277448
 20
90.649497072
 30
0.0
  0
VERTEX
  5
46C
  8
VISIBLE
  6
CONTINUOUS
 62
     7
 10
87.615107681
 20
90.6553751611
 30
0.0
  0
VERTEX
  5
46D
  8
VISIBLE
  6
CONTINUOUS
 62
     7
 10
87.6139831557
 20
90.6612233235
 30
0.0
  0
VERTEX
  5
46E
  8
VISIBLE
  6
CONTINUOUS
 62
     7
 10
87.6130569203
 20
90.6670404877
 30
0.0
  0
VERTEX
  5
46F
  8
VISIBLE
  6
CONTINUOUS
 62
     7
 10
87.6123317259
 20
90.6728255824
 30
0.0
  0
VERTEX
  5
470
  8
VISIBLE
  6
CONTINUOUS
 62
     7
 10
87.6118103236
 20
90.6785775362
 30
0.0
  0
VERTEX
  5
471
  8
VISIBLE
  6
CONTINUOUS
 62
     7
 10
87.6114954648
 20
90.6842952778
 30
0.0
  0
VERTEX
  5
472
  8
VISIBLE
  6
CONTINUOUS
 62
     7
 10
87.6113899004
 20
90.6899777357
 30
0.0
  0
SEQEND
  5
473
  8
VISIBLE
  6
CONTINUOUS
 62
     7
  0
LINE
  5
A8
  8
VISIBLE
  6
CONTINUOUS
 62
     7
 10
89.6113899004
 20
68.6981459099
 30
0.0
 11
89.6113899004
 21
68.1550177768
 31
0.0
  0
LINE
  5
A9
  8
VISIBLE
  6
CONTINUOUS
 62
     7
 10
87.6113899004
 20
91.2700177768
 30
0.0
 11
87.6113899004
 21
90.6899777357
 31
0.0
  0
LINE
  5
AA
  8
VISIBLE
  6
CONTINUOUS
 62
     7
 10
90.3613899004
 20
69.1625177768
 30
0.0
 11
90.6931686213
 21
69.1625177768
 31
0.0
  0
LINE
  5
AB
  8
HIDDEN
  6
HIDDEN2
 62
     7
 10
89.6113899004
 20
71.5039777726
 30
0.0
 11
89.6113899004
 21
70.6025177768
 31
0.0
  0
LINE
  5
AC
  8
HIDDEN
  6
HIDDEN2
 62
     7
 10
89.6113899004
 20
70.6025177768
 30
0.0
 11
89.6113899004
 21
68.6981459099
 31
0.0
  0
LINE
  5
AD
  8
HIDDEN
  6
HIDDEN2
 62
     7
 10
90.3613899004
 20
71.7567725588
 30
0.0
 11
92.1113899004
 21
71.7567725588
 31
0.0
  0
LINE
  5
AE
  8
HIDDEN
  6
HIDDEN2
 62
     7
 10
90.3613899004
 20
71.7567725588
 30
0.0
 11
90.2243281461
 21
71.7567725588
 31
0.0
  0
ARC
  5
AF
  8
VISIBLE
  6
CONTINUOUS
 62
     7
 10
90.3632320963
 20
68.3994969768
 30
0.0
 40
0.7630230238049753
 50
90.1383315392
 51
105.9673033898
  0
POLYLINE
  5
B0
  8
VISIBLE
  6
CONTINUOUS
 62
     7
 66
     1
 10
0.0
 20
0.0
 30
0.0
  0
VERTEX
  5
474
  8
VISIBLE
  6
CONTINUOUS
 62
     7
 10
89.6113899004
 20
68.6981459099
 30
0.0
  0
VERTEX
  5
475
  8
VISIBLE
  6
CONTINUOUS
 62
     7
 10
89.6114717321
 20
68.7027867385
 30
0.0
  0
VERTEX
  5
476
  8
VISIBLE
  6
CONTINUOUS
 62
     7
 10
89.6117163667
 20
68.7074458142
 30
0.0
  0
VERTEX
  5
477
  8
VISIBLE
  6
CONTINUOUS
 62
     7
 10
89.6121225133
 20
68.7121230508
 30
0.0
  0
VERTEX
  5
478
  8
VISIBLE
  6
CONTINUOUS
 62
     7
 10
89.6126888811
 20
68.7168183623
 30
0.0
  0
VERTEX
  5
479
  8
VISIBLE
  6
CONTINUOUS
 62
     7
 10
89.6134141791
 20
68.7215316624
 30
0.0
  0
VERTEX
  5
47A
  8
VISIBLE
  6
CONTINUOUS
 62
     7
 10
89.6142971166
 20
68.7262628651
 30
0.0
  0
VERTEX
  5
47B
  8
VISIBLE
  6
CONTINUOUS
 62
     7
 10
89.6153364027
 20
68.7310118842
 30
0.0
  0
VERTEX
  5
47C
  8
VISIBLE
  6
CONTINUOUS
 62
     7
 10
89.6165307466
 20
68.7357786337
 30
0.0
  0
VERTEX
  5
47D
  8
VISIBLE
  6
CONTINUOUS
 62
     7
 10
89.6178788573
 20
68.7405630273
 30
0.0
  0
VERTEX
  5
47E
  8
VISIBLE
  6
CONTINUOUS
 62
     7
 10
89.6193794441
 20
68.7453649789
 30
0.0
  0
VERTEX
  5
47F
  8
VISIBLE
  6
CONTINUOUS
 62
     7
 10
89.6210312161
 20
68.7501844025
 30
0.0
  0
VERTEX
  5
480
  8
VISIBLE
  6
CONTINUOUS
 62
     7
 10
89.6228328823
 20
68.7550212119
 30
0.0
  0
VERTEX
  5
481
  8
VISIBLE
  6
CONTINUOUS
 62
     7
 10
89.6247831521
 20
68.7598753209
 30
0.0
  0
VERTEX
  5
482
  8
VISIBLE
  6
CONTINUOUS
 62
     7
 10
89.6268807345
 20
68.7647466434
 30
0.0
  0
VERTEX
  5
483
  8
VISIBLE
  6
CONTINUOUS
 62
     7
 10
89.6291243386
 20
68.7696350933
 30
0.0
  0
VERTEX
  5
484
  8
VISIBLE
  6
CONTINUOUS
 62
     7
 10
89.6315126737
 20
68.7745405844
 30
0.0
  0
VERTEX
  5
485
  8
VISIBLE
  6
CONTINUOUS
 62
     7
 10
89.6340444488
 20
68.7794630307
 30
0.0
  0
VERTEX
  5
486
  8
VISIBLE
  6
CONTINUOUS
 62
     7
 10
89.6367183731
 20
68.784402346
 30
0.0
  0
VERTEX
  5
487
  8
VISIBLE
  6
CONTINUOUS
 62
     7
 10
89.6395331558
 20
68.7893584442
 30
0.0
  0
VERTEX
  5
488
  8
VISIBLE
  6
CONTINUOUS
 62
     7
 10
89.642487506
 20
68.7943312391
 30
0.0
  0
VERTEX
  5
489
  8
VISIBLE
  6
CONTINUOUS
 62
     7
 10
89.6455801328
 20
68.7993206446
 30
0.0
  0
VERTEX
  5
48A
  8
VISIBLE
  6
CONTINUOUS
 62
     7
 10
89.6488097454
 20
68.8043265746
 30
0.0
  0
VERTEX
  5
48B
  8
VISIBLE
  6
CONTINUOUS
 62
     7
 10
89.6521783915
 20
68.8093508533
 30
0.0
  0
VERTEX
  5
48C
  8
VISIBLE
  6
CONTINUOUS
 62
     7
 10
89.655688119
 20
68.8143946121
 30
0.0
  0
VERTEX
  5
48D
  8
VISIBLE
  6
CONTINUOUS
 62
     7
 10
89.6593376372
 20
68.8194567254
 30
0.0
  0
VERTEX
  5
48E
  8
VISIBLE
  6
CONTINUOUS
 62
     7
 10
89.6631256553
 20
68.8245360676
 30
0.0
  0
VERTEX
  5
48F
  8
VISIBLE
  6
CONTINUOUS
 62
     7
 10
89.6670508828
 20
68.8296315131
 30
0.0
  0
VERTEX
  5
490
  8
VISIBLE
  6
CONTINUOUS
 62
     7
 10
89.671112029
 20
68.8347419362
 30
0.0
  0
VERTEX
  5
491
  8
VISIBLE
  6
CONTINUOUS
 62
     7
 10
89.6753078032
 20
68.8398662114
 30
0.0
  0
VERTEX
  5
492
  8
VISIBLE
  6
CONTINUOUS
 62
     7
 10
89.6796369146
 20
68.8450032131
 30
0.0
  0
VERTEX
  5
493
  8
VISIBLE
  6
CONTINUOUS
 62
     7
 10
89.6840980728
 20
68.8501518156
 30
0.0
  0
VERTEX
  5
494
  8
VISIBLE
  6
CONTINUOUS
 62
     7
 10
89.6886899869
 20
68.8553108935
 30
0.0
  0
VERTEX
  5
495
  8
VISIBLE
  6
CONTINUOUS
 62
     7
 10
89.6934113663
 20
68.860479321
 30
0.0
  0
VERTEX
  5
496
  8
VISIBLE
  6
CONTINUOUS
 62
     7
 10
89.6982609203
 20
68.8656559726
 30
0.0
  0
VERTEX
  5
497
  8
VISIBLE
  6
CONTINUOUS
 62
     7
 10
89.7032373583
 20
68.8708397227
 30
0.0
  0
VERTEX
  5
498
  8
VISIBLE
  6
CONTINUOUS
 62
     7
 10
89.7083393896
 20
68.8760294457
 30
0.0
  0
VERTEX
  5
499
  8
VISIBLE
  6
CONTINUOUS
 62
     7
 10
89.7135657235
 20
68.8812240159
 30
0.0
  0
VERTEX
  5
49A
  8
VISIBLE
  6
CONTINUOUS
 62
     7
 10
89.7189150693
 20
68.8864223079
 30
0.0
  0
VERTEX
  5
49B
  8
VISIBLE
  6
CONTINUOUS
 62
     7
 10
89.7243861364
 20
68.8916231959
 30
0.0
  0
VERTEX
  5
49C
  8
VISIBLE
  6
CONTINUOUS
 62
     7
 10
89.7299776341
 20
68.8968255544
 30
0.0
  0
VERTEX
  5
49D
  8
VISIBLE
  6
CONTINUOUS
 62
     7
 10
89.7356882718
 20
68.9020282579
 30
0.0
  0
VERTEX
  5
49E
  8
VISIBLE
  6
CONTINUOUS
 62
     7
 10
89.7415167586
 20
68.9072301806
 30
0.0
  0
VERTEX
  5
49F
  8
VISIBLE
  6
CONTINUOUS
 62
     7
 10
89.7474618041
 20
68.912430197
 30
0.0
  0
VERTEX
  5
4A0
  8
VISIBLE
  6
CONTINUOUS
 62
     7
 10
89.7535221175
 20
68.9176271814
 30
0.0
  0
VERTEX
  5
4A1
  8
VISIBLE
  6
CONTINUOUS
 62
     7
 10
89.7596952729
 20
68.9228222092
 30
0.0
  0
VERTEX
  5
4A2
  8
VISIBLE
  6
CONTINUOUS
 62
     7
 10
89.7659806909
 20
68.9280168261
 30
0.0
  0
VERTEX
  5
4A3
  8
VISIBLE
  6
CONTINUOUS
 62
     7
 10
89.7723798497
 20
68.9332106125
 30
0.0
  0
VERTEX
  5
4A4
  8
VISIBLE
  6
CONTINUOUS
 62
     7
 10
89.778894228
 20
68.9384031488
 30
0.0
  0
VERTEX
  5
4A5
  8
VISIBLE
  6
CONTINUOUS
 62
     7
 10
89.7855253043
 20
68.9435940155
 30
0.0
  0
VERTEX
  5
4A6
  8
VISIBLE
  6
CONTINUOUS
 62
     7
 10
89.7922745571
 20
68.948782793
 30
0.0
  0
VERTEX
  5
4A7
  8
VISIBLE
  6
CONTINUOUS
 62
     7
 10
89.7991434648
 20
68.9539690616
 30
0.0
  0
VERTEX
  5
4A8
  8
VISIBLE
  6
CONTINUOUS
 62
     7
 10
89.806133506
 20
68.9591524018
 30
0.0
  0
VERTEX
  5
4A9
  8
VISIBLE
  6
CONTINUOUS
 62
     7
 10
89.8132461592
 20
68.964332394
 30
0.0
  0
VERTEX
  5
4AA
  8
VISIBLE
  6
CONTINUOUS
 62
     7
 10
89.8204829029
 20
68.9695086186
 30
0.0
  0
VERTEX
  5
4AB
  8
VISIBLE
  6
CONTINUOUS
 62
     7
 10
89.8278452156
 20
68.974680656
 30
0.0
  0
VERTEX
  5
4AC
  8
VISIBLE
  6
CONTINUOUS
 62
     7
 10
89.8353345759
 20
68.9798480866
 30
0.0
  0
VERTEX
  5
4AD
  8
VISIBLE
  6
CONTINUOUS
 62
     7
 10
89.8429524621
 20
68.9850104909
 30
0.0
  0
VERTEX
  5
4AE
  8
VISIBLE
  6
CONTINUOUS
 62
     7
 10
89.8507003529
 20
68.9901674493
 30
0.0
  0
VERTEX
  5
4AF
  8
VISIBLE
  6
CONTINUOUS
 62
     7
 10
89.8585797267
 20
68.9953185421
 30
0.0
  0
VERTEX
  5
4B0
  8
VISIBLE
  6
CONTINUOUS
 62
     7
 10
89.8665920621
 20
69.0004633497
 30
0.0
  0
VERTEX
  5
4B1
  8
VISIBLE
  6
CONTINUOUS
 62
     7
 10
89.8747388375
 20
69.0056014527
 30
0.0
  0
VERTEX
  5
4B2
  8
VISIBLE
  6
CONTINUOUS
 62
     7
 10
89.8830215315
 20
69.0107324313
 30
0.0
  0
VERTEX
  5
4B3
  8
VISIBLE
  6
CONTINUOUS
 62
     7
 10
89.8914416225
 20
69.0158558661
 30
0.0
  0
VERTEX
  5
4B4
  8
VISIBLE
  6
CONTINUOUS
 62
     7
 10
89.9000005891
 20
69.0209713373
 30
0.0
  0
VERTEX
  5
4B5
  8
VISIBLE
  6
CONTINUOUS
 62
     7
 10
89.9086999098
 20
69.0260784255
 30
0.0
  0
VERTEX
  5
4B6
  8
VISIBLE
  6
CONTINUOUS
 62
     7
 10
89.9175410631
 20
69.031176711
 30
0.0
  0
VERTEX
  5
4B7
  8
VISIBLE
  6
CONTINUOUS
 62
     7
 10
89.9265205009
 20
69.0362607838
 30
0.0
  0
VERTEX
  5
4B8
  8
VISIBLE
  6
CONTINUOUS
 62
     7
 10
89.9356356729
 20
69.0413235164
 30
0.0
  0
VERTEX
  5
4B9
  8
VISIBLE
  6
CONTINUOUS
 62
     7
 10
89.9448895547
 20
69.0463619138
 30
0.0
  0
VERTEX
  5
4BA
  8
VISIBLE
  6
CONTINUOUS
 62
     7
 10
89.9542851215
 20
69.0513729807
 30
0.0
  0
VERTEX
  5
4BB
  8
VISIBLE
  6
CONTINUOUS
 62
     7
 10
89.9638253489
 20
69.0563537219
 30
0.0
  0
VERTEX
  5
4BC
  8
VISIBLE
  6
CONTINUOUS
 62
     7
 10
89.9735132123
 20
69.0613011422
 30
0.0
  0
VERTEX
  5
4BD
  8
VISIBLE
  6
CONTINUOUS
 62
     7
 10
89.983351687
 20
69.0662122464
 30
0.0
  0
VERTEX
  5
4BE
  8
VISIBLE
  6
CONTINUOUS
 62
     7
 10
89.9933437485
 20
69.0710840392
 30
0.0
  0
VERTEX
  5
4BF
  8
VISIBLE
  6
CONTINUOUS
 62
     7
 10
90.0034923721
 20
69.0759135255
 30
0.0
  0
VERTEX
  5
4C0
  8
VISIBLE
  6
CONTINUOUS
 62
     7
 10
90.0138005334
 20
69.0806977101
 30
0.0
  0
VERTEX
  5
4C1
  8
VISIBLE
  6
CONTINUOUS
 62
     7
 10
90.0242712077
 20
69.0854335976
 30
0.0
  0
VERTEX
  5
4C2
  8
VISIBLE
  6
CONTINUOUS
 62
     7
 10
90.0349234167
 20
69.0901260875
 30
0.0
  0
VERTEX
  5
4C3
  8
VISIBLE
  6
CONTINUOUS
 62
     7
 10
90.0457773921
 20
69.0947755908
 30
0.0
  0
VERTEX
  5
4C4
  8
VISIBLE
  6
CONTINUOUS
 62
     7
 10
90.056837924
 20
69.09937238
 30
0.0
  0
VERTEX
  5
4C5
  8
VISIBLE
  6
CONTINUOUS
 62
     7
 10
90.0681098027
 20
69.1039067275
 30
0.0
  0
VERTEX
  5
4C6
  8
VISIBLE
  6
CONTINUOUS
 62
     7
 10
90.0795978185
 20
69.1083689059
 30
0.0
  0
VERTEX
  5
4C7
  8
VISIBLE
  6
CONTINUOUS
 62
     7
 10
90.0913067615
 20
69.1127491877
 30
0.0
  0
VERTEX
  5
4C8
  8
VISIBLE
  6
CONTINUOUS
 62
     7
 10
90.103241422
 20
69.1170378453
 30
0.0
  0
VERTEX
  5
4C9
  8
VISIBLE
  6
CONTINUOUS
 62
     7
 10
90.1154065902
 20
69.1212251512
 30
0.0
  0
VERTEX
  5
4CA
  8
VISIBLE
  6
CONTINUOUS
 62
     7
 10
90.1278070563
 20
69.125301378
 30
0.0
  0
VERTEX
  5
4CB
  8
VISIBLE
  6
CONTINUOUS
 62
     7
 10
90.1404476107
 20
69.129256798
 30
0.0
  0
VERTEX
  5
4CC
  8
VISIBLE
  6
CONTINUOUS
 62
     7
 10
90.1533330434
 20
69.1330816839
 30
0.0
  0
SEQEND
  5
4CD
  8
VISIBLE
  6
CONTINUOUS
 62
     7
  0
POLYLINE
  5
B1
  8
HIDDEN
  6
HIDDEN2
 62
     7
 66
     1
 10
0.0
 20
0.0
 30
0.0
  0
VERTEX
  5
4CE
  8
HIDDEN
  6
HIDDEN2
 62
     7
 10
90.2243281461
 20
71.7567725588
 30
0.0
  0
VERTEX
  5
4CF
  8
HIDDEN
  6
HIDDEN2
 62
     7
 10
90.2054429382
 20
71.7552887041
 30
0.0
  0
VERTEX
  5
4D0
  8
HIDDEN
  6
HIDDEN2
 62
     7
 10
90.1867317948
 20
71.7536243728
 30
0.0
  0
VERTEX
  5
4D1
  8
HIDDEN
  6
HIDDEN2
 62
     7
 10
90.1681983496
 20
71.7517822576
 30
0.0
  0
VERTEX
  5
4D2
  8
HIDDEN
  6
HIDDEN2
 62
     7
 10
90.1498462362
 20
71.7497650514
 30
0.0
  0
VERTEX
  5
4D3
  8
HIDDEN
  6
HIDDEN2
 62
     7
 10
90.1316790881
 20
71.7475754471
 30
0.0
  0
VERTEX
  5
4D4
  8
HIDDEN
  6
HIDDEN2
 62
     7
 10
90.113700539
 20
71.7452161376
 30
0.0
  0
VERTEX
  5
4D5
  8
HIDDEN
  6
HIDDEN2
 62
     7
 10
90.0959142225
 20
71.7426898158
 30
0.0
  0
VERTEX
  5
4D6
  8
HIDDEN
  6
HIDDEN2
 62
     7
 10
90.0783237721
 20
71.7399991744
 30
0.0
  0
VERTEX
  5
4D7
  8
HIDDEN
  6
HIDDEN2
 62
     7
 10
90.0609328215
 20
71.7371469065
 30
0.0
  0
VERTEX
  5
4D8
  8
HIDDEN
  6
HIDDEN2
 62
     7
 10
90.0437450044
 20
71.7341357048
 30
0.0
  0
VERTEX
  5
4D9
  8
HIDDEN
  6
HIDDEN2
 62
     7
 10
90.0267639541
 20
71.7309682622
 30
0.0
  0
VERTEX
  5
4DA
  8
HIDDEN
  6
HIDDEN2
 62
     7
 10
90.0099933045
 20
71.7276472716
 30
0.0
  0
VERTEX
  5
4DB
  8
HIDDEN
  6
HIDDEN2
 62
     7
 10
89.9934366891
 20
71.724175426
 30
0.0
  0
VERTEX
  5
4DC
  8
HIDDEN
  6
HIDDEN2
 62
     7
 10
89.9770977415
 20
71.720555418
 30
0.0
  0
VERTEX
  5
4DD
  8
HIDDEN
  6
HIDDEN2
 62
     7
 10
89.9610158802
 20
71.7167976394
 30
0.0
  0
VERTEX
  5
4DE
  8
HIDDEN
  6
HIDDEN2
 62
     7
 10
89.9452310399
 20
71.7129134408
 30
0.0
  0
VERTEX
  5
4DF
  8
HIDDEN
  6
HIDDEN2
 62
     7
 10
89.9297476282
 20
71.7089069538
 30
0.0
  0
VERTEX
  5
4E0
  8
HIDDEN
  6
HIDDEN2
 62
     7
 10
89.9145700532
 20
71.7047823097
 30
0.0
  0
VERTEX
  5
4E1
  8
HIDDEN
  6
HIDDEN2
 62
     7
 10
89.8997027224
 20
71.7005436403
 30
0.0
  0
VERTEX
  5
4E2
  8
HIDDEN
  6
HIDDEN2
 62
     7
 10
89.8851500437
 20
71.6961950768
 30
0.0
  0
VERTEX
  5
4E3
  8
HIDDEN
  6
HIDDEN2
 62
     7
 10
89.870916425
 20
71.6917407509
 30
0.0
  0
VERTEX
  5
4E4
  8
HIDDEN
  6
HIDDEN2
 62
     7
 10
89.857006274
 20
71.687184794
 30
0.0
  0
VERTEX
  5
4E5
  8
HIDDEN
  6
HIDDEN2
 62
     7
 10
89.8434239984
 20
71.6825313377
 30
0.0
  0
VERTEX
  5
4E6
  8
HIDDEN
  6
HIDDEN2
 62
     7
 10
89.8301740061
 20
71.6777845134
 30
0.0
  0
VERTEX
  5
4E7
  8
HIDDEN
  6
HIDDEN2
 62
     7
 10
89.8172607049
 20
71.6729484527
 30
0.0
  0
VERTEX
  5
4E8
  8
HIDDEN
  6
HIDDEN2
 62
     7
 10
89.8046885026
 20
71.668027287
 30
0.0
  0
VERTEX
  5
4E9
  8
HIDDEN
  6
HIDDEN2
 62
     7
 10
89.7924618069
 20
71.6630251479
 30
0.0
  0
VERTEX
  5
4EA
  8
HIDDEN
  6
HIDDEN2
 62
     7
 10
89.7805850257
 20
71.6579461668
 30
0.0
  0
VERTEX
  5
4EB
  8
HIDDEN
  6
HIDDEN2
 62
     7
 10
89.7690734713
 20
71.6528006041
 30
0.0
  0
VERTEX
  5
4EC
  8
HIDDEN
  6
HIDDEN2
 62
     7
 10
89.7579414821
 20
71.6475983162
 30
0.0
  0
VERTEX
  5
4ED
  8
HIDDEN
  6
HIDDEN2
 62
     7
 10
89.7471920045
 20
71.6423428285
 30
0.0
  0
VERTEX
  5
4EE
  8
HIDDEN
  6
HIDDEN2
 62
     7
 10
89.736827985
 20
71.6370376664
 30
0.0
  0
VERTEX
  5
4EF
  8
HIDDEN
  6
HIDDEN2
 62
     7
 10
89.7268523702
 20
71.6316863556
 30
0.0
  0
VERTEX
  5
4F0
  8
HIDDEN
  6
HIDDEN2
 62
     7
 10
89.7172681066
 20
71.6262924215
 30
0.0
  0
VERTEX
  5
4F1
  8
HIDDEN
  6
HIDDEN2
 62
     7
 10
89.7080781406
 20
71.6208593895
 30
0.0
  0
VERTEX
  5
4F2
  8
HIDDEN
  6
HIDDEN2
 62
     7
 10
89.6992854188
 20
71.6153907853
 30
0.0
  0
VERTEX
  5
4F3
  8
HIDDEN
  6
HIDDEN2
 62
     7
 10
89.6908928878
 20
71.6098901342
 30
0.0
  0
VERTEX
  5
4F4
  8
HIDDEN
  6
HIDDEN2
 62
     7
 10
89.682903494
 20
71.6043609618
 30
0.0
  0
VERTEX
  5
4F5
  8
HIDDEN
  6
HIDDEN2
 62
     7
 10
89.675320184
 20
71.5988067935
 30
0.0
  0
VERTEX
  5
4F6
  8
HIDDEN
  6
HIDDEN2
 62
     7
 10
89.6681459042
 20
71.5932311549
 30
0.0
  0
VERTEX
  5
4F7
  8
HIDDEN
  6
HIDDEN2
 62
     7
 10
89.6613836012
 20
71.5876375714
 30
0.0
  0
VERTEX
  5
4F8
  8
HIDDEN
  6
HIDDEN2
 62
     7
 10
89.6550362215
 20
71.5820295686
 30
0.0
  0
VERTEX
  5
4F9
  8
HIDDEN
  6
HIDDEN2
 62
     7
 10
89.6491067116
 20
71.5764106719
 30
0.0
  0
VERTEX
  5
4FA
  8
HIDDEN
  6
HIDDEN2
 62
     7
 10
89.643598018
 20
71.5707844068
 30
0.0
  0
VERTEX
  5
4FB
  8
HIDDEN
  6
HIDDEN2
 62
     7
 10
89.6385130873
 20
71.5651542989
 30
0.0
  0
VERTEX
  5
4FC
  8
HIDDEN
  6
HIDDEN2
 62
     7
 10
89.6338548659
 20
71.5595238736
 30
0.0
  0
VERTEX
  5
4FD
  8
HIDDEN
  6
HIDDEN2
 62
     7
 10
89.6296263004
 20
71.5538966563
 30
0.0
  0
VERTEX
  5
4FE
  8
HIDDEN
  6
HIDDEN2
 62
     7
 10
89.6258303373
 20
71.5482761727
 30
0.0
  0
VERTEX
  5
4FF
  8
HIDDEN
  6
HIDDEN2
 62
     7
 10
89.6224699231
 20
71.5426659482
 30
0.0
  0
VERTEX
  5
500
  8
HIDDEN
  6
HIDDEN2
 62
     7
 10
89.6195480044
 20
71.5370695083
 30
0.0
  0
VERTEX
  5
501
  8
HIDDEN
  6
HIDDEN2
 62
     7
 10
89.6170675275
 20
71.5314903784
 30
0.0
  0
VERTEX
  5
502
  8
HIDDEN
  6
HIDDEN2
 62
     7
 10
89.6150314391
 20
71.5259320841
 30
0.0
  0
VERTEX
  5
503
  8
HIDDEN
  6
HIDDEN2
 62
     7
 10
89.6134426857
 20
71.5203981509
 30
0.0
  0
VERTEX
  5
504
  8
HIDDEN
  6
HIDDEN2
 62
     7
 10
89.6123042138
 20
71.5148921042
 30
0.0
  0
VERTEX
  5
505
  8
HIDDEN
  6
HIDDEN2
 62
     7
 10
89.6116189698
 20
71.5094174696
 30
0.0
  0
VERTEX
  5
506
  8
HIDDEN
  6
HIDDEN2
 62
     7
 10
89.6113899004
 20
71.5039777726
 30
0.0
  0
SEQEND
  5
507
  8
HIDDEN
  6
HIDDEN2
 62
     7
  0
LINE
  5
B2
  8
0
  6
HIDDEN2
 62
     7
 10
48.7144847511
 20
83.2954200756
 30
0.0
 11
48.5366005618
 21
83.337517764
 31
0.0
  0
LINE
  5
B3
  8
0
  6
HIDDEN2
 62
     7
 10
48.8171390256
 20
83.2954200756
 30
0.0
 11
48.7144847511
 21
83.2954200756
 31
0.0
  0
LINE
  5
B4
  8
0
  6
HIDDEN2
 62
     7
 10
48.9759513436
 20
75.9208274423
 30
0.0
 11
48.9759513436
 21
83.4042081113
 31
0.0
  0
POLYLINE
  5
B5
  8
HIDDEN
  6
HIDDEN2
 62
     7
 66
     1
 10
0.0
 20
0.0
 30
0.0
  0
VERTEX
  5
508
  8
HIDDEN
  6
HIDDEN2
 62
     7
 10
48.8604402958
 20
83.3375177768
 30
0.0
  0
VERTEX
  5
509
  8
HIDDEN
  6
HIDDEN2
 62
     7
 10
48.8603634873
 20
83.3374426286
 30
0.0
  0
VERTEX
  5
50A
  8
HIDDEN
  6
HIDDEN2
 62
     7
 10
48.8601333432
 20
83.3372175441
 30
0.0
  0
VERTEX
  5
50B
  8
HIDDEN
  6
HIDDEN2
 62
     7
 10
48.85975029
 20
83.336843061
 30
0.0
  0
VERTEX
  5
50C
  8
HIDDEN
  6
HIDDEN2
 62
     7
 10
48.8592147538
 20
83.3363197169
 30
0.0
  0
VERTEX
  5
50D
  8
HIDDEN
  6
HIDDEN2
 62
     7
 10
48.8585271608
 20
83.3356480497
 30
0.0
  0
VERTEX
  5
50E
  8
HIDDEN
  6
HIDDEN2
 62
     7
 10
48.8576879374
 20
83.3348285968
 30
0.0
  0
VERTEX
  5
50F
  8
HIDDEN
  6
HIDDEN2
 62
     7
 10
48.8566975097
 20
83.3338618961
 30
0.0
  0
VERTEX
  5
510
  8
HIDDEN
  6
HIDDEN2
 62
     7
 10
48.8555563041
 20
83.3327484852
 30
0.0
  0
VERTEX
  5
511
  8
HIDDEN
  6
HIDDEN2
 62
     7
 10
48.8542647467
 20
83.3314889018
 30
0.0
  0
VERTEX
  5
512
  8
HIDDEN
  6
HIDDEN2
 62
     7
 10
48.8528232639
 20
83.3300836836
 30
0.0
  0
VERTEX
  5
513
  8
HIDDEN
  6
HIDDEN2
 62
     7
 10
48.8512322818
 20
83.3285333683
 30
0.0
  0
VERTEX
  5
514
  8
HIDDEN
  6
HIDDEN2
 62
     7
 10
48.8494922267
 20
83.3268384935
 30
0.0
  0
VERTEX
  5
515
  8
HIDDEN
  6
HIDDEN2
 62
     7
 10
48.8476035248
 20
83.3249995969
 30
0.0
  0
VERTEX
  5
516
  8
HIDDEN
  6
HIDDEN2
 62
     7
 10
48.8455666025
 20
83.3230172162
 30
0.0
  0
VERTEX
  5
517
  8
HIDDEN
  6
HIDDEN2
 62
     7
 10
48.8433818859
 20
83.3208918892
 30
0.0
  0
VERTEX
  5
518
  8
HIDDEN
  6
HIDDEN2
 62
     7
 10
48.8410498013
 20
83.3186241534
 30
0.0
  0
VERTEX
  5
519
  8
HIDDEN
  6
HIDDEN2
 62
     7
 10
48.8385707749
 20
83.3162145466
 30
0.0
  0
VERTEX
  5
51A
  8
HIDDEN
  6
HIDDEN2
 62
     7
 10
48.835945233
 20
83.3136636065
 30
0.0
  0
VERTEX
  5
51B
  8
HIDDEN
  6
HIDDEN2
 62
     7
 10
48.8331736018
 20
83.3109718707
 30
0.0
  0
VERTEX
  5
51C
  8
HIDDEN
  6
HIDDEN2
 62
     7
 10
48.8302563076
 20
83.3081398769
 30
0.0
  0
VERTEX
  5
51D
  8
HIDDEN
  6
HIDDEN2
 62
     7
 10
48.8271937767
 20
83.3051681628
 30
0.0
  0
VERTEX
  5
51E
  8
HIDDEN
  6
HIDDEN2
 62
     7
 10
48.8239864352
 20
83.3020572661
 30
0.0
  0
VERTEX
  5
51F
  8
HIDDEN
  6
HIDDEN2
 62
     7
 10
48.8206347094
 20
83.2988077245
 30
0.0
  0
VERTEX
  5
520
  8
HIDDEN
  6
HIDDEN2
 62
     7
 10
48.8171390256
 20
83.2954200756
 30
0.0
  0
SEQEND
  5
521
  8
HIDDEN
  6
HIDDEN2
 62
     7
  0
LINE
  5
B6
  8
HIDDEN
  6
HIDDEN2
 62
     7
 10
49.8156515285
 20
78.7483035397
 30
0.0
 11
49.8156515285
 21
83.0323535677
 31
0.0
  0
ARC
  5
B7
  8
0
  6
HIDDEN2
 62
     7
 10
77.920818861
 20
89.4025297202
 30
0.0
 40
28.81608489408494
 50
192.1500815121
 51
192.7534210595
  0
ARC
  5
B8
  8
0
  6
HIDDEN2
 62
     7
 10
75.8999673487
 20
198.5358713349
 30
0.0
 40
118.4035769905857
 50
257.2733420834
 51
257.8735712739
  0
LINE
  5
B9
  8
0
  6
HIDDEN2
 62
     7
 10
56.6113899004
 20
76.3375177768
 30
0.0
 11
56.6113899004
 21
82.9875177768
 31
0.0
  0
LINE
  5
BA
  8
HIDDEN
  6
HIDDEN2
 62
     7
 10
53.1113899004
 20
82.774299386
 30
0.0
 11
51.0269799109
 21
82.774299386
 31
0.0
  0
LINE
  5
BB
  8
0
  6
HIDDEN2
 62
     7
 10
38.1113899004
 20
71.5625177768
 30
0.0
 11
38.1113899004
 21
87.7625177768
 31
0.0
  0
LINE
  5
BC
  8
HIDDEN
  6
HIDDEN2
 62
     7
 10
38.8613899004
 20
71.8125177768
 30
0.0
 11
38.8613899004
 21
87.5125177768
 31
0.0
  0
LINE
  5
BD
  8
0
  6
HIDDEN2
 62
     7
 10
49.7259513436
 20
75.9208274423
 30
0.0
 11
49.7259513436
 21
83.4042081113
 31
0.0
  0
LINE
  5
BE
  8
HIDDEN
  6
HIDDEN2
 62
     7
 10
57.6753638416
 20
80.8917677768
 30
0.0
 11
57.6753638416
 21
78.4332677768
 31
0.0
  0
LINE
  5
BF
  8
VISIBLE
  6
CONTINUOUS
 62
     7
 10
34.1113899004
 20
67.6625177768
 30
0.0
 11
34.1113899004
 21
91.6625177768
 31
0.0
  0
LINE
  5
C0
  8
VISIBLE
  6
CONTINUOUS
 62
     7
 10
76.6113899004
 20
67.5550177768
 30
0.0
 11
77.6113899004
 21
67.5550177768
 31
0.0
  0
LINE
  5
C1
  8
VISIBLE
  6
CONTINUOUS
 62
     7
 10
77.6113899004
 20
91.7700177768
 30
0.0
 11
76.6113899004
 21
91.7700177768
 31
0.0
  0
LINE
  5
C2
  8
VISIBLE
  6
CONTINUOUS
 62
     7
 10
83.2170686921
 20
67.8353017164
 30
0.0
 11
89.6113899004
 21
68.1550177768
 31
0.0
  0
LINE
  5
C3
  8
VISIBLE
  6
CONTINUOUS
 62
     7
 10
77.6113899004
 20
67.5550177768
 30
0.0
 11
79.0281474969
 21
67.6258556566
 31
0.0
  0
LINE
  5
C4
  8
VISIBLE
  6
CONTINUOUS
 62
     7
 10
79.0280499172
 20
91.6991847759
 30
0.0
 11
77.6113899004
 21
91.7700177768
 31
0.0
  0
LINE
  5
C5
  8
VISIBLE
  6
CONTINUOUS
 62
     7
 10
87.6113899004
 20
91.2700177768
 30
0.0
 11
83.2169531372
 21
91.4897396149
 31
0.0
  0
LINE
  5
C6
  8
HIDDEN
  6
HIDDEN2
 62
     7
 10
86.1094026023
 20
71.1625177768
 30
0.0
 11
89.6113899004
 21
71.1625177768
 31
0.0
  0
LINE
  5
C7
  8
0
  6
HIDDEN2
 62
     7
 10
87.6113899004
 20
88.1625177768
 30
0.0
 11
86.1094026023
 21
88.1625177768
 31
0.0
  0
LINE
  5
C8
  8
HIDDEN
  6
HIDDEN2
 62
     7
 10
85.3299797389
 20
69.8125177768
 30
0.0
 11
86.1094026023
 21
71.1625177768
 31
0.0
  0
LINE
  5
C9
  8
HIDDEN
  6
HIDDEN2
 62
     7
 10
86.1094026023
 20
88.1625177768
 30
0.0
 11
85.3299797389
 21
89.5125177768
 31
0.0
  0
ARC
  5
CA
  8
HIDDEN
  6
HIDDEN2
 62
     7
 10
85.0701721178
 20
69.9625177768
 30
0.0
 40
0.2999999999999999
 50
270.0
 51
330.0
  0
ARC
  5
CB
  8
HIDDEN
  6
HIDDEN2
 62
     7
 10
85.0701721178
 20
89.3625177768
 30
0.0
 40
0.2999999999999994
 50
30.0
 51
90.0
  0
LINE
  5
CC
  8
0
  6
HIDDEN2
 62
     7
 10
82.9814038296
 20
69.6625177768
 30
0.0
 11
85.0701721178
 21
69.6625177768
 31
0.0
  0
LINE
  5
CD
  8
HIDDEN
  6
HIDDEN2
 62
     7
 10
85.0701721178
 20
89.6625177768
 30
0.0
 11
82.9814038296
 21
89.6625177768
 31
0.0
  0
ARC
  5
CE
  8
HIDDEN
  6
HIDDEN2
 62
     7
 10
79.7338888996
 20
73.6625177768
 30
0.0
 40
4.000000000000001
 50
218.6821874535
 51
262.9451728455
  0
ARC
  5
CF
  8
0
  6
HIDDEN2
 62
     7
 10
79.7338888996
 20
85.6625177768
 30
0.0
 40
4.0
 50
97.055320583
 51
141.3178125465
  0
LINE
  5
D0
  8
0
  6
HIDDEN2
 62
     7
 10
71.6113899004
 20
71.1625177768
 30
0.0
 11
76.6113899004
 21
71.1625177768
 31
0.0
  0
LINE
  5
D1
  8
0
  6
HIDDEN2
 62
     7
 10
76.6113899004
 20
88.1625177768
 30
0.0
 11
71.6113899004
 21
88.1625177768
 31
0.0
  0
LINE
  5
D2
  8
0
  6
HIDDEN2
 62
     7
 10
65.6113899004
 20
75.0375177768
 30
0.0
 11
66.6113899004
 21
75.0375177768
 31
0.0
  0
LINE
  5
D3
  8
0
  6
HIDDEN2
 62
     7
 10
66.6113899004
 20
84.2875177768
 30
0.0
 11
65.6113899004
 21
84.2875177768
 31
0.0
  0
LINE
  5
D4
  8
VISIBLE
  6
CONTINUOUS
 62
     7
 10
90.8318459644
 20
90.1575177768
 30
0.0
 11
88.3613899004
 21
90.1575177768
 31
0.0
  0
LINE
  5
D5
  8
VISIBLE
  6
CONTINUOUS
 62
     7
 10
74.109198721
 20
63.9125177768
 30
0.0
 11
76.6113899004
 21
63.9125177768
 31
0.0
  0
LINE
  5
D6
  8
VISIBLE
  6
CONTINUOUS
 62
     7
 10
76.6113899004
 20
95.4125177768
 30
0.0
 11
74.1094342289
 21
95.4125177768
 31
0.0
  0
LINE
  5
D7
  8
VISIBLE
  6
CONTINUOUS
 62
     7
 10
92.2303339436
 20
69.2814618199
 30
0.0
 11
92.5463480687
 21
69.5974759451
 31
0.0
  0
LINE
  5
D8
  8
VISIBLE
  6
CONTINUOUS
 62
     7
 10
92.5513957067
 20
89.7175119705
 30
0.0
 11
92.2252732601
 21
90.0436344171
 31
0.0
  0
LINE
  5
D9
  8
HIDDEN
  6
HIDDEN2
 62
     7
 10
79.2363899004
 20
69.6939813638
 30
0.0
 11
79.2363899004
 21
67.8481778591
 31
0.0
  0
LINE
  5
DA
  8
HIDDEN
  6
HIDDEN2
 62
     7
 10
82.9863899004
 20
68.0576249706
 30
0.0
 11
82.9863899004
 21
69.6634488996
 31
0.0
  0
LINE
  5
DB
  8
HIDDEN
  6
HIDDEN2
 62
     7
 10
79.2363899004
 20
91.4758668009
 30
0.0
 11
79.2363899004
 21
89.6310541898
 31
0.0
  0
LINE
  5
DC
  8
HIDDEN
  6
HIDDEN2
 62
     7
 10
82.9863899004
 20
89.661586654
 30
0.0
 11
82.9863899004
 21
91.2675378981
 31
0.0
  0
ARC
  5
DD
  8
VISIBLE
  6
CONTINUOUS
 62
     7
 10
88.3613899004
 20
90.9075177768
 30
0.0
 40
0.7500000000000007
 50
232.517699628
 51
270.0
  0
LINE
  5
DE
  8
VISIBLE
  6
CONTINUOUS
 62
     7
 10
63.1113899004
 20
92.1625177768
 30
0.0
 11
34.6113899004
 21
92.1625177768
 31
0.0
  0
LINE
  5
DF
  8
VISIBLE
  6
CONTINUOUS
 62
     7
 10
34.6113899004
 20
67.1625177768
 30
0.0
 11
63.1113899004
 21
67.1625177768
 31
0.0
  0
LINE
  5
E0
  8
0
  6
HIDDEN2
 62
     7
 10
39.6221457535
 20
74.7346728647
 30
0.0
 11
48.7144847511
 21
76.0125177768
 31
0.0
  0
LINE
  5
E1
  8
0
  6
HIDDEN2
 62
     7
 10
48.5404343708
 20
83.3369789625
 30
0.0
 11
39.6221457535
 21
84.5903626889
 31
0.0
  0
LINE
  5
E2
  8
0
  6
HIDDEN2
 62
     7
 10
48.9759513436
 20
83.4042081113
 30
0.0
 11
48.8602849542
 21
83.3374280902
 31
0.0
  0
LINE
  5
E3
  8
HIDDEN
  6
HIDDEN2
 62
     7
 10
48.8171390256
 20
76.0125177768
 30
0.0
 11
48.9759513436
 21
75.9208274423
 31
0.0
  0
LINE
  5
E4
  8
HIDDEN
  6
HIDDEN2
 62
     7
 10
49.7259513436
 20
75.9208274423
 30
0.0
 11
49.8156515285
 21
76.1672766748
 31
0.0
  0
LINE
  5
E5
  8
0
  6
HIDDEN2
 62
     7
 10
49.7511189278
 20
83.3350607419
 30
0.0
 11
49.7259513436
 21
83.4042081113
 31
0.0
  0
LINE
  5
E6
  8
HIDDEN
  6
HIDDEN2
 62
     7
 10
51.0269799109
 20
76.3375177768
 30
0.0
 11
56.6113899004
 21
76.3375177768
 31
0.0
  0
LINE
  5
E7
  8
HIDDEN
  6
HIDDEN2
 62
     7
 10
56.6113899004
 20
82.9875177768
 30
0.0
 11
53.1113899004
 21
82.9875177768
 31
0.0
  0
LINE
  5
E8
  8
HIDDEN
  6
HIDDEN2
 62
     7
 10
48.7144847511
 20
76.0125177768
 30
0.0
 11
48.8171390256
 21
76.0125177768
 31
0.0
  0
LINE
  5
E9
  8
HIDDEN
  6
HIDDEN2
 62
     7
 10
49.8156515285
 20
76.1672766748
 30
0.0
 11
51.0269799109
 21
76.3375177768
 31
0.0
  0
LINE
  5
EA
  8
HIDDEN
  6
HIDDEN2
 62
     7
 10
38.1113899004
 20
71.5625177768
 30
0.0
 11
38.6113899004
 21
71.5625177768
 31
0.0
  0
LINE
  5
EB
  8
HIDDEN
  6
HIDDEN2
 62
     7
 10
38.6113899004
 20
87.7625177768
 30
0.0
 11
38.1113899004
 21
87.7625177768
 31
0.0
  0
ARC
  5
EC
  8
HIDDEN
  6
HIDDEN2
 62
     7
 10
38.6113899004
 20
71.8125177768
 30
0.0
 40
0.2500000000000002
 50
270.0
 51
0.0
  0
ARC
  5
ED
  8
HIDDEN
  6
HIDDEN2
 62
     7
 10
38.6113899004
 20
87.5125177768
 30
0.0
 40
0.2500000000000002
 50
0.0
 51
90.0
  0
LINE
  5
EE
  8
0
  6
HIDDEN2
 62
     7
 10
38.8613899004
 20
73.4170050749
 30
0.0
 11
39.6221457535
 21
74.7346728647
 31
0.0
  0
LINE
  5
EF
  8
0
  6
HIDDEN2
 62
     7
 10
39.6221457535
 20
84.5903626889
 30
0.0
 11
38.8613899004
 21
85.9080304787
 31
0.0
  0
LINE
  5
F0
  8
HIDDEN
  6
HIDDEN2
 62
     7
 10
48.9759513436
 20
75.9208274423
 30
0.0
 11
49.7259513436
 21
75.9208274423
 31
0.0
  0
LINE
  5
F1
  8
0
  6
HIDDEN2
 62
     7
 10
49.7259513436
 20
83.4042081113
 30
0.0
 11
48.9759513436
 21
83.4042081113
 31
0.0
  0
LINE
  5
F2
  8
HIDDEN
  6
HIDDEN2
 62
     7
 10
56.6113899004
 20
76.6625177768
 30
0.0
 11
57.6753638416
 21
78.4332677768
 31
0.0
  0
LINE
  5
F3
  8
HIDDEN
  6
HIDDEN2
 62
     7
 10
57.6753638416
 20
80.8917677768
 30
0.0
 11
56.6113899004
 21
82.6625177768
 31
0.0
  0
LINE
  5
F4
  8
HIDDEN
  6
HIDDEN2
 62
     7
 10
48.8604402958
 20
83.3375177768
 30
0.0
 11
48.5366005081
 21
83.3375177768
 31
0.0
  0
LINE
  5
F5
  8
HIDDEN
  6
HIDDEN2
 62
     7
 10
65.6113899004
 20
80.8917677768
 30
0.0
 11
57.6753638416
 21
80.8917677768
 31
0.0
  0
LINE
  5
F6
  8
HIDDEN
  6
HIDDEN2
 62
     7
 10
57.6753638416
 20
78.4332677768
 30
0.0
 11
65.6113899004
 21
78.4332677768
 31
0.0
  0
LINE
  5
F7
  8
VISIBLE
  6
CONTINUOUS
 62
     7
 10
34.6113899004
 20
92.1625177768
 30
0.0
 11
34.1113899004
 21
91.6625177768
 31
0.0
  0
LINE
  5
F8
  8
VISIBLE
  6
CONTINUOUS
 62
     7
 10
34.1113899004
 20
67.6625177768
 30
0.0
 11
34.6113899004
 21
67.1625177768
 31
0.0
  0
ARC
  5
F9
  8
VISIBLE
  6
CONTINUOUS
 62
     7
 10
63.1113899004
 20
92.6625177768
 30
0.0
 40
0.5000000000000004
 50
270.0
 51
0.0
  0
ARC
  5
FA
  8
VISIBLE
  6
CONTINUOUS
 62
     7
 10
63.1113899004
 20
66.6625177768
 30
0.0
 40
0.5000000000000004
 50
0.0
 51
90.0
  0
LINE
  5
FB
  8
0
  6
HIDDEN2
 62
     7
 10
71.6113899004
 20
75.1625177768
 30
0.0
 11
66.6113899004
 21
75.1625177768
 31
0.0
  0
LINE
  5
FC
  8
0
  6
HIDDEN2
 62
     7
 10
71.6113899004
 20
84.1625177768
 30
0.0
 11
66.6113899004
 21
84.1625177768
 31
0.0
  0
LINE
  5
FD
  8
HIDDEN
  6
HIDDEN2
 62
     7
 10
57.512680829
 20
81.1625177768
 30
0.0
 11
65.6113899004
 21
81.1625177768
 31
0.0
  0
LINE
  5
FE
  8
HIDDEN
  6
HIDDEN2
 62
     7
 10
57.512680829
 20
78.1625177768
 30
0.0
 11
65.6113899004
 21
78.1625177768
 31
0.0
  0
LINE
  5
FF
  8
0
  6
HIDDEN2
 62
     7
 10
34.1691249273
 20
87.6625177768
 30
0.0
 11
38.1113899004
 21
87.6625177768
 31
0.0
  0
LINE
  5
100
  8
HIDDEN
  6
HIDDEN2
 62
     7
 10
34.1691249273
 20
71.6625177768
 30
0.0
 11
38.1113899004
 21
71.6625177768
 31
0.0
  0
LINE
  5
101
  8
HIDDEN
  6
HIDDEN2
 62
     7
 10
62.6113899004
 20
80.6625177768
 30
0.0
 11
62.6113899004
 21
78.6625177768
 31
0.0
  0
LINE
  5
102
  8
HIDDEN
  6
HIDDEN2
 62
     7
 10
56.7884920955
 20
81.1625177768
 30
0.0
 11
56.6113899004
 21
80.8557677768
 31
0.0
  0
LINE
  5
103
  8
HIDDEN
  6
HIDDEN2
 62
     7
 10
56.6113899004
 20
78.4692677768
 30
0.0
 11
56.7884920955
 21
78.1625177768
 31
0.0
  0
LINE
  5
104
  8
HIDDEN
  6
HIDDEN2
 62
     7
 10
62.1113899004
 20
81.1625177768
 30
0.0
 11
56.7884920955
 21
81.1625177768
 31
0.0
  0
LINE
  5
105
  8
HIDDEN
  6
HIDDEN2
 62
     7
 10
56.7884920955
 20
78.1625177768
 30
0.0
 11
62.1113899004
 21
78.1625177768
 31
0.0
  0
LINE
  5
106
  8
HIDDEN
  6
HIDDEN2
 62
     7
 10
62.1113899004
 20
78.1625177768
 30
0.0
 11
62.6113899004
 21
78.6625177768
 31
0.0
  0
LINE
  5
107
  8
HIDDEN
  6
HIDDEN2
 62
     7
 10
62.6113899004
 20
80.6625177768
 30
0.0
 11
62.1113899004
 21
81.1625177768
 31
0.0
  0
LINE
  5
108
  8
VISIBLE
  6
CONTINUOUS
 62
     7
 10
30.3613899004
 20
73.8955304787
 30
0.0
 11
30.3613899004
 21
85.4295050749
 31
0.0
  0
LINE
  5
109
  8
VISIBLE
  6
CONTINUOUS
 62
     7
 10
30.6113899004
 20
85.2446680435
 30
0.0
 11
30.6113899004
 21
85.6625177768
 31
0.0
  0
LINE
  5
10A
  8
VISIBLE
  6
CONTINUOUS
 62
     7
 10
33.3613899004
 20
72.1625177768
 30
0.0
 11
33.3613899004
 21
87.1625177768
 31
0.0
  0
LINE
  5
10B
  8
VISIBLE
  6
CONTINUOUS
 62
     7
 10
30.6113899004
 20
73.6625177768
 30
0.0
 11
30.6113899004
 21
74.0803675101
 31
0.0
  0
LINE
  5
10C
  8
VISIBLE
  6
CONTINUOUS
 62
     7
 10
30.6113899004
 20
79.2446680435
 30
0.0
 11
30.6113899004
 21
80.0803675101
 31
0.0
  0
LINE
  5
10D
  8
VISIBLE
  6
CONTINUOUS
 62
     7
 10
30.6113899004
 20
85.6625177768
 30
0.0
 11
30.4238260911
 21
85.6625177768
 31
0.0
  0
ARC
  5
10E
  8
VISIBLE
  6
CONTINUOUS
 62
     7
 10
48.2914996541
 20
82.6625177768
 30
0.0
 40
17.86767418839761
 50
171.6907942754
 51
188.3092057246
  0
ARC
  5
10F
  8
VISIBLE
  6
CONTINUOUS
 62
     7
 10
48.2914996541
 20
76.6625177768
 30
0.0
 40
17.86767418839758
 50
171.6907942754
 51
188.3092057246
  0
LINE
  5
110
  8
VISIBLE
  6
CONTINUOUS
 62
     7
 10
30.6113899004
 20
73.6625177768
 30
0.0
 11
30.4238260911
 21
73.6625177768
 31
0.0
  0
LINE
  5
111
  8
VISIBLE
  6
CONTINUOUS
 62
     7
 10
33.3613899004
 20
73.6625177768
 30
0.0
 11
30.6113899004
 21
73.6625177768
 31
0.0
  0
LINE
  5
112
  8
VISIBLE
  6
CONTINUOUS
 62
     7
 10
33.3613899004
 20
79.2446680435
 30
0.0
 11
30.6113899004
 21
79.2446680435
 31
0.0
  0
LINE
  5
113
  8
VISIBLE
  6
CONTINUOUS
 62
     7
 10
30.6113899004
 20
74.0803675101
 30
0.0
 11
33.3613899004
 21
74.0803675101
 31
0.0
  0
LINE
  5
114
  8
VISIBLE
  6
CONTINUOUS
 62
     7
 10
33.3613899004
 20
85.2446680435
 30
0.0
 11
30.6113899004
 21
85.2446680435
 31
0.0
  0
LINE
  5
115
  8
VISIBLE
  6
CONTINUOUS
 62
     7
 10
30.6113899004
 20
80.0803675101
 30
0.0
 11
33.3613899004
 21
80.0803675101
 31
0.0
  0
LINE
  5
116
  8
VISIBLE
  6
CONTINUOUS
 62
     7
 10
30.6113899004
 20
85.6625177768
 30
0.0
 11
33.3613899004
 21
85.6625177768
 31
0.0
  0
LINE
  5
117
  8
VISIBLE
  6
CONTINUOUS
 62
     7
 10
30.4238254657
 20
85.6625177768
 30
0.0
 11
30.3613899004
 21
85.4295050749
 31
0.0
  0
LINE
  5
118
  8
VISIBLE
  6
CONTINUOUS
 62
     7
 10
30.3613899004
 20
73.8955304787
 30
0.0
 11
30.4238254657
 21
73.6625177768
 31
0.0
  0
LINE
  5
119
  8
VISIBLE
  6
CONTINUOUS
 62
     7
 10
33.3869092402
 20
87.2067185698
 30
0.0
 11
33.3613899004
 21
87.1625177768
 31
0.0
  0
LINE
  5
11A
  8
VISIBLE
  6
CONTINUOUS
 62
     7
 10
33.3613899004
 20
72.1625177768
 30
0.0
 11
33.5573211633
 21
71.8231548747
 31
0.0
  0
LINE
  5
11B
  8
VISIBLE
  6
CONTINUOUS
 62
     7
 10
33.844800247
 20
87.6625177768
 30
0.0
 11
33.7529795539
 21
87.6625177768
 31
0.0
  0
LINE
  5
11C
  8
VISIBLE
  6
CONTINUOUS
 62
     7
 10
33.7496224648
 20
87.6596321244
 30
0.0
 11
33.5156178198
 21
87.2544803016
 31
0.0
  0
LINE
  5
11D
  8
VISIBLE
  6
CONTINUOUS
 62
     7
 10
33.8905829422
 20
72.0706154998
 30
0.0
 11
34.1113898098
 21
71.6883141085
 31
0.0
  0
POLYLINE
  5
11E
  8
VISIBLE
  6
CONTINUOUS
 62
     7
 66
     1
 10
0.0
 20
0.0
 30
0.0
  0
VERTEX
  5
522
  8
VISIBLE
  6
CONTINUOUS
 62
     7
 10
33.5155873786
 20
87.2544277501
 30
0.0
  0
VERTEX
  5
523
  8
VISIBLE
  6
CONTINUOUS
 62
     7
 10
33.5134656444
 20
87.2515271414
 30
0.0
  0
VERTEX
  5
524
  8
VISIBLE
  6
CONTINUOUS
 62
     7
 10
33.5113798145
 20
87.2487129429
 30
0.0
  0
VERTEX
  5
525
  8
VISIBLE
  6
CONTINUOUS
 62
     7
 10
33.5093155896
 20
87.2459826613
 30
0.0
  0
VERTEX
  5
526
  8
VISIBLE
  6
CONTINUOUS
 62
     7
 10
33.5072586704
 20
87.2433338035
 30
0.0
  0
VERTEX
  5
527
  8
VISIBLE
  6
CONTINUOUS
 62
     7
 10
33.5051947578
 20
87.2407638764
 30
0.0
  0
VERTEX
  5
528
  8
VISIBLE
  6
CONTINUOUS
 62
     7
 10
33.5031095527
 20
87.2382703868
 30
0.0
  0
VERTEX
  5
529
  8
VISIBLE
  6
CONTINUOUS
 62
     7
 10
33.5009887558
 20
87.2358508416
 30
0.0
  0
VERTEX
  5
52A
  8
VISIBLE
  6
CONTINUOUS
 62
     7
 10
33.498818068
 20
87.2335027477
 30
0.0
  0
VERTEX
  5
52B
  8
VISIBLE
  6
CONTINUOUS
 62
     7
 10
33.49658319
 20
87.2312236119
 30
0.0
  0
VERTEX
  5
52C
  8
VISIBLE
  6
CONTINUOUS
 62
     7
 10
33.4942698227
 20
87.2290109411
 30
0.0
  0
VERTEX
  5
52D
  8
VISIBLE
  6
CONTINUOUS
 62
     7
 10
33.4918636669
 20
87.2268622422
 30
0.0
  0
VERTEX
  5
52E
  8
VISIBLE
  6
CONTINUOUS
 62
     7
 10
33.4893504234
 20
87.2247750219
 30
0.0
  0
VERTEX
  5
52F
  8
VISIBLE
  6
CONTINUOUS
 62
     7
 10
33.486715793
 20
87.2227467873
 30
0.0
  0
VERTEX
  5
530
  8
VISIBLE
  6
CONTINUOUS
 62
     7
 10
33.4839454765
 20
87.2207750451
 30
0.0
  0
VERTEX
  5
531
  8
VISIBLE
  6
CONTINUOUS
 62
     7
 10
33.4810251748
 20
87.2188573022
 30
0.0
  0
VERTEX
  5
532
  8
VISIBLE
  6
CONTINUOUS
 62
     7
 10
33.4779442695
 20
87.2169927357
 30
0.0
  0
VERTEX
  5
533
  8
VISIBLE
  6
CONTINUOUS
 62
     7
 10
33.4747119351
 20
87.2151895031
 30
0.0
  0
VERTEX
  5
534
  8
VISIBLE
  6
CONTINUOUS
 62
     7
 10
33.4713439697
 20
87.2134587675
 30
0.0
  0
VERTEX
  5
535
  8
VISIBLE
  6
CONTINUOUS
 62
     7
 10
33.4678561764
 20
87.2118116943
 30
0.0
  0
VERTEX
  5
536
  8
VISIBLE
  6
CONTINUOUS
 62
     7
 10
33.4642643581
 20
87.2102594487
 30
0.0
  0
VERTEX
  5
537
  8
VISIBLE
  6
CONTINUOUS
 62
     7
 10
33.4605843177
 20
87.2088131959
 30
0.0
  0
VERTEX
  5
538
  8
VISIBLE
  6
CONTINUOUS
 62
     7
 10
33.4568318583
 20
87.2074841012
 30
0.0
  0
VERTEX
  5
539
  8
VISIBLE
  6
CONTINUOUS
 62
     7
 10
33.4530227828
 20
87.2062833298
 30
0.0
  0
VERTEX
  5
53A
  8
VISIBLE
  6
CONTINUOUS
 62
     7
 10
33.4491728941
 20
87.205222047
 30
0.0
  0
VERTEX
  5
53B
  8
VISIBLE
  6
CONTINUOUS
 62
     7
 10
33.4452979952
 20
87.204311418
 30
0.0
  0
VERTEX
  5
53C
  8
VISIBLE
  6
CONTINUOUS
 62
     7
 10
33.441413889
 20
87.2035626081
 30
0.0
  0
VERTEX
  5
53D
  8
VISIBLE
  6
CONTINUOUS
 62
     7
 10
33.4375363786
 20
87.2029867825
 30
0.0
  0
VERTEX
  5
53E
  8
VISIBLE
  6
CONTINUOUS
 62
     7
 10
33.4336812669
 20
87.2025951065
 30
0.0
  0
VERTEX
  5
53F
  8
VISIBLE
  6
CONTINUOUS
 62
     7
 10
33.4298643568
 20
87.2023987454
 30
0.0
  0
VERTEX
  5
540
  8
VISIBLE
  6
CONTINUOUS
 62
     7
 10
33.4261014513
 20
87.2024088643
 30
0.0
  0
VERTEX
  5
541
  8
VISIBLE
  6
CONTINUOUS
 62
     7
 10
33.422407917
 20
87.2026363119
 30
0.0
  0
VERTEX
  5
542
  8
VISIBLE
  6
CONTINUOUS
 62
     7
 10
33.4187825145
 20
87.2030798896
 30
0.0
  0
VERTEX
  5
543
  8
VISIBLE
  6
CONTINUOUS
 62
     7
 10
33.4152026405
 20
87.2037228992
 30
0.0
  0
VERTEX
  5
544
  8
VISIBLE
  6
CONTINUOUS
 62
     7
 10
33.4116442843
 20
87.2045476217
 30
0.0
  0
VERTEX
  5
545
  8
VISIBLE
  6
CONTINUOUS
 62
     7
 10
33.4080834353
 20
87.205536338
 30
0.0
  0
VERTEX
  5
546
  8
VISIBLE
  6
CONTINUOUS
 62
     7
 10
33.4044960828
 20
87.206671329
 30
0.0
  0
VERTEX
  5
547
  8
VISIBLE
  6
CONTINUOUS
 62
     7
 10
33.4008582163
 20
87.2079348758
 30
0.0
  0
VERTEX
  5
548
  8
VISIBLE
  6
CONTINUOUS
 62
     7
 10
33.3971458249
 20
87.2093092593
 30
0.0
  0
VERTEX
  5
549
  8
VISIBLE
  6
CONTINUOUS
 62
     7
 10
33.3933348983
 20
87.2107767605
 30
0.0
  0
VERTEX
  5
54A
  8
VISIBLE
  6
CONTINUOUS
 62
     7
 10
33.3894014256
 20
87.2123196603
 30
0.0
  0
SEQEND
  5
54B
  8
VISIBLE
  6
CONTINUOUS
 62
     7
  0
ARC
  5
11F
  8
VISIBLE
  6
CONTINUOUS
 62
     7
 10
34.1738898509
 20
87.3092784084
 30
0.0
 40
0.1068501540875331
 50
210.8771211223
 51
232.39609006
  0
ARC
  5
120
  8
VISIBLE
  6
CONTINUOUS
 62
     7
 10
33.7988898679
 20
72.0157555973
 30
0.0
 40
0.1068511750030504
 50
30.8833795523
 51
149.1146719145
  0
LINE
  5
121
  8
VISIBLE
  6
CONTINUOUS
 62
     7
 10
34.0821872689
 20
87.2544366781
 30
0.0
 11
33.8481789351
 21
87.6595948662
 31
0.0
  0
LINE
  5
122
  8
VISIBLE
  6
CONTINUOUS
 62
     7
 10
33.5617230157
 20
71.8187459868
 30
0.0
 11
33.7071840182
 21
72.0705932503
 31
0.0
  0
LINE
  5
123
  8
VISIBLE
  6
CONTINUOUS
 62
     7
 10
36.3382958896
 20
87.2025177768
 30
0.0
 11
35.9612037852
 21
87.2025177768
 31
0.0
  0
LINE
  5
126
  8
STANDARD
  6
CENTER2
 62
     7
 10
74.3613898725
 20
79.6625177768
 30
0.0
 11
71.8613899284
 21
79.6625177768
 31
0.0
  0
LINE
  5
127
  8
STANDARD
  6
CENTER2
 62
     7
 10
73.1113899004
 20
80.9125177488
 30
0.0
 11
73.1113899004
 21
78.4125178047
 31
0.0
  0
LINE
  5
128
  8
STANDARD
  6
CENTER2
 62
     7
 10
74.9863898585
 20
79.6625177768
 30
0.0
 11
76.4863899004
 21
79.6625177768
 31
0.0
  0
LINE
  5
129
  8
STANDARD
  6
CENTER2
 62
     7
 10
73.1113899004
 20
81.5375177349
 30
0.0
 11
73.1113899004
 21
83.0375177768
 31
0.0
  0
LINE
  5
12A
  8
STANDARD
  6
CENTER2
 62
     7
 10
71.2363899423
 20
79.6625177768
 30
0.0
 11
69.7363899004
 21
79.6625177768
 31
0.0
  0
LINE
  5
12B
  8
STANDARD
  6
CENTER2
 62
     7
 10
73.1113899004
 20
77.7875178187
 30
0.0
 11
73.1113899004
 21
76.2875177768
 31
0.0
  0
LINE
  5
12C
  8
STANDARD
  6
CENTER2
 62
     7
 10
33.7363899004
 20
79.6625177768
 30
0.0
 11
93.1269135791
 21
79.6625177768
 31
0.0
  0
LINE
  5
12D
  8
STANDARD
  6
CENTER2
 62
     7
 10
81.1113899004
 20
88.7713204219
 30
0.0
 11
81.1113899004
 21
92.2467023495
 31
0.0
  0
LINE
  5
12E
  8
STANDARD
  6
CENTER2
 62
     7
 10
81.1113899004
 20
67.0779014148
 30
0.0
 11
81.1113899004
 21
70.5537151317
 31
0.0
  0
ENDBLK
  5
130
  8
0
  0
BLOCK
  8
0
  2
SE1
 70
     0
 10
0.0
 20
0.0
 30
0.0
  3
SE1
  1

  0
ARC
  5
133
  8
VISIBLE
  6
CONTINUOUS
 62
     7
 10
135.7852849113
 20
79.6625177768
 30
0.0
 40
15.74999999999999
 50
284.7124579609
 51
309.4140983562
  0
LINE
  5
134
  8
VISIBLE
  6
CONTINUOUS
 62
     7
 10
139.7852849113
 20
64.4289200402
 30
0.0
 11
139.7852849113
 21
66.4125177768
 31
0.0
  0
LINE
  5
135
  8
VISIBLE
  6
CONTINUOUS
 62
     7
 10
131.7852849113
 20
64.4289200402
 30
0.0
 11
131.7852849113
 21
66.4125177768
 31
0.0
  0
ARC
  5
136
  8
VISIBLE
  6
CONTINUOUS
 62
     7
 10
135.7852849113
 20
79.6625177768
 30
0.0
 40
15.75000000000004
 50
255.2875420391
 51
284.7124579609
  0
LINE
  5
137
  8
VISIBLE
  6
CONTINUOUS
 62
     7
 10
131.7852849113
 20
66.4125177768
 30
0.0
 11
139.7852849113
 21
66.4125177768
 31
0.0
  0
ARC
  5
138
  8
VISIBLE
  6
CONTINUOUS
 62
     7
 10
135.7852849113
 20
79.6625177768
 30
0.0
 40
15.75
 50
106.601549599
 51
255.2875420391
  0
LINE
  5
139
  8
VISIBLE
  6
CONTINUOUS
 62
     7
 10
140.2852849113
 20
94.7559766249
 30
0.0
 11
140.2852849113
 21
92.9125177768
 31
0.0
  0
LINE
  5
13A
  8
VISIBLE
  6
CONTINUOUS
 62
     7
 10
131.2852849113
 20
94.7559766249
 30
0.0
 11
131.2852849113
 21
92.9125177768
 31
0.0
  0
ARC
  5
13B
  8
VISIBLE
  6
CONTINUOUS
 62
     7
 10
135.7852849113
 20
79.6625177768
 30
0.0
 40
15.75
 50
73.398450401
 51
106.601549599
  0
LINE
  5
13C
  8
VISIBLE
  6
CONTINUOUS
 62
     7
 10
131.2852849113
 20
92.9125177768
 30
0.0
 11
140.2852849113
 21
92.9125177768
 31
0.0
  0
ARC
  5
13D
  8
VISIBLE
  6
CONTINUOUS
 62
     7
 10
135.7852849113
 20
79.6625177768
 30
0.0
 40
15.75
 50
320.5859016438
 51
73.398450401
  0
ARC
  5
13E
  8
VISIBLE
  6
CONTINUOUS
 62
     7
 10
135.7852849113
 20
79.6625177768
 30
0.0
 40
15.75000000000015
 50
309.4140983562
 51
320.5859016438
  0
LINE
  5
13F
  8
VISIBLE
  6
CONTINUOUS
 62
     7
 10
145.7852849113
 20
67.4944242531
 30
0.0
 11
145.7852849113
 21
69.6625177768
 31
0.0
  0
LINE
  5
140
  8
VISIBLE
  6
CONTINUOUS
 62
     7
 10
145.7852849113
 20
69.6625177768
 30
0.0
 11
147.9533784349
 21
69.6625177768
 31
0.0
  0
LINE
  5
141
  8
0
  6
HIDDEN2
 62
     7
 10
122.3352849113
 20
77.1625177768
 30
0.0
 11
122.3352849113
 21
82.1625177768
 31
0.0
  0
CIRCLE
  5
142
  8
0
  6
CONTINUOUS
 62
     7
 10
135.7852849113
 20
79.6625177768
 30
0.0
 40
3.0
  0
CIRCLE
  5
143
  8
VISIBLE
  6
CONTINUOUS
 62
     7
 10
135.7852849113
 20
79.6625177768
 30
0.0
 40
12.5
  0
LINE
  5
144
  8
0
  6
HIDDEN2
 62
     7
 10
122.3352849113
 20
82.1625177768
 30
0.0
 11
120.2349633712
 21
82.1625177768
 31
0.0
  0
LINE
  5
145
  8
0
  6
HIDDEN2
 62
     7
 10
120.2337283326
 20
77.1625177768
 30
0.0
 11
122.3352849113
 21
77.1625177768
 31
0.0
  0
CIRCLE
  5
146
  8
0
  6
CONTINUOUS
 62
     7
 10
135.7852849113
 20
79.6625177768
 30
0.0
 40
1.5
  0
CIRCLE
  5
147
  8
VISIBLE
  6
CONTINUOUS
 62
     7
 10
135.7852849113
 20
79.6625177768
 30
0.0
 40
3.933012701892217
  0
ARC
  5
148
  8
VISIBLE
  6
CONTINUOUS
 62
     7
 10
135.7852849113
 20
79.6625177768
 30
0.0
 40
6.700000000000003
 50
56.4243920788
 51
63.5756079212
  0
CIRCLE
  5
149
  8
VISIBLE
  6
CONTINUOUS
 62
     7
 10
135.7852849113
 20
79.6625177768
 30
0.0
 40
7.5
  0
ARC
  5
14A
  8
VISIBLE
  6
CONTINUOUS
 62
     7
 10
135.7852849113
 20
79.6625177768
 30
0.0
 40
6.700000000000002
 50
116.4243920788
 51
123.5756079212
  0
ARC
  5
14B
  8
VISIBLE
  6
CONTINUOUS
 62
     7
 10
135.7852849113
 20
79.6625177768
 30
0.0
 40
6.7
 50
176.4243920788
 51
183.5756079212
  0
ARC
  5
14C
  8
VISIBLE
  6
CONTINUOUS
 62
     7
 10
135.7852849113
 20
79.6625177768
 30
0.0
 40
6.7
 50
236.4243920788
 51
243.5756079212
  0
ARC
  5
14D
  8
VISIBLE
  6
CONTINUOUS
 62
     7
 10
135.7852849113
 20
79.6625177768
 30
0.0
 40
6.7
 50
296.4243920788
 51
303.5756079212
  0
ARC
  5
14E
  8
VISIBLE
  6
CONTINUOUS
 62
     7
 10
135.7852849113
 20
79.6625177768
 30
0.0
 40
6.7
 50
356.4243920788
 51
3.5756079212
  0
LINE
  5
14F
  8
VISIBLE
  6
CONTINUOUS
 62
     7
 10
132.0799376402
 20
74.0803675101
 30
0.0
 11
129.098327337
 21
79.2446680435
 31
0.0
  0
LINE
  5
150
  8
VISIBLE
  6
CONTINUOUS
 62
     7
 10
129.098327337
 20
80.0803675101
 30
0.0
 11
132.0799376402
 21
85.2446680435
 31
0.0
  0
LINE
  5
151
  8
VISIBLE
  6
CONTINUOUS
 62
     7
 10
132.8036746081
 20
85.6625177768
 30
0.0
 11
138.7668952145
 21
85.6625177768
 31
0.0
  0
LINE
  5
152
  8
VISIBLE
  6
CONTINUOUS
 62
     7
 10
139.4906321824
 20
85.2446680435
 30
0.0
 11
142.4722424856
 21
80.0803675101
 31
0.0
  0
LINE
  5
153
  8
VISIBLE
  6
CONTINUOUS
 62
     7
 10
142.4722424856
 20
79.2446680435
 30
0.0
 11
139.4906321824
 21
74.0803675101
 31
0.0
  0
LINE
  5
154
  8
VISIBLE
  6
CONTINUOUS
 62
     7
 10
138.7668952145
 20
73.6625177768
 30
0.0
 11
132.8036746081
 21
73.6625177768
 31
0.0
  0
LINE
  5
155
  8
VISIBLE
  6
CONTINUOUS
 62
     7
 10
136.6327243672
 20
75.4737848513
 30
0.0
 11
136.6544302266
 21
75.3251235887
 31
0.0
  0
LINE
  5
156
  8
STANDARD
  6
CENTER2
 62
     7
 10
137.0352848834
 20
79.6625177768
 30
0.0
 11
134.5352849393
 21
79.6625177768
 31
0.0
  0
LINE
  5
157
  8
STANDARD
  6
CENTER2
 62
     7
 10
135.7852849113
 20
80.9125177488
 30
0.0
 11
135.7852849113
 21
78.4125178047
 31
0.0
  0
LINE
  5
158
  8
STANDARD
  6
CENTER2
 62
     7
 10
137.6602848694
 20
79.6625177768
 30
0.0
 11
152.4102849113
 21
79.6625177768
 31
0.0
  0
LINE
  5
159
  8
STANDARD
  6
CENTER2
 62
     7
 10
135.7852849113
 20
81.5375177349
 30
0.0
 11
135.7852849113
 21
96.2875177768
 31
0.0
  0
LINE
  5
15A
  8
STANDARD
  6
CENTER2
 62
     7
 10
133.9102849532
 20
79.6625177768
 30
0.0
 11
119.1602849113
 21
79.6625177768
 31
0.0
  0
LINE
  5
15B
  8
STANDARD
  6
CENTER2
 62
     7
 10
135.7852849113
 20
77.7875178187
 30
0.0
 11
135.7852849113
 21
63.0375177768
 31
0.0
  0
ENDBLK
  5
15D
  8
0
  0
BLOCK
  8
0
  2
GDIMGGROUP
 70
     0
 10
0.0
 20
0.0
 30
0.0
  3
GDIMGGROUP
  1

  0
POLYLINE
  5
160
  8
DEFAULT
  6
CONTINUOUS
 62
     7
 66
     1
 10
0.0
 20
0.0
 30
0.0
  0
VERTEX
  5
54D
  8
DEFAULT
  6
CONTINUOUS
 62
     7
 10
24.0959036222
 20
89.6625178327
 30
0.0
  0
VERTEX
  5
54E
  8
DEFAULT
  6
CONTINUOUS
 62
     7
 10
24.9292369369
 20
89.6625178327
 30
0.0
  0
VERTEX
  5
54F
  8
DEFAULT
  6
CONTINUOUS
 62
     7
 10
24.5125702795
 20
92.1625177768
 30
0.0
  0
VERTEX
  5
550
  8
DEFAULT
  6
CONTINUOUS
 62
     7
 10
24.0959036222
 20
89.6625178327
 30
0.0
  0
SEQEND
  5
54C
  8
DEFAULT
  6
CONTINUOUS
 62
     7
  0
POLYLINE
  5
161
  8
DEFAULT
  6
CONTINUOUS
 62
     7
 66
     1
 10
0.0
 20
0.0
 30
0.0
  0
VERTEX
  5
552
  8
DEFAULT
  6
CONTINUOUS
 62
     7
 10
24.0959036222
 20
69.6625173484
 30
0.0
  0
VERTEX
  5
553
  8
DEFAULT
  6
CONTINUOUS
 62
     7
 10
24.9292369369
 20
69.6625173484
 30
0.0
  0
VERTEX
  5
554
  8
DEFAULT
  6
CONTINUOUS
 62
     7
 10
24.5125702795
 20
67.1625174043
 30
0.0
  0
VERTEX
  5
555
  8
DEFAULT
  6
CONTINUOUS
 62
     7
 10
24.0959036222
 20
69.6625173484
 30
0.0
  0
SEQEND
  5
551
  8
DEFAULT
  6
CONTINUOUS
 62
     7
  0
LINE
  5
162
  8
DEFAULT
  6
CONTINUOUS
 62
     7
 10
34.6113899004
 20
92.1625177768
 30
0.0
 11
23.2625703074
 21
92.1625177768
 31
0.0
  0
LINE
  5
163
  8
DEFAULT
  6
CONTINUOUS
 62
     7
 10
34.6113899004
 20
67.1625177768
 30
0.0
 11
23.2625703074
 21
67.1625177768
 31
0.0
  0
LINE
  5
164
  8
DEFAULT
  6
CONTINUOUS
 62
     7
 10
24.5125702795
 20
92.1625177768
 30
0.0
 11
24.5125702795
 21
67.1625174043
 31
0.0
  0
TEXT
  5
165
  8
DEFAULT
  6
CONTINUOUS
 62
     7
 10
23.8875702795
 20
80.0064344479
 30
0.0
 40
2.5
  1
50
 50
90.0
  7
SEACAD_ARIAL_TTF
 11
21.3875702795
 21
80.0064344479
 31
0.0
 73
     3
  0
TEXT
  5
167
  8
DEFAULT
  6
CONTINUOUS
 62
     7
 10
23.8875702795
 20
75.4055572549
 30
0.0
 40
2.5
  1
O
 50
90.0
  7
SEACAD_SEMECA1_TTF
 11
21.3875702795
 21
75.4055572549
 31
0.0
 73
     3
  0
ENDBLK
  5
169
  8
0
  0
BLOCK
  8
0
  2
GDIMGGROUP1
 70
     0
 10
0.0
 20
0.0
 30
0.0
  3
GDIMGGROUP1
  1

  0
POLYLINE
  5
16C
  8
DEFAULT
  6
CONTINUOUS
 62
     7
 66
     1
 10
0.0
 20
0.0
 30
0.0
  0
VERTEX
  5
557
  8
DEFAULT
  6
CONTINUOUS
 62
     7
 10
36.6113898445
 20
55.7050973525
 30
0.0
  0
VERTEX
  5
558
  8
DEFAULT
  6
CONTINUOUS
 62
     7
 10
36.6113898445
 20
56.5384306672
 30
0.0
  0
VERTEX
  5
559
  8
DEFAULT
  6
CONTINUOUS
 62
     7
 10
34.1113899004
 20
56.1217640099
 30
0.0
  0
VERTEX
  5
55A
  8
DEFAULT
  6
CONTINUOUS
 62
     7
 10
36.6113898445
 20
55.7050973525
 30
0.0
  0
SEQEND
  5
556
  8
DEFAULT
  6
CONTINUOUS
 62
     7
  0
POLYLINE
  5
16D
  8
DEFAULT
  6
CONTINUOUS
 62
     7
 66
     1
 10
0.0
 20
0.0
 30
0.0
  0
VERTEX
  5
55C
  8
DEFAULT
  6
CONTINUOUS
 62
     7
 10
74.1113904033
 20
55.7050973525
 30
0.0
  0
VERTEX
  5
55D
  8
DEFAULT
  6
CONTINUOUS
 62
     7
 10
74.1113904033
 20
56.5384306672
 30
0.0
  0
VERTEX
  5
55E
  8
DEFAULT
  6
CONTINUOUS
 62
     7
 10
76.6113903474
 20
56.1217640099
 30
0.0
  0
VERTEX
  5
55F
  8
DEFAULT
  6
CONTINUOUS
 62
     7
 10
74.1113904033
 20
55.7050973525
 30
0.0
  0
SEQEND
  5
55B
  8
DEFAULT
  6
CONTINUOUS
 62
     7
  0
LINE
  5
16E
  8
DEFAULT
  6
CONTINUOUS
 62
     7
 10
34.1113899004
 20
67.6625177768
 30
0.0
 11
34.1113899004
 21
54.8717640378
 31
0.0
  0
LINE
  5
16F
  8
DEFAULT
  6
CONTINUOUS
 62
     7
 10
76.6113899004
 20
63.9125177768
 30
0.0
 11
76.6113899004
 21
54.8717640378
 31
0.0
  0
LINE
  5
170
  8
DEFAULT
  6
CONTINUOUS
 62
     7
 10
34.1113899004
 20
56.1217640099
 30
0.0
 11
76.6113903474
 21
56.1217640099
 31
0.0
  0
TEXT
  5
171
  8
DEFAULT
  6
CONTINUOUS
 62
     7
 10
53.4048683848
 20
56.7467640099
 30
0.0
 40
2.5
  1
85
  7
SEACAD_ARIAL_TTF
 11
53.4048683848
 21
59.2467640099
 31
0.0
 73
     3
  0
ENDBLK
  5
173
  8
0
  0
BLOCK
  8
0
  2
GDIMGGROUP2
 70
     0
 10
0.0
 20
0.0
 30
0.0
  3
GDIMGGROUP2
  1

  0
POLYLINE
  5
176
  8
DEFAULT
  6
CONTINUOUS
 62
     7
 66
     1
 10
0.0
 20
0.0
 30
0.0
  0
VERTEX
  5
561
  8
DEFAULT
  6
CONTINUOUS
 62
     7
 10
74.1113899563
 20
48.2050972035
 30
0.0
  0
VERTEX
  5
562
  8
DEFAULT
  6
CONTINUOUS
 62
     7
 10
74.1113899563
 20
49.0384305182
 30
0.0
  0
VERTEX
  5
563
  8
DEFAULT
  6
CONTINUOUS
 62
     7
 10
76.6113899004
 20
48.6217638609
 30
0.0
  0
VERTEX
  5
564
  8
DEFAULT
  6
CONTINUOUS
 62
     7
 10
74.1113899563
 20
48.2050972035
 30
0.0
  0
SEQEND
  5
560
  8
DEFAULT
  6
CONTINUOUS
 62
     7
  0
POLYLINE
  5
177
  8
DEFAULT
  6
CONTINUOUS
 62
     7
 66
     1
 10
0.0
 20
0.0
 30
0.0
  0
VERTEX
  5
566
  8
DEFAULT
  6
CONTINUOUS
 62
     7
 10
32.8613892485
 20
48.2050972035
 30
0.0
  0
VERTEX
  5
567
  8
DEFAULT
  6
CONTINUOUS
 62
     7
 10
32.8613892485
 20
49.0384305182
 30
0.0
  0
VERTEX
  5
568
  8
DEFAULT
  6
CONTINUOUS
 62
     7
 10
30.3613893044
 20
48.6217638609
 30
0.0
  0
VERTEX
  5
569
  8
DEFAULT
  6
CONTINUOUS
 62
     7
 10
32.8613892485
 20
48.2050972035
 30
0.0
  0
SEQEND
  5
565
  8
DEFAULT
  6
CONTINUOUS
 62
     7
  0
LINE
  5
178
  8
DEFAULT
  6
CONTINUOUS
 62
     7
 10
76.6113899004
 20
63.9125177768
 30
0.0
 11
76.6113899004
 21
47.3717638888
 31
0.0
  0
LINE
  5
179
  8
DEFAULT
  6
CONTINUOUS
 62
     7
 10
30.3613899004
 20
73.8955304787
 30
0.0
 11
30.3613899004
 21
47.3717638888
 31
0.0
  0
LINE
  5
17A
  8
DEFAULT
  6
CONTINUOUS
 62
     7
 10
76.6113899004
 20
48.6217638609
 30
0.0
 11
30.3613893044
 21
48.6217638609
 31
0.0
  0
TEXT
  5
17B
  8
DEFAULT
  6
CONTINUOUS
 62
     7
 10
50.0624765589
 20
49.2467638609
 30
0.0
 40
2.5
  1
92,5
  7
SEACAD_ARIAL_TTF
 11
50.0624765589
 21
51.7467638609
 31
0.0
 73
     3
  0
ENDBLK
  5
17D
  8
0
  0
ENDSEC
  0
SECTION
  2
ENTITIES
  0
TEXT
  5
5E
  8
DEFAULT
  6
CONTINUOUS
 62
     7
 10
84.6202653222
 20
104.7515569219
 30
0.0
 40
2.5
  1
HSK63 DIN69893A
  7
SEACAD_ARIAL_TTF
 11
84.6202653222
 21
107.2515569219
 31
0.0
 73
     3
  0
INSERT
  5
61
  8
DEFAULT
  2
SEANNOT_GROUP
 10
0.0
 20
0.0
 30
0.0
  0
INSERT
  5
68
  8
DEFAULT
  2
SE
 10
0.0
 20
0.0
 30
0.0
  0
INSERT
  5
132
  8
DEFAULT
  2
SE1
 10
0.0
 20
0.0
 30
0.0
  0
INSERT
  5
15F
  8
DEFAULT
  2
GDIMGGROUP
 10
0.0
 20
0.0
 30
0.0
  0
INSERT
  5
16B
  8
DEFAULT
  2
GDIMGGROUP1
 10
0.0
 20
0.0
 30
0.0
  0
INSERT
  5
175
  8
DEFAULT
  2
GDIMGGROUP2
 10
0.0
 20
0.0
 30
0.0
  0
ENDSEC
  0
EOF
