  0
SECTION
  2
HEADER
  9
$ACADVER
  1
AC1009
  9
$DWGCODEPAGE
  3
ansi_1252
  9
$INSBASE
 10
0.0
 20
0.0
 30
0.0
  9
$EXTMIN
 10
0.0
 20
0.0
 30
0.0
  9
$EXTMAX
 10
180.0
 20
160.0
 30
0.0
  9
$LIMMIN
 10
0.0
 20
0.0
  9
$LIMMAX
 10
180.0
 20
160.0
  9
$ORTHOMODE
 70
     0
  9
$REGENMODE
 70
     1
  9
$FILLMODE
 70
     1
  9
$QTEXTMODE
 70
     0
  9
$MIRRTEXT
 70
     1
  9
$DRAGMODE
 70
     2
  9
$LTSCALE
 40
1.0
  9
$OSMODE
 70
    37
  9
$ATTMODE
 70
     1
  9
$TEXTSIZE
 40
2.5
  9
$TRACEWID
 40
1.0
  9
$TEXTSTYLE
  7
STANDARD
  9
$CLAYER
  8
0
  9
$CELTYPE
  6
BYLAYER
  9
$CECOLOR
 62
   256
  9
$DIMSCALE
 40
1.0
  9
$DIMASZ
 40
2.5
  9
$DIMEXO
 40
0.625
  9
$DIMDLI
 40
3.75
  9
$DIMRND
 40
0.0
  9
$DIMDLE
 40
0.0
  9
$DIMEXE
 40
1.25
  9
$DIMTP
 40
0.0
  9
$DIMTM
 40
0.0
  9
$DIMTXT
 40
2.5
  9
$DIMCEN
 40
2.5
  9
$DIMTSZ
 40
0.0
  9
$DIMTOL
 70
     0
  9
$DIMLIM
 70
     0
  9
$DIMTIH
 70
     0
  9
$DIMTOH
 70
     0
  9
$DIMSE1
 70
     0
  9
$DIMSE2
 70
     0
  9
$DIMTAD
 70
     1
  9
$DIMZIN
 70
     8
  9
$DIMBLK
  1

  9
$DIMASO
 70
     1
  9
$DIMSHO
 70
     1
  9
$DIMPOST
  1

  9
$DIMAPOST
  1

  9
$DIMALT
 70
     0
  9
$DIMALTD
 70
     3
  9
$DIMALTF
 40
0.0393700787
  9
$DIMLFAC
 40
1.0
  9
$DIMTOFL
 70
     1
  9
$DIMTVP
 40
0.0
  9
$DIMTIX
 70
     0
  9
$DIMSOXD
 70
     0
  9
$DIMSAH
 70
     0
  9
$DIMBLK1
  1

  9
$DIMBLK2
  1

  9
$DIMSTYLE
  2
ISO-25
  9
$DIMCLRD
 70
     0
  9
$DIMCLRE
 70
     0
  9
$DIMCLRT
 70
     0
  9
$DIMTFAC
 40
1.0
  9
$DIMGAP
 40
0.625
  9
$LUNITS
 70
     2
  9
$LUPREC
 70
     4
  9
$SKETCHINC
 40
1.0
  9
$FILLETRAD
 40
10.0
  9
$AUNITS
 70
     0
  9
$AUPREC
 70
     0
  9
$MENU
  1
.
  9
$ELEVATION
 40
0.0
  9
$PELEVATION
 40
0.0
  9
$THICKNESS
 40
0.0
  9
$LIMCHECK
 70
     0
  9
$CHAMFERA
 40
10.0
  9
$CHAMFERB
 40
10.0
  9
$SKPOLY
 70
     0
  9
$TDCREATE
 40
2456136.334509861
  9
$TDUPDATE
 40
2456136.334509873
  9
$TDINDWG
 40
0.0000000116
  9
$TDUSRTIMER
 40
0.0000000116
  9
$USRTIMER
 70
     1
  9
$ANGBASE
 50
0.0
  9
$ANGDIR
 70
     0
  9
$PDMODE
 70
     0
  9
$PDSIZE
 40
0.0
  9
$PLINEWID
 40
0.0
  9
$COORDS
 70
     1
  9
$SPLFRAME
 70
     0
  9
$SPLINETYPE
 70
     6
  9
$SPLINESEGS
 70
     8
  9
$ATTDIA
 70
     0
  9
$ATTREQ
 70
     1
  9
$HANDLING
 70
     1
  9
$HANDSEED
  5
2CE
  9
$SURFTAB1
 70
     6
  9
$SURFTAB2
 70
     6
  9
$SURFTYPE
 70
     6
  9
$SURFU
 70
     6
  9
$SURFV
 70
     6
  9
$UCSNAME
  2

  9
$UCSORG
 10
0.0
 20
0.0
 30
0.0
  9
$UCSXDIR
 10
1.0
 20
0.0
 30
0.0
  9
$UCSYDIR
 10
0.0
 20
1.0
 30
0.0
  9
$PUCSNAME
  2

  9
$PUCSORG
 10
0.0
 20
0.0
 30
0.0
  9
$PUCSXDIR
 10
1.0
 20
0.0
 30
0.0
  9
$PUCSYDIR
 10
0.0
 20
1.0
 30
0.0
  9
$USERI1
 70
     0
  9
$USERI2
 70
     0
  9
$USERI3
 70
     0
  9
$USERI4
 70
     0
  9
$USERI5
 70
     0
  9
$USERR1
 40
0.0
  9
$USERR2
 40
0.0
  9
$USERR3
 40
0.0
  9
$USERR4
 40
0.0
  9
$USERR5
 40
0.0
  9
$WORLDVIEW
 70
     1
  9
$SHADEDGE
 70
     3
  9
$SHADEDIF
 70
    70
  9
$TILEMODE
 70
     1
  9
$MAXACTVP
 70
    64
  9
$PLIMCHECK
 70
     0
  9
$PEXTMIN
 10
0.0
 20
0.0
 30
0.0
  9
$PEXTMAX
 10
180.0
 20
160.0
 30
0.0
  9
$PLIMMIN
 10
0.0
 20
0.0
  9
$PLIMMAX
 10
180.0
 20
160.0
  9
$UNITMODE
 70
     0
  9
$VISRETAIN
 70
     1
  9
$PLINEGEN
 70
     0
  9
$PSLTSCALE
 70
     1
  0
ENDSEC
  0
SECTION
  2
TABLES
  0
TABLE
  2
VPORT
 70
     1
  0
VPORT
  2
*ACTIVE
 70
     0
 10
0.0
 20
0.0
 11
1.0
 21
1.0
 12
344.1869158879
 22
148.5
 13
0.0
 23
0.0
 14
10.0
 24
10.0
 15
10.0
 25
10.0
 16
0.0
 26
0.0
 36
1.0
 17
0.0
 27
0.0
 37
0.0
 40
297.0
 41
1.9729729729
 42
50.0
 43
0.0
 44
0.0
 50
0.0
 51
0.0
 71
     0
 72
   100
 73
     1
 74
     3
 75
     0
 76
     0
 77
     0
 78
     0
  0
ENDTAB
  0
TABLE
  2
LTYPE
 70
     3
  0
LTYPE
  2
CONTINUOUS
 70
     0
  3
Solid line
 72
    65
 73
     0
 40
0.0
  0
LTYPE
  2
HIDDEN2
 70
     0
  3
Hidden (.5x) _ _ _ _ _ _ _ _ _ _ _ _ _ _ _ _ _ 
 72
    65
 73
     2
 40
4.7625
 49
3.175
 49
-1.5875
  0
LTYPE
  2
DASHDOT2
 70
     0
  3
Dash dot (.5x) _._._._._._._._._._._._._._._.
 72
    65
 73
     4
 40
12.7
 49
6.35
 49
-3.175
 49
0.0
 49
-3.175
  0
ENDTAB
  0
TABLE
  2
LAYER
 70
     6
  0
LAYER
  2
0
 70
     0
 62
     7
  6
CONTINUOUS
  0
LAYER
  2
DEFAULT
 70
     0
 62
     7
  6
CONTINUOUS
  0
LAYER
  2
VISIBLE
 70
     0
 62
     7
  6
CONTINUOUS
  0
LAYER
  2
HIDDEN
 70
     0
 62
     7
  6
CONTINUOUS
  0
LAYER
  2
STANDARD
 70
     0
 62
     7
  6
CONTINUOUS
  0
LAYER
  2
TANGENTE
 70
     0
 62
     7
  6
CONTINUOUS
  0
ENDTAB
  0
TABLE
  2
STYLE
 70
     3
  0
STYLE
  2
STANDARD
 70
     0
 40
0.0
 41
1.0
 50
0.0
 71
     0
 42
2.5
  3
txt
  4

  0
STYLE
  2
SEACAD_ARIAL_TTF
 70
     0
 40
0.0
 41
1.0
 50
0.0
 71
     0
 42
0.2
  3
arial.ttf
  4

  0
STYLE
  2
SEACAD_SEMECA1_TTF
 70
     0
 40
0.0
 41
1.0
 50
0.0
 71
     0
 42
0.2
  3
semeca1.ttf
  4

  0
ENDTAB
  0
TABLE
  2
VIEW
 70
     0
  0
ENDTAB
  0
TABLE
  2
UCS
 70
     0
  0
ENDTAB
  0
TABLE
  2
APPID
 70
     1
  0
APPID
  2
ACAD
 70
     0
  0
ENDTAB
  0
TABLE
  2
DIMSTYLE
 70
     1
  0
DIMSTYLE
  2
ISO-25
 70
     0
  3

  4

  5

  6

  7

 40
1.0
 41
2.5
 42
0.625
 43
3.75
 44
1.25
 45
0.0
 46
0.0
 47
0.0
 48
0.0
140
2.5
141
2.5
142
0.0
143
0.0393700787
144
1.0
145
0.0
146
1.0
147
0.625
 71
     0
 72
     0
 73
     0
 74
     0
 75
     0
 76
     0
 77
     1
 78
     8
170
     0
171
     3
172
     1
173
     0
174
     0
175
     0
176
     0
177
     0
178
     0
  0
ENDTAB
  0
ENDSEC
  0
SECTION
  2
BLOCKS
  0
BLOCK
  8
0
  2
$MODEL_SPACE
 70
     0
 10
0.0
 20
0.0
 30
0.0
  3
$MODEL_SPACE
  1

  0
ENDBLK
  5
21
  8
0
  0
BLOCK
 67
     1
  8
0
  2
$PAPER_SPACE
 70
     0
 10
0.0
 20
0.0
 30
0.0
  3
$PAPER_SPACE
  1

  0
ENDBLK
  5
1D
 67
     1
  8
0
  0
BLOCK
  8
0
  2
SEANNOT_GROUP
 70
     0
 10
0.0
 20
0.0
 30
0.0
  3
SEANNOT_GROUP
  1

  0
POLYLINE
  5
60
  8
DEFAULT
  6
CONTINUOUS
 62
     7
 66
     1
 10
0.0
 20
0.0
 30
0.0
  0
VERTEX
  5
147
  8
DEFAULT
  6
CONTINUOUS
 62
     7
 10
69.9279386057
 20
96.5635258361
 30
0.0
  0
VERTEX
  5
148
  8
DEFAULT
  6
CONTINUOUS
 62
     7
 10
65.4384899904
 20
88.9526622425
 30
0.0
  0
SEQEND
  5
146
  8
DEFAULT
  6
CONTINUOUS
 62
     7
  0
POLYLINE
  5
61
  8
DEFAULT
  6
CONTINUOUS
 62
     7
 66
     1
 10
0.0
 20
0.0
 30
0.0
  0
VERTEX
  5
14A
  8
DEFAULT
  6
CONTINUOUS
 62
     7
 10
66.3497784365
 20
91.3176493866
 30
0.0
  0
VERTEX
  5
14B
  8
DEFAULT
  6
CONTINUOUS
 62
     7
 10
67.0675424592
 20
90.8942592341
 30
0.0
  0
VERTEX
  5
14C
  8
DEFAULT
  6
CONTINUOUS
 62
     7
 10
65.4384899904
 20
88.9526622425
 30
0.0
  0
VERTEX
  5
14D
  8
DEFAULT
  6
CONTINUOUS
 62
     7
 10
66.3497784365
 20
91.3176493866
 30
0.0
  0
SEQEND
  5
149
  8
DEFAULT
  6
CONTINUOUS
 62
     7
  0
LINE
  5
62
  8
DEFAULT
  6
CONTINUOUS
 62
     7
 10
69.9279386057
 20
96.5635258361
 30
0.0
 11
97.590982084
 21
96.5635258361
 31
0.0
  0
TEXT
  5
64
  8
DEFAULT
  6
CONTINUOUS
 62
     7
 10
69.9279386057
 20
97.1885258361
 30
0.0
 40
2.5
  1
SK40 DIN69871A
  7
SEACAD_ARIAL_TTF
 11
69.9279386057
 21
99.6885258361
 31
0.0
 73
     3
  0
ENDBLK
  5
66
  8
0
  0
BLOCK
  8
0
  2
SE
 70
     0
 10
0.0
 20
0.0
 30
0.0
  3
SE
  1

  0
LINE
  5
6A
  8
VISIBLE
  6
CONTINUOUS
 62
     7
 10
50.2970635556
 20
64.4054601896
 30
0.0
 11
50.2970635556
 21
66.8576021119
 31
0.0
  0
LINE
  5
6B
  8
VISIBLE
  6
CONTINUOUS
 62
     7
 10
47.2851840987
 20
65.8966762173
 30
0.0
 11
47.2851840987
 21
68.6734659287
 31
0.0
  0
LINE
  5
6C
  8
VISIBLE
  6
CONTINUOUS
 62
     7
 10
45.4089430124
 20
65.8966762173
 30
0.0
 11
45.4089430124
 21
68.6734659287
 31
0.0
  0
LINE
  5
6D
  8
VISIBLE
  6
CONTINUOUS
 62
     7
 10
42.3470635556
 20
64.4054601896
 30
0.0
 11
42.3470635556
 21
66.8576021119
 31
0.0
  0
LINE
  5
6E
  8
VISIBLE
  6
CONTINUOUS
 62
     7
 10
51.8970635556
 20
90.8871511654
 30
0.0
 11
51.8970635556
 21
68.6621511654
 31
0.0
  0
LINE
  5
71
  8
HIDDEN
  6
HIDDEN2
 62
     7
 10
81.9970635556
 20
84.0246511654
 30
0.0
 11
81.9970635556
 21
75.5246511654
 31
0.0
  0
LINE
  5
72
  8
HIDDEN
  6
HIDDEN2
 62
     7
 10
81.5216325907
 20
83.2334011654
 30
0.0
 11
81.5216325907
 21
76.3159011654
 31
0.0
  0
LINE
  5
73
  8
0
  6
HIDDEN2
 62
     7
 10
63.5970635556
 20
83.2334011654
 30
0.0
 11
63.5970635556
 21
76.3159011654
 31
0.0
  0
LINE
  5
74
  8
0
  6
HIDDEN2
 62
     7
 10
85.2310381518
 20
75.5246511654
 30
0.0
 11
85.2310381518
 21
84.0246511654
 31
0.0
  0
LINE
  5
75
  8
VISIBLE
  6
CONTINUOUS
 62
     7
 10
86.0970635556
 20
74.0682412799
 30
0.0
 11
86.0970635556
 21
85.481061051
 31
0.0
  0
LINE
  5
76
  8
VISIBLE
  6
CONTINUOUS
 62
     7
 10
42.3470635556
 20
64.4054601896
 30
0.0
 11
44.5789283562
 21
64.4054601896
 31
0.0
  0
LINE
  5
77
  8
VISIBLE
  6
CONTINUOUS
 62
     7
 10
44.5789283562
 20
64.4054601896
 30
0.0
 11
45.4089430124
 21
65.8966762173
 31
0.0
  0
LINE
  5
78
  8
VISIBLE
  6
CONTINUOUS
 62
     7
 10
45.4089430124
 20
66.3004802726
 30
0.0
 11
47.2851840987
 21
66.3004802726
 31
0.0
  0
LINE
  5
79
  8
VISIBLE
  6
CONTINUOUS
 62
     7
 10
47.2851840987
 20
65.8966762173
 30
0.0
 11
48.1151987549
 21
64.4054601896
 31
0.0
  0
LINE
  5
7A
  8
VISIBLE
  6
CONTINUOUS
 62
     7
 10
48.1151987549
 20
64.4054601896
 30
0.0
 11
50.2970635556
 21
64.4054601896
 31
0.0
  0
LINE
  5
7B
  8
VISIBLE
  6
CONTINUOUS
 62
     7
 10
50.2970635556
 20
91.1746511654
 30
0.0
 11
50.3444666303
 21
91.1746511654
 31
0.0
  0
LINE
  5
7C
  8
VISIBLE
  6
CONTINUOUS
 62
     7
 10
44.5789283562
 20
95.1438421412
 30
0.0
 11
42.3470635556
 21
95.1438421412
 31
0.0
  0
LINE
  5
7D
  8
VISIBLE
  6
CONTINUOUS
 62
     7
 10
50.2970635556
 20
95.1438421412
 30
0.0
 11
48.1151987549
 21
95.1438421412
 31
0.0
  0
POLYLINE
  5
7E
  8
VISIBLE
  6
CONTINUOUS
 62
     7
 66
     1
 10
0.0
 20
0.0
 30
0.0
  0
VERTEX
  5
14E
  8
VISIBLE
  6
CONTINUOUS
 62
     7
 10
48.1151987549
 20
95.1438421412
 30
0.0
  0
VERTEX
  5
14F
  8
VISIBLE
  6
CONTINUOUS
 62
     7
 10
48.0805272849
 20
95.081756177
 30
0.0
  0
VERTEX
  5
150
  8
VISIBLE
  6
CONTINUOUS
 62
     7
 10
48.0458627133
 20
95.019666407
 30
0.0
  0
VERTEX
  5
151
  8
VISIBLE
  6
CONTINUOUS
 62
     7
 10
48.0112051374
 20
94.9575727806
 30
0.0
  0
VERTEX
  5
152
  8
VISIBLE
  6
CONTINUOUS
 62
     7
 10
47.9765546543
 20
94.8954752471
 30
0.0
  0
VERTEX
  5
153
  8
VISIBLE
  6
CONTINUOUS
 62
     7
 10
47.9419113611
 20
94.833373756
 30
0.0
  0
VERTEX
  5
154
  8
VISIBLE
  6
CONTINUOUS
 62
     7
 10
47.907275355
 20
94.7712682565
 30
0.0
  0
VERTEX
  5
155
  8
VISIBLE
  6
CONTINUOUS
 62
     7
 10
47.8726467333
 20
94.7091586981
 30
0.0
  0
VERTEX
  5
156
  8
VISIBLE
  6
CONTINUOUS
 62
     7
 10
47.8380255929
 20
94.6470450301
 30
0.0
  0
VERTEX
  5
157
  8
VISIBLE
  6
CONTINUOUS
 62
     7
 10
47.8034120311
 20
94.5849272018
 30
0.0
  0
VERTEX
  5
158
  8
VISIBLE
  6
CONTINUOUS
 62
     7
 10
47.7688061451
 20
94.5228051627
 30
0.0
  0
VERTEX
  5
159
  8
VISIBLE
  6
CONTINUOUS
 62
     7
 10
47.7342080319
 20
94.460678862
 30
0.0
  0
VERTEX
  5
15A
  8
VISIBLE
  6
CONTINUOUS
 62
     7
 10
47.6996177888
 20
94.3985482491
 30
0.0
  0
VERTEX
  5
15B
  8
VISIBLE
  6
CONTINUOUS
 62
     7
 10
47.6650355128
 20
94.3364132735
 30
0.0
  0
VERTEX
  5
15C
  8
VISIBLE
  6
CONTINUOUS
 62
     7
 10
47.6304613013
 20
94.2742738844
 30
0.0
  0
VERTEX
  5
15D
  8
VISIBLE
  6
CONTINUOUS
 62
     7
 10
47.5958952512
 20
94.2121300312
 30
0.0
  0
VERTEX
  5
15E
  8
VISIBLE
  6
CONTINUOUS
 62
     7
 10
47.5613374598
 20
94.1499816633
 30
0.0
  0
VERTEX
  5
15F
  8
VISIBLE
  6
CONTINUOUS
 62
     7
 10
47.5267880242
 20
94.0878287301
 30
0.0
  0
VERTEX
  5
160
  8
VISIBLE
  6
CONTINUOUS
 62
     7
 10
47.4922470415
 20
94.0256711808
 30
0.0
  0
VERTEX
  5
161
  8
VISIBLE
  6
CONTINUOUS
 62
     7
 10
47.457714609
 20
93.9635089649
 30
0.0
  0
VERTEX
  5
162
  8
VISIBLE
  6
CONTINUOUS
 62
     7
 10
47.4231908238
 20
93.9013420318
 30
0.0
  0
VERTEX
  5
163
  8
VISIBLE
  6
CONTINUOUS
 62
     7
 10
47.388675783
 20
93.8391703307
 30
0.0
  0
VERTEX
  5
164
  8
VISIBLE
  6
CONTINUOUS
 62
     7
 10
47.3541695838
 20
93.776993811
 30
0.0
  0
VERTEX
  5
165
  8
VISIBLE
  6
CONTINUOUS
 62
     7
 10
47.3196723233
 20
93.7148124222
 30
0.0
  0
VERTEX
  5
166
  8
VISIBLE
  6
CONTINUOUS
 62
     7
 10
47.2851840987
 20
93.6526261135
 30
0.0
  0
SEQEND
  5
167
  8
VISIBLE
  6
CONTINUOUS
 62
     7
  0
LINE
  5
7F
  8
VISIBLE
  6
CONTINUOUS
 62
     7
 10
47.2851840987
 20
93.2488220583
 30
0.0
 11
45.4089430124
 21
93.2488220583
 31
0.0
  0
POLYLINE
  5
80
  8
VISIBLE
  6
CONTINUOUS
 62
     7
 66
     1
 10
0.0
 20
0.0
 30
0.0
  0
VERTEX
  5
168
  8
VISIBLE
  6
CONTINUOUS
 62
     7
 10
45.4089430124
 20
93.6526261135
 30
0.0
  0
VERTEX
  5
169
  8
VISIBLE
  6
CONTINUOUS
 62
     7
 10
45.3744547878
 20
93.7148124222
 30
0.0
  0
VERTEX
  5
16A
  8
VISIBLE
  6
CONTINUOUS
 62
     7
 10
45.3399575273
 20
93.776993811
 30
0.0
  0
VERTEX
  5
16B
  8
VISIBLE
  6
CONTINUOUS
 62
     7
 10
45.3054513281
 20
93.8391703307
 30
0.0
  0
VERTEX
  5
16C
  8
VISIBLE
  6
CONTINUOUS
 62
     7
 10
45.2709362873
 20
93.9013420318
 30
0.0
  0
VERTEX
  5
16D
  8
VISIBLE
  6
CONTINUOUS
 62
     7
 10
45.2364125021
 20
93.9635089649
 30
0.0
  0
VERTEX
  5
16E
  8
VISIBLE
  6
CONTINUOUS
 62
     7
 10
45.2018800696
 20
94.0256711808
 30
0.0
  0
VERTEX
  5
16F
  8
VISIBLE
  6
CONTINUOUS
 62
     7
 10
45.1673390869
 20
94.0878287301
 30
0.0
  0
VERTEX
  5
170
  8
VISIBLE
  6
CONTINUOUS
 62
     7
 10
45.1327896513
 20
94.1499816633
 30
0.0
  0
VERTEX
  5
171
  8
VISIBLE
  6
CONTINUOUS
 62
     7
 10
45.0982318599
 20
94.2121300312
 30
0.0
  0
VERTEX
  5
172
  8
VISIBLE
  6
CONTINUOUS
 62
     7
 10
45.0636658098
 20
94.2742738844
 30
0.0
  0
VERTEX
  5
173
  8
VISIBLE
  6
CONTINUOUS
 62
     7
 10
45.0290915983
 20
94.3364132735
 30
0.0
  0
VERTEX
  5
174
  8
VISIBLE
  6
CONTINUOUS
 62
     7
 10
44.9945093223
 20
94.3985482491
 30
0.0
  0
VERTEX
  5
175
  8
VISIBLE
  6
CONTINUOUS
 62
     7
 10
44.9599190792
 20
94.460678862
 30
0.0
  0
VERTEX
  5
176
  8
VISIBLE
  6
CONTINUOUS
 62
     7
 10
44.925320966
 20
94.5228051627
 30
0.0
  0
VERTEX
  5
177
  8
VISIBLE
  6
CONTINUOUS
 62
     7
 10
44.89071508
 20
94.5849272018
 30
0.0
  0
VERTEX
  5
178
  8
VISIBLE
  6
CONTINUOUS
 62
     7
 10
44.8561015182
 20
94.6470450301
 30
0.0
  0
VERTEX
  5
179
  8
VISIBLE
  6
CONTINUOUS
 62
     7
 10
44.8214803778
 20
94.7091586981
 30
0.0
  0
VERTEX
  5
17A
  8
VISIBLE
  6
CONTINUOUS
 62
     7
 10
44.7868517561
 20
94.7712682565
 30
0.0
  0
VERTEX
  5
17B
  8
VISIBLE
  6
CONTINUOUS
 62
     7
 10
44.75221575
 20
94.833373756
 30
0.0
  0
VERTEX
  5
17C
  8
VISIBLE
  6
CONTINUOUS
 62
     7
 10
44.7175724569
 20
94.8954752471
 30
0.0
  0
VERTEX
  5
17D
  8
VISIBLE
  6
CONTINUOUS
 62
     7
 10
44.6829219737
 20
94.9575727806
 30
0.0
  0
VERTEX
  5
17E
  8
VISIBLE
  6
CONTINUOUS
 62
     7
 10
44.6482643978
 20
95.019666407
 30
0.0
  0
VERTEX
  5
17F
  8
VISIBLE
  6
CONTINUOUS
 62
     7
 10
44.6135998262
 20
95.081756177
 30
0.0
  0
VERTEX
  5
180
  8
VISIBLE
  6
CONTINUOUS
 62
     7
 10
44.5789283562
 20
95.1438421412
 30
0.0
  0
SEQEND
  5
181
  8
VISIBLE
  6
CONTINUOUS
 62
     7
  0
LINE
  5
81
  8
VISIBLE
  6
CONTINUOUS
 62
     7
 10
50.2970635556
 20
70.5246511654
 30
0.0
 11
50.2970635556
 21
95.1438421412
 31
0.0
  0
LINE
  5
82
  8
VISIBLE
  6
CONTINUOUS
 62
     7
 10
50.2970635556
 20
66.8576021119
 30
0.0
 11
50.2970635556
 21
70.5246511654
 31
0.0
  0
LINE
  5
83
  8
VISIBLE
  6
CONTINUOUS
 62
     7
 10
47.2851840987
 20
70.5246511654
 30
0.0
 11
47.2851840987
 21
93.6526261135
 31
0.0
  0
LINE
  5
84
  8
VISIBLE
  6
CONTINUOUS
 62
     7
 10
45.4089430124
 20
70.5246511654
 30
0.0
 11
45.4089430124
 21
93.6526261135
 31
0.0
  0
LINE
  5
85
  8
VISIBLE
  6
CONTINUOUS
 62
     7
 10
42.3470635556
 20
70.5246511654
 30
0.0
 11
42.3470635556
 21
95.1438421412
 31
0.0
  0
LINE
  5
86
  8
VISIBLE
  6
CONTINUOUS
 62
     7
 10
42.3470635556
 20
70.5246511654
 30
0.0
 11
42.3470635556
 21
66.8576021119
 31
0.0
  0
LINE
  5
87
  8
VISIBLE
  6
CONTINUOUS
 62
     7
 10
42.3470635556
 20
66.8576021119
 30
0.0
 11
44.5789283562
 21
66.8576021119
 31
0.0
  0
POLYLINE
  5
88
  8
VISIBLE
  6
CONTINUOUS
 62
     7
 66
     1
 10
0.0
 20
0.0
 30
0.0
  0
VERTEX
  5
182
  8
VISIBLE
  6
CONTINUOUS
 62
     7
 10
44.5789283562
 20
66.8576021119
 30
0.0
  0
VERTEX
  5
183
  8
VISIBLE
  6
CONTINUOUS
 62
     7
 10
44.6142456646
 20
66.9329147394
 30
0.0
  0
VERTEX
  5
184
  8
VISIBLE
  6
CONTINUOUS
 62
     7
 10
44.6495078463
 20
67.0082595613
 30
0.0
  0
VERTEX
  5
185
  8
VISIBLE
  6
CONTINUOUS
 62
     7
 10
44.6847137224
 20
67.0836363181
 30
0.0
  0
VERTEX
  5
186
  8
VISIBLE
  6
CONTINUOUS
 62
     7
 10
44.7198621142
 20
67.1590447507
 30
0.0
  0
VERTEX
  5
187
  8
VISIBLE
  6
CONTINUOUS
 62
     7
 10
44.754951843
 20
67.2344845996
 30
0.0
  0
VERTEX
  5
188
  8
VISIBLE
  6
CONTINUOUS
 62
     7
 10
44.7899817301
 20
67.3099556055
 30
0.0
  0
VERTEX
  5
189
  8
VISIBLE
  6
CONTINUOUS
 62
     7
 10
44.8249505967
 20
67.3854575091
 30
0.0
  0
VERTEX
  5
18A
  8
VISIBLE
  6
CONTINUOUS
 62
     7
 10
44.8598572642
 20
67.4609900511
 30
0.0
  0
VERTEX
  5
18B
  8
VISIBLE
  6
CONTINUOUS
 62
     7
 10
44.8947005537
 20
67.5365529721
 30
0.0
  0
VERTEX
  5
18C
  8
VISIBLE
  6
CONTINUOUS
 62
     7
 10
44.9294792866
 20
67.6121460128
 30
0.0
  0
VERTEX
  5
18D
  8
VISIBLE
  6
CONTINUOUS
 62
     7
 10
44.9641922842
 20
67.6877689139
 30
0.0
  0
VERTEX
  5
18E
  8
VISIBLE
  6
CONTINUOUS
 62
     7
 10
44.9988383676
 20
67.763421416
 30
0.0
  0
VERTEX
  5
18F
  8
VISIBLE
  6
CONTINUOUS
 62
     7
 10
45.0334163582
 20
67.8391032599
 30
0.0
  0
VERTEX
  5
190
  8
VISIBLE
  6
CONTINUOUS
 62
     7
 10
45.0679250773
 20
67.9148141862
 30
0.0
  0
VERTEX
  5
191
  8
VISIBLE
  6
CONTINUOUS
 62
     7
 10
45.102363346
 20
67.9905539356
 30
0.0
  0
VERTEX
  5
192
  8
VISIBLE
  6
CONTINUOUS
 62
     7
 10
45.1367299858
 20
68.0663222487
 30
0.0
  0
VERTEX
  5
193
  8
VISIBLE
  6
CONTINUOUS
 62
     7
 10
45.1710238178
 20
68.1421188662
 30
0.0
  0
VERTEX
  5
194
  8
VISIBLE
  6
CONTINUOUS
 62
     7
 10
45.2052436634
 20
68.2179435288
 30
0.0
  0
VERTEX
  5
195
  8
VISIBLE
  6
CONTINUOUS
 62
     7
 10
45.2393883438
 20
68.2937959771
 30
0.0
  0
VERTEX
  5
196
  8
VISIBLE
  6
CONTINUOUS
 62
     7
 10
45.2734566803
 20
68.3696759519
 30
0.0
  0
VERTEX
  5
197
  8
VISIBLE
  6
CONTINUOUS
 62
     7
 10
45.3074474941
 20
68.4455831938
 30
0.0
  0
VERTEX
  5
198
  8
VISIBLE
  6
CONTINUOUS
 62
     7
 10
45.3413596065
 20
68.5215174434
 30
0.0
  0
VERTEX
  5
199
  8
VISIBLE
  6
CONTINUOUS
 62
     7
 10
45.3751918389
 20
68.5974784415
 30
0.0
  0
VERTEX
  5
19A
  8
VISIBLE
  6
CONTINUOUS
 62
     7
 10
45.4089430124
 20
68.6734659287
 30
0.0
  0
SEQEND
  5
19B
  8
VISIBLE
  6
CONTINUOUS
 62
     7
  0
LINE
  5
89
  8
VISIBLE
  6
CONTINUOUS
 62
     7
 10
45.4089430124
 20
68.6734659287
 30
0.0
 11
45.4089430124
 21
69.1826066862
 31
0.0
  0
LINE
  5
8A
  8
VISIBLE
  6
CONTINUOUS
 62
     7
 10
45.4089430124
 20
69.1826066862
 30
0.0
 11
47.2851840987
 21
69.1826066862
 31
0.0
  0
LINE
  5
8B
  8
VISIBLE
  6
CONTINUOUS
 62
     7
 10
47.2851840987
 20
69.1826066862
 30
0.0
 11
47.2851840987
 21
68.6734659287
 31
0.0
  0
POLYLINE
  5
8C
  8
VISIBLE
  6
CONTINUOUS
 62
     7
 66
     1
 10
0.0
 20
0.0
 30
0.0
  0
VERTEX
  5
19C
  8
VISIBLE
  6
CONTINUOUS
 62
     7
 10
47.2851840987
 20
68.6734659287
 30
0.0
  0
VERTEX
  5
19D
  8
VISIBLE
  6
CONTINUOUS
 62
     7
 10
47.3189543417
 20
68.5974354666
 30
0.0
  0
VERTEX
  5
19E
  8
VISIBLE
  6
CONTINUOUS
 62
     7
 10
47.3528026836
 20
68.5214381991
 30
0.0
  0
VERTEX
  5
19F
  8
VISIBLE
  6
CONTINUOUS
 62
     7
 10
47.3867281232
 20
68.4454739807
 30
0.0
  0
VERTEX
  5
1A0
  8
VISIBLE
  6
CONTINUOUS
 62
     7
 10
47.4207296593
 20
68.3695426659
 30
0.0
  0
VERTEX
  5
1A1
  8
VISIBLE
  6
CONTINUOUS
 62
     7
 10
47.4548062906
 20
68.2936441093
 30
0.0
  0
VERTEX
  5
1A2
  8
VISIBLE
  6
CONTINUOUS
 62
     7
 10
47.488957016
 20
68.2177781655
 30
0.0
  0
VERTEX
  5
1A3
  8
VISIBLE
  6
CONTINUOUS
 62
     7
 10
47.5231808342
 20
68.1419446888
 30
0.0
  0
VERTEX
  5
1A4
  8
VISIBLE
  6
CONTINUOUS
 62
     7
 10
47.557476744
 20
68.0661435339
 30
0.0
  0
VERTEX
  5
1A5
  8
VISIBLE
  6
CONTINUOUS
 62
     7
 10
47.5918437441
 20
67.9903745554
 30
0.0
  0
VERTEX
  5
1A6
  8
VISIBLE
  6
CONTINUOUS
 62
     7
 10
47.6262808333
 20
67.9146376076
 30
0.0
  0
VERTEX
  5
1A7
  8
VISIBLE
  6
CONTINUOUS
 62
     7
 10
47.6607870105
 20
67.8389325452
 30
0.0
  0
VERTEX
  5
1A8
  8
VISIBLE
  6
CONTINUOUS
 62
     7
 10
47.6953612743
 20
67.7632592227
 30
0.0
  0
VERTEX
  5
1A9
  8
VISIBLE
  6
CONTINUOUS
 62
     7
 10
47.7300026236
 20
67.6876174946
 30
0.0
  0
VERTEX
  5
1AA
  8
VISIBLE
  6
CONTINUOUS
 62
     7
 10
47.7647100571
 20
67.6120072154
 30
0.0
  0
VERTEX
  5
1AB
  8
VISIBLE
  6
CONTINUOUS
 62
     7
 10
47.7994825736
 20
67.5364282397
 30
0.0
  0
VERTEX
  5
1AC
  8
VISIBLE
  6
CONTINUOUS
 62
     7
 10
47.8343191719
 20
67.460880422
 30
0.0
  0
VERTEX
  5
1AD
  8
VISIBLE
  6
CONTINUOUS
 62
     7
 10
47.8692188507
 20
67.3853636168
 30
0.0
  0
VERTEX
  5
1AE
  8
VISIBLE
  6
CONTINUOUS
 62
     7
 10
47.9041806089
 20
67.3098776787
 30
0.0
  0
VERTEX
  5
1AF
  8
VISIBLE
  6
CONTINUOUS
 62
     7
 10
47.9392034451
 20
67.2344224622
 30
0.0
  0
VERTEX
  5
1B0
  8
VISIBLE
  6
CONTINUOUS
 62
     7
 10
47.9742863582
 20
67.1589978218
 30
0.0
  0
VERTEX
  5
1B1
  8
VISIBLE
  6
CONTINUOUS
 62
     7
 10
48.009428347
 20
67.083603612
 30
0.0
  0
VERTEX
  5
1B2
  8
VISIBLE
  6
CONTINUOUS
 62
     7
 10
48.0446284102
 20
67.0082396875
 30
0.0
  0
VERTEX
  5
1B3
  8
VISIBLE
  6
CONTINUOUS
 62
     7
 10
48.0798855466
 20
66.9329059026
 30
0.0
  0
VERTEX
  5
1B4
  8
VISIBLE
  6
CONTINUOUS
 62
     7
 10
48.1151987549
 20
66.8576021119
 30
0.0
  0
SEQEND
  5
1B5
  8
VISIBLE
  6
CONTINUOUS
 62
     7
  0
LINE
  5
8D
  8
VISIBLE
  6
CONTINUOUS
 62
     7
 10
48.1151987549
 20
66.8576021119
 30
0.0
 11
50.2970635556
 21
66.8576021119
 31
0.0
  0
LINE
  5
8E
  8
VISIBLE
  6
CONTINUOUS
 62
     7
 10
44.5789283562
 20
70.5246511654
 30
0.0
 11
42.3470635556
 21
70.5246511654
 31
0.0
  0
LINE
  5
8F
  8
VISIBLE
  6
CONTINUOUS
 62
     7
 10
50.2970635556
 20
70.5246511654
 30
0.0
 11
48.1151987549
 21
70.5246511654
 31
0.0
  0
LINE
  5
90
  8
VISIBLE
  6
CONTINUOUS
 62
     7
 10
48.1151987549
 20
70.5246511654
 30
0.0
 11
47.2851840987
 21
70.5246511654
 31
0.0
  0
LINE
  5
91
  8
VISIBLE
  6
CONTINUOUS
 62
     7
 10
47.2851840987
 20
70.5246511654
 30
0.0
 11
45.4089430124
 21
70.5246511654
 31
0.0
  0
LINE
  5
92
  8
VISIBLE
  6
CONTINUOUS
 62
     7
 10
45.4089430124
 20
70.5246511654
 30
0.0
 11
44.5789283562
 21
70.5246511654
 31
0.0
  0
LINE
  5
93
  8
VISIBLE
  6
CONTINUOUS
 62
     7
 10
31.8970635556
 20
91.7746511654
 30
0.0
 11
31.8970635556
 21
67.7746511654
 31
0.0
  0
LINE
  5
94
  8
0
  6
HIDDEN2
 62
     7
 10
46.4861584063
 20
76.1417488666
 30
0.0
 11
46.3082742169
 21
76.0996511782
 31
0.0
  0
LINE
  5
95
  8
0
  6
HIDDEN2
 62
     7
 10
46.4861584063
 20
76.1417488666
 30
0.0
 11
46.6028126808
 21
76.1417488666
 31
0.0
  0
LINE
  5
96
  8
0
  6
HIDDEN2
 62
     7
 10
46.7616249987
 20
83.5163414999
 30
0.0
 11
46.7616249987
 21
76.0329608309
 31
0.0
  0
POLYLINE
  5
97
  8
0
  6
HIDDEN2
 62
     7
 66
     1
 10
0.0
 20
0.0
 30
0.0
  0
VERTEX
  5
1B6
  8
0
  6
HIDDEN2
 62
     7
 10
46.6028126808
 20
76.1417488666
 30
0.0
  0
VERTEX
  5
1B7
  8
0
  6
HIDDEN2
 62
     7
 10
46.6049280334
 20
76.1396990647
 30
0.0
  0
VERTEX
  5
1B8
  8
0
  6
HIDDEN2
 62
     7
 10
46.6069915525
 20
76.1376989717
 30
0.0
  0
VERTEX
  5
1B9
  8
0
  6
HIDDEN2
 62
     7
 10
46.6090031486
 20
76.1357487013
 30
0.0
  0
VERTEX
  5
1BA
  8
0
  6
HIDDEN2
 62
     7
 10
46.6109627324
 20
76.1338483668
 30
0.0
  0
VERTEX
  5
1BB
  8
0
  6
HIDDEN2
 62
     7
 10
46.6128702147
 20
76.1319980818
 30
0.0
  0
VERTEX
  5
1BC
  8
0
  6
HIDDEN2
 62
     7
 10
46.6147255059
 20
76.1301979598
 30
0.0
  0
VERTEX
  5
1BD
  8
0
  6
HIDDEN2
 62
     7
 10
46.616528517
 20
76.1284481143
 30
0.0
  0
VERTEX
  5
1BE
  8
0
  6
HIDDEN2
 62
     7
 10
46.6182791584
 20
76.1267486587
 30
0.0
  0
VERTEX
  5
1BF
  8
0
  6
HIDDEN2
 62
     7
 10
46.6199773408
 20
76.1250997066
 30
0.0
  0
VERTEX
  5
1C0
  8
0
  6
HIDDEN2
 62
     7
 10
46.621622975
 20
76.1235013714
 30
0.0
  0
VERTEX
  5
1C1
  8
0
  6
HIDDEN2
 62
     7
 10
46.6232159715
 20
76.1219537668
 30
0.0
  0
VERTEX
  5
1C2
  8
0
  6
HIDDEN2
 62
     7
 10
46.6247562412
 20
76.1204570061
 30
0.0
  0
VERTEX
  5
1C3
  8
0
  6
HIDDEN2
 62
     7
 10
46.6262436945
 20
76.1190112029
 30
0.0
  0
VERTEX
  5
1C4
  8
0
  6
HIDDEN2
 62
     7
 10
46.6276782422
 20
76.1176164706
 30
0.0
  0
VERTEX
  5
1C5
  8
0
  6
HIDDEN2
 62
     7
 10
46.629059795
 20
76.1162729228
 30
0.0
  0
VERTEX
  5
1C6
  8
0
  6
HIDDEN2
 62
     7
 10
46.6303882634
 20
76.114980673
 30
0.0
  0
VERTEX
  5
1C7
  8
0
  6
HIDDEN2
 62
     7
 10
46.6316635583
 20
76.1137398347
 30
0.0
  0
VERTEX
  5
1C8
  8
0
  6
HIDDEN2
 62
     7
 10
46.6328855902
 20
76.1125505213
 30
0.0
  0
VERTEX
  5
1C9
  8
0
  6
HIDDEN2
 62
     7
 10
46.6340542698
 20
76.1114128463
 30
0.0
  0
VERTEX
  5
1CA
  8
0
  6
HIDDEN2
 62
     7
 10
46.6351695078
 20
76.1103269234
 30
0.0
  0
VERTEX
  5
1CB
  8
0
  6
HIDDEN2
 62
     7
 10
46.6362312148
 20
76.1092928659
 30
0.0
  0
VERTEX
  5
1CC
  8
0
  6
HIDDEN2
 62
     7
 10
46.6372393015
 20
76.1083107873
 30
0.0
  0
VERTEX
  5
1CD
  8
0
  6
HIDDEN2
 62
     7
 10
46.6381936786
 20
76.1073808013
 30
0.0
  0
VERTEX
  5
1CE
  8
0
  6
HIDDEN2
 62
     7
 10
46.6390942568
 20
76.1065030212
 30
0.0
  0
VERTEX
  5
1CF
  8
0
  6
HIDDEN2
 62
     7
 10
46.6399409466
 20
76.1056775605
 30
0.0
  0
VERTEX
  5
1D0
  8
0
  6
HIDDEN2
 62
     7
 10
46.6407336588
 20
76.1049045328
 30
0.0
  0
VERTEX
  5
1D1
  8
0
  6
HIDDEN2
 62
     7
 10
46.641472304
 20
76.1041840516
 30
0.0
  0
VERTEX
  5
1D2
  8
0
  6
HIDDEN2
 62
     7
 10
46.642156793
 20
76.1035162303
 30
0.0
  0
VERTEX
  5
1D3
  8
0
  6
HIDDEN2
 62
     7
 10
46.6427870363
 20
76.1029011825
 30
0.0
  0
VERTEX
  5
1D4
  8
0
  6
HIDDEN2
 62
     7
 10
46.6433629446
 20
76.1023390216
 30
0.0
  0
VERTEX
  5
1D5
  8
0
  6
HIDDEN2
 62
     7
 10
46.6438844286
 20
76.1018298612
 30
0.0
  0
VERTEX
  5
1D6
  8
0
  6
HIDDEN2
 62
     7
 10
46.644351399
 20
76.1013738147
 30
0.0
  0
VERTEX
  5
1D7
  8
0
  6
HIDDEN2
 62
     7
 10
46.6447637664
 20
76.1009709957
 30
0.0
  0
VERTEX
  5
1D8
  8
0
  6
HIDDEN2
 62
     7
 10
46.6451214415
 20
76.1006215177
 30
0.0
  0
VERTEX
  5
1D9
  8
0
  6
HIDDEN2
 62
     7
 10
46.645424335
 20
76.1003254941
 30
0.0
  0
VERTEX
  5
1DA
  8
0
  6
HIDDEN2
 62
     7
 10
46.6456723575
 20
76.1000830385
 30
0.0
  0
VERTEX
  5
1DB
  8
0
  6
HIDDEN2
 62
     7
 10
46.6458654197
 20
76.0998942643
 30
0.0
  0
VERTEX
  5
1DC
  8
0
  6
HIDDEN2
 62
     7
 10
46.6460034322
 20
76.099759285
 30
0.0
  0
VERTEX
  5
1DD
  8
0
  6
HIDDEN2
 62
     7
 10
46.6460863058
 20
76.0996782142
 30
0.0
  0
VERTEX
  5
1DE
  8
0
  6
HIDDEN2
 62
     7
 10
46.646113951
 20
76.0996511654
 30
0.0
  0
SEQEND
  5
1DF
  8
0
  6
HIDDEN2
 62
     7
  0
LINE
  5
98
  8
0
  6
HIDDEN2
 62
     7
 10
54.3970635556
 20
76.4496511654
 30
0.0
 11
54.3970635556
 21
80.1543296846
 31
0.0
  0
LINE
  5
99
  8
HIDDEN
  6
HIDDEN2
 62
     7
 10
35.8970635556
 20
87.8746511654
 30
0.0
 11
35.8970635556
 21
71.6746511654
 31
0.0
  0
LINE
  5
9A
  8
0
  6
HIDDEN2
 62
     7
 10
36.6470635556
 20
87.6246511654
 30
0.0
 11
36.6470635556
 21
71.9246511654
 31
0.0
  0
LINE
  5
9B
  8
0
  6
HIDDEN2
 62
     7
 10
47.5116249987
 20
83.5163414999
 30
0.0
 11
47.5116249987
 21
76.0329608309
 31
0.0
  0
LINE
  5
9C
  8
0
  6
HIDDEN2
 62
     7
 10
55.4610374967
 20
78.5454011654
 30
0.0
 11
55.4610374967
 21
81.0039011654
 31
0.0
  0
LINE
  5
9D
  8
0
  6
HIDDEN2
 62
     7
 10
62.2574448054
 20
81.0039011654
 30
0.0
 11
62.2574448054
 21
78.5454011654
 31
0.0
  0
POLYLINE
  5
9E
  8
VISIBLE
  6
CONTINUOUS
 62
     7
 66
     1
 10
0.0
 20
0.0
 30
0.0
  0
VERTEX
  5
1E0
  8
VISIBLE
  6
CONTINUOUS
 62
     7
 10
38.3220635566
 20
92.2746511623
 30
0.0
  0
VERTEX
  5
1E1
  8
VISIBLE
  6
CONTINUOUS
 62
     7
 10
38.3240650126
 20
92.273949421
 30
0.0
  0
VERTEX
  5
1E2
  8
VISIBLE
  6
CONTINUOUS
 62
     7
 10
38.3300407352
 20
92.2718774014
 30
0.0
  0
VERTEX
  5
1E3
  8
VISIBLE
  6
CONTINUOUS
 62
     7
 10
38.3399488118
 20
92.2684820593
 30
0.0
  0
VERTEX
  5
1E4
  8
VISIBLE
  6
CONTINUOUS
 62
     7
 10
38.3537473294
 20
92.2638103504
 30
0.0
  0
VERTEX
  5
1E5
  8
VISIBLE
  6
CONTINUOUS
 62
     7
 10
38.3713943756
 20
92.2579092307
 30
0.0
  0
VERTEX
  5
1E6
  8
VISIBLE
  6
CONTINUOUS
 62
     7
 10
38.3928480374
 20
92.250825656
 30
0.0
  0
VERTEX
  5
1E7
  8
VISIBLE
  6
CONTINUOUS
 62
     7
 10
38.4180664023
 20
92.2426065821
 30
0.0
  0
VERTEX
  5
1E8
  8
VISIBLE
  6
CONTINUOUS
 62
     7
 10
38.4470075574
 20
92.2332989649
 30
0.0
  0
VERTEX
  5
1E9
  8
VISIBLE
  6
CONTINUOUS
 62
     7
 10
38.4796295901
 20
92.2229497602
 30
0.0
  0
VERTEX
  5
1EA
  8
VISIBLE
  6
CONTINUOUS
 62
     7
 10
38.5158905876
 20
92.2116059239
 30
0.0
  0
VERTEX
  5
1EB
  8
VISIBLE
  6
CONTINUOUS
 62
     7
 10
38.5557486373
 20
92.1993144118
 30
0.0
  0
VERTEX
  5
1EC
  8
VISIBLE
  6
CONTINUOUS
 62
     7
 10
38.5991618263
 20
92.1861221797
 30
0.0
  0
VERTEX
  5
1ED
  8
VISIBLE
  6
CONTINUOUS
 62
     7
 10
38.646088242
 20
92.1720761835
 30
0.0
  0
VERTEX
  5
1EE
  8
VISIBLE
  6
CONTINUOUS
 62
     7
 10
38.6964859717
 20
92.157223379
 30
0.0
  0
VERTEX
  5
1EF
  8
VISIBLE
  6
CONTINUOUS
 62
     7
 10
38.7503131026
 20
92.1416107222
 30
0.0
  0
VERTEX
  5
1F0
  8
VISIBLE
  6
CONTINUOUS
 62
     7
 10
38.8075277221
 20
92.1252851687
 30
0.0
  0
VERTEX
  5
1F1
  8
VISIBLE
  6
CONTINUOUS
 62
     7
 10
38.8680879173
 20
92.1082936745
 30
0.0
  0
VERTEX
  5
1F2
  8
VISIBLE
  6
CONTINUOUS
 62
     7
 10
38.9319517756
 20
92.0906831954
 30
0.0
  0
VERTEX
  5
1F3
  8
VISIBLE
  6
CONTINUOUS
 62
     7
 10
38.9990773843
 20
92.0725006873
 30
0.0
  0
VERTEX
  5
1F4
  8
VISIBLE
  6
CONTINUOUS
 62
     7
 10
39.0694228306
 20
92.053793106
 30
0.0
  0
VERTEX
  5
1F5
  8
VISIBLE
  6
CONTINUOUS
 62
     7
 10
39.1429462018
 20
92.0346074073
 30
0.0
  0
VERTEX
  5
1F6
  8
VISIBLE
  6
CONTINUOUS
 62
     7
 10
39.2196055852
 20
92.014990547
 30
0.0
  0
VERTEX
  5
1F7
  8
VISIBLE
  6
CONTINUOUS
 62
     7
 10
39.2993590681
 20
91.9949894811
 30
0.0
  0
VERTEX
  5
1F8
  8
VISIBLE
  6
CONTINUOUS
 62
     7
 10
39.3821647377
 20
91.9746511654
 30
0.0
  0
SEQEND
  5
1F9
  8
VISIBLE
  6
CONTINUOUS
 62
     7
  0
ARC
  5
9F
  8
VISIBLE
  6
CONTINUOUS
 62
     7
 10
42.4025890845
 20
108.3096797131
 30
0.0
 40
16.61192706728214
 50
259.5240588477
 51
268.0835935736
  0
LINE
  5
A0
  8
0
  6
HIDDEN2
 62
     7
 10
54.3970635556
 20
83.0996511654
 30
0.0
 11
54.3970635556
 21
81.6070895598
 31
0.0
  0
LINE
  5
A1
  8
0
  6
HIDDEN2
 62
     7
 10
54.3970635556
 20
81.5312156177
 30
0.0
 11
54.3970635556
 21
80.9679011654
 31
0.0
  0
ARC
  5
A2
  8
VISIBLE
  6
CONTINUOUS
 62
     7
 10
41.8884469888
 20
92.1904808312
 30
0.0
 40
0.4852048518146949
 50
265.107261888
 51
333.5975168914
  0
LINE
  5
A3
  8
VISIBLE
  6
CONTINUOUS
 62
     7
 10
42.338772529
 20
67.2746511654
 30
0.0
 11
41.8470635556
 21
67.2746511654
 31
0.0
  0
LINE
  5
A4
  8
VISIBLE
  6
CONTINUOUS
 62
     7
 10
51.8970635556
 20
68.6621511654
 30
0.0
 11
85.5819163449
 21
73.4742715802
 31
0.0
  0
LINE
  5
A5
  8
VISIBLE
  6
CONTINUOUS
 62
     7
 10
85.5819163449
 20
86.0750307506
 30
0.0
 11
51.8970635556
 21
90.8871511654
 31
0.0
  0
LINE
  5
A6
  8
VISIBLE
  6
CONTINUOUS
 62
     7
 10
50.7970635556
 20
68.6621511654
 30
0.0
 11
51.8970635556
 21
68.6621511654
 31
0.0
  0
LINE
  5
A7
  8
VISIBLE
  6
CONTINUOUS
 62
     7
 10
51.8970635556
 20
90.8871511654
 30
0.0
 11
50.7970635556
 21
90.8871511654
 31
0.0
  0
LINE
  5
A8
  8
HIDDEN
  6
HIDDEN2
 62
     7
 10
81.9970635556
 20
75.5246511654
 30
0.0
 11
85.2310381518
 21
75.5246511654
 31
0.0
  0
LINE
  5
A9
  8
HIDDEN
  6
HIDDEN2
 62
     7
 10
85.2310381518
 20
84.0246511654
 30
0.0
 11
81.9970635556
 21
84.0246511654
 31
0.0
  0
LINE
  5
AA
  8
HIDDEN
  6
HIDDEN2
 62
     7
 10
81.9970635556
 20
84.0246511654
 30
0.0
 11
81.5216325907
 21
83.2334011654
 31
0.0
  0
LINE
  5
AB
  8
HIDDEN
  6
HIDDEN2
 62
     7
 10
81.5216325907
 20
76.3159011654
 30
0.0
 11
81.9970635556
 21
75.5246511654
 31
0.0
  0
LINE
  5
AC
  8
0
  6
HIDDEN2
 62
     7
 10
63.5970635556
 20
76.3159011654
 30
0.0
 11
81.5216325907
 21
76.3159011654
 31
0.0
  0
LINE
  5
AD
  8
0
  6
HIDDEN2
 62
     7
 10
81.5216325907
 20
83.2334011654
 30
0.0
 11
63.5970635556
 21
83.2334011654
 31
0.0
  0
LINE
  5
AE
  8
0
  6
HIDDEN2
 62
     7
 10
63.5970635556
 20
83.2334011654
 30
0.0
 11
62.2574448054
 21
81.0039011654
 31
0.0
  0
LINE
  5
AF
  8
0
  6
HIDDEN2
 62
     7
 10
62.2574448054
 20
78.5454011654
 30
0.0
 11
63.5970635556
 21
76.3159011654
 31
0.0
  0
LINE
  5
B0
  8
0
  6
HIDDEN2
 62
     7
 10
86.0970635556
 20
84.5246511654
 30
0.0
 11
85.2310381518
 21
84.0246511654
 31
0.0
  0
LINE
  5
B1
  8
0
  6
HIDDEN2
 62
     7
 10
85.2310381518
 20
75.5246511654
 30
0.0
 11
86.0970635556
 21
75.0246511654
 31
0.0
  0
ARC
  5
B2
  8
VISIBLE
  6
CONTINUOUS
 62
     7
 10
85.4970635556
 20
85.481061051
 30
0.0
 40
0.6000000000000033
 50
0.0
 51
81.8699
  0
ARC
  5
B3
  8
VISIBLE
  6
CONTINUOUS
 62
     7
 10
85.4970635556
 20
74.0682412799
 30
0.0
 40
0.6
 50
278.1301
 51
0.0
  0
ARC
  5
B4
  8
VISIBLE
  6
CONTINUOUS
 62
     7
 10
50.7970635556
 20
91.3871511654
 30
0.0
 40
0.5000000000000004
 50
205.1220867771
 51
270.0
  0
ARC
  5
B5
  8
VISIBLE
  6
CONTINUOUS
 62
     7
 10
50.7970635556
 20
68.1621511654
 30
0.0
 40
0.5
 50
90.0
 51
180.0
  0
LINE
  5
B6
  8
VISIBLE
  6
CONTINUOUS
 62
     7
 10
32.3970635556
 20
67.2746511654
 30
0.0
 11
41.8470635556
 21
67.2746511654
 31
0.0
  0
LINE
  5
B7
  8
VISIBLE
  6
CONTINUOUS
 62
     7
 10
38.3220635556
 20
92.2746511654
 30
0.0
 11
32.3970635556
 21
92.2746511654
 31
0.0
  0
LINE
  5
B8
  8
VISIBLE
  6
CONTINUOUS
 62
     7
 10
32.3970635556
 20
92.2746511654
 30
0.0
 11
31.8970635556
 21
91.7746511654
 31
0.0
  0
LINE
  5
B9
  8
VISIBLE
  6
CONTINUOUS
 62
     7
 10
31.8970635556
 20
67.7746511654
 30
0.0
 11
32.3970635556
 21
67.2746511654
 31
0.0
  0
LINE
  5
BA
  8
0
  6
HIDDEN2
 62
     7
 10
37.4090557011
 20
74.8489475745
 30
0.0
 11
46.312108026
 21
76.1001899797
 31
0.0
  0
LINE
  5
BB
  8
0
  6
HIDDEN2
 62
     7
 10
46.4861584063
 20
83.4246511654
 30
0.0
 11
37.4090557011
 21
84.7003547563
 31
0.0
  0
LINE
  5
BC
  8
0
  6
HIDDEN2
 62
     7
 10
46.7616249987
 20
83.5163414999
 30
0.0
 11
46.6028126808
 21
83.4246511654
 31
0.0
  0
LINE
  5
BD
  8
0
  6
HIDDEN2
 62
     7
 10
46.6459586093
 20
76.099740852
 30
0.0
 11
46.7616249987
 21
76.0329608309
 31
0.0
  0
LINE
  5
BE
  8
0
  6
HIDDEN2
 62
     7
 10
47.5116249987
 20
76.0329608309
 30
0.0
 11
47.5366741906
 21
76.1017829199
 31
0.0
  0
LINE
  5
BF
  8
0
  6
HIDDEN2
 62
     7
 10
47.6020799283
 20
83.2678186232
 30
0.0
 11
47.5116249987
 21
83.5163414999
 31
0.0
  0
LINE
  5
C0
  8
0
  6
HIDDEN2
 62
     7
 10
50.8970635556
 20
76.4496511654
 30
0.0
 11
54.3970635556
 21
76.4496511654
 31
0.0
  0
LINE
  5
C1
  8
0
  6
HIDDEN2
 62
     7
 10
54.3970635556
 20
83.0996511654
 30
0.0
 11
48.798653566
 21
83.0996511654
 31
0.0
  0
LINE
  5
C2
  8
0
  6
HIDDEN2
 62
     7
 10
46.6028126808
 20
83.4246511654
 30
0.0
 11
46.4861584063
 21
83.4246511654
 31
0.0
  0
LINE
  5
C3
  8
0
  6
HIDDEN2
 62
     7
 10
48.798653566
 20
83.0996511654
 30
0.0
 11
47.6020799283
 21
83.2678186232
 31
0.0
  0
LINE
  5
C4
  8
HIDDEN
  6
HIDDEN2
 62
     7
 10
35.8970635556
 20
71.6746511654
 30
0.0
 11
36.3970635556
 21
71.6746511654
 31
0.0
  0
LINE
  5
C5
  8
HIDDEN
  6
HIDDEN2
 62
     7
 10
36.3970635556
 20
87.8746511654
 30
0.0
 11
35.8970635556
 21
87.8746511654
 31
0.0
  0
ARC
  5
C6
  8
HIDDEN
  6
HIDDEN2
 62
     7
 10
36.3970635556
 20
71.9246511654
 30
0.0
 40
0.2500000000000002
 50
270.0
 51
0.0
  0
ARC
  5
C7
  8
HIDDEN
  6
HIDDEN2
 62
     7
 10
36.3970635556
 20
87.6246511654
 30
0.0
 40
0.2499999999999985
 50
0.0
 51
90.0
  0
LINE
  5
C8
  8
0
  6
HIDDEN2
 62
     7
 10
36.6470635556
 20
73.5291384635
 30
0.0
 11
37.4090557011
 21
74.8489475745
 31
0.0
  0
LINE
  5
C9
  8
0
  6
HIDDEN2
 62
     7
 10
37.4090557011
 20
84.7003547563
 30
0.0
 11
36.6470635556
 21
86.0201638673
 31
0.0
  0
LINE
  5
CA
  8
0
  6
HIDDEN2
 62
     7
 10
46.7616249987
 20
76.0329608309
 30
0.0
 11
47.5116249987
 21
76.0329608309
 31
0.0
  0
LINE
  5
CB
  8
0
  6
HIDDEN2
 62
     7
 10
47.5116249987
 20
83.5163414999
 30
0.0
 11
46.7616249987
 21
83.5163414999
 31
0.0
  0
LINE
  5
CC
  8
0
  6
HIDDEN2
 62
     7
 10
54.3970635556
 20
76.7746511654
 30
0.0
 11
55.4610374967
 21
78.5454011654
 31
0.0
  0
LINE
  5
CD
  8
0
  6
HIDDEN2
 62
     7
 10
55.4610374967
 20
81.0039011654
 30
0.0
 11
54.3970635556
 21
82.7746511654
 31
0.0
  0
LINE
  5
CE
  8
0
  6
HIDDEN2
 62
     7
 10
47.5358982954
 20
76.0996511654
 30
0.0
 11
50.8970635556
 21
76.0996511654
 31
0.0
  0
LINE
  5
CF
  8
0
  6
HIDDEN2
 62
     7
 10
62.2574448054
 20
81.0039011654
 30
0.0
 11
55.4610374967
 21
81.0039011654
 31
0.0
  0
LINE
  5
D0
  8
0
  6
HIDDEN2
 62
     7
 10
55.4610374967
 20
78.5454011654
 30
0.0
 11
62.2574448054
 21
78.5454011654
 31
0.0
  0
LINE
  5
D1
  8
HIDDEN
  6
HIDDEN2
 62
     7
 10
81.8468484008
 20
75.7746511654
 30
0.0
 11
70.0970635556
 21
75.7746511654
 31
0.0
  0
LINE
  5
D2
  8
HIDDEN
  6
HIDDEN2
 62
     7
 10
81.8468484008
 20
83.7746511654
 30
0.0
 11
70.0970635556
 21
83.7746511654
 31
0.0
  0
LINE
  5
D3
  8
HIDDEN
  6
HIDDEN2
 62
     7
 10
70.0970635556
 20
83.7746511654
 30
0.0
 11
70.0970635556
 21
75.7746511654
 31
0.0
  0
LINE
  5
D4
  8
HIDDEN
  6
HIDDEN2
 62
     7
 10
31.9547985825
 20
87.7746511654
 30
0.0
 11
35.8970635556
 21
87.7746511654
 31
0.0
  0
LINE
  5
D5
  8
HIDDEN
  6
HIDDEN2
 62
     7
 10
31.9547985825
 20
71.7746511654
 30
0.0
 11
35.8970635556
 21
71.7746511654
 31
0.0
  0
LINE
  5
D6
  8
0
  6
HIDDEN2
 62
     7
 10
54.3970635556
 20
80.1543296846
 30
0.0
 11
54.3970635556
 21
80.9679011654
 31
0.0
  0
LINE
  5
D7
  8
VISIBLE
  6
CONTINUOUS
 62
     7
 10
28.1470635556
 20
85.5416384635
 30
0.0
 11
28.1470635556
 21
74.0076638673
 31
0.0
  0
LINE
  5
D8
  8
VISIBLE
  6
CONTINUOUS
 62
     7
 10
31.1470635556
 20
87.2746511654
 30
0.0
 11
31.1470635556
 21
72.2746511654
 31
0.0
  0
LINE
  5
D9
  8
VISIBLE
  6
CONTINUOUS
 62
     7
 10
28.3970635556
 20
73.7746511654
 30
0.0
 11
28.3970635556
 21
74.1925008987
 31
0.0
  0
LINE
  5
DA
  8
VISIBLE
  6
CONTINUOUS
 62
     7
 10
28.3970635556
 20
79.3568014321
 30
0.0
 11
28.3970635556
 21
80.1925008987
 31
0.0
  0
LINE
  5
DB
  8
VISIBLE
  6
CONTINUOUS
 62
     7
 10
28.3970635556
 20
85.3568014321
 30
0.0
 11
28.3970635556
 21
85.7746511654
 31
0.0
  0
ARC
  5
DC
  8
VISIBLE
  6
CONTINUOUS
 62
     7
 10
46.0771733092
 20
82.7746511654
 30
0.0
 40
17.86767418839779
 50
171.6907942754
 51
188.3092057246
  0
ARC
  5
DD
  8
VISIBLE
  6
CONTINUOUS
 62
     7
 10
46.0771733092
 20
76.7746511654
 30
0.0
 40
17.86767418839769
 50
171.6907942754
 51
188.3092057246
  0
LINE
  5
DE
  8
VISIBLE
  6
CONTINUOUS
 62
     7
 10
28.3970635556
 20
73.7746511654
 30
0.0
 11
28.2094997462
 21
73.7746511654
 31
0.0
  0
LINE
  5
DF
  8
VISIBLE
  6
CONTINUOUS
 62
     7
 10
28.3970635556
 20
85.7746511654
 30
0.0
 11
28.2094997462
 21
85.7746511654
 31
0.0
  0
LINE
  5
E0
  8
VISIBLE
  6
CONTINUOUS
 62
     7
 10
28.3970635556
 20
85.7746511654
 30
0.0
 11
31.1470635556
 21
85.7746511654
 31
0.0
  0
LINE
  5
E1
  8
VISIBLE
  6
CONTINUOUS
 62
     7
 10
31.1470635556
 20
73.7746511654
 30
0.0
 11
28.3970635556
 21
73.7746511654
 31
0.0
  0
LINE
  5
E2
  8
VISIBLE
  6
CONTINUOUS
 62
     7
 10
31.1470635556
 20
79.3568014321
 30
0.0
 11
28.3970635556
 21
79.3568014321
 31
0.0
  0
LINE
  5
E3
  8
VISIBLE
  6
CONTINUOUS
 62
     7
 10
28.3970635556
 20
74.1925008987
 30
0.0
 11
31.1470635556
 21
74.1925008987
 31
0.0
  0
LINE
  5
E4
  8
VISIBLE
  6
CONTINUOUS
 62
     7
 10
31.1470635556
 20
85.3568014321
 30
0.0
 11
28.3970635556
 21
85.3568014321
 31
0.0
  0
LINE
  5
E5
  8
VISIBLE
  6
CONTINUOUS
 62
     7
 10
28.3970635556
 20
80.1925008987
 30
0.0
 11
31.1470635556
 21
80.1925008987
 31
0.0
  0
LINE
  5
E6
  8
VISIBLE
  6
CONTINUOUS
 62
     7
 10
28.2094991209
 20
85.7746511654
 30
0.0
 11
28.1470635556
 21
85.5416384635
 31
0.0
  0
LINE
  5
E7
  8
VISIBLE
  6
CONTINUOUS
 62
     7
 10
28.1470635556
 20
74.0076638673
 30
0.0
 11
28.2094991209
 21
73.7746511654
 31
0.0
  0
LINE
  5
E8
  8
VISIBLE
  6
CONTINUOUS
 62
     7
 10
31.3429948184
 20
87.6140140675
 30
0.0
 11
31.1470635556
 21
87.2746511654
 31
0.0
  0
LINE
  5
E9
  8
VISIBLE
  6
CONTINUOUS
 62
     7
 10
31.1470635556
 20
72.2746511654
 30
0.0
 11
31.1725828953
 21
72.2304503724
 31
0.0
  0
LINE
  5
EA
  8
VISIBLE
  6
CONTINUOUS
 62
     7
 10
31.538653209
 20
71.7746511654
 30
0.0
 11
31.6304739021
 21
71.7746511654
 31
0.0
  0
LINE
  5
EB
  8
VISIBLE
  6
CONTINUOUS
 62
     7
 10
31.897063465
 20
87.7488548337
 30
0.0
 11
31.6762565973
 21
87.3665534424
 31
0.0
  0
LINE
  5
EC
  8
VISIBLE
  6
CONTINUOUS
 62
     7
 10
31.301291475
 20
72.1826886405
 30
0.0
 11
31.53529612
 21
71.7775368178
 31
0.0
  0
ARC
  5
ED
  8
VISIBLE
  6
CONTINUOUS
 62
     7
 10
31.584563523
 20
87.4214133449
 30
0.0
 40
0.1068511750030556
 50
210.8853280855
 51
329.1166204477
  0
ARC
  5
EE
  8
VISIBLE
  6
CONTINUOUS
 62
     7
 10
31.9595635061
 20
72.1278905338
 30
0.0
 40
0.1068501540875275
 50
127.60390994
 51
149.1228788777
  0
POLYLINE
  5
EF
  8
VISIBLE
  6
CONTINUOUS
 62
     7
 66
     1
 10
0.0
 20
0.0
 30
0.0
  0
VERTEX
  5
1FA
  8
VISIBLE
  6
CONTINUOUS
 62
     7
 10
31.1750750807
 20
72.2248492819
 30
0.0
  0
VERTEX
  5
1FB
  8
VISIBLE
  6
CONTINUOUS
 62
     7
 10
31.1790085534
 20
72.2263921817
 30
0.0
  0
VERTEX
  5
1FC
  8
VISIBLE
  6
CONTINUOUS
 62
     7
 10
31.1828194801
 20
72.2278596829
 30
0.0
  0
VERTEX
  5
1FD
  8
VISIBLE
  6
CONTINUOUS
 62
     7
 10
31.1865318714
 20
72.2292340664
 30
0.0
  0
VERTEX
  5
1FE
  8
VISIBLE
  6
CONTINUOUS
 62
     7
 10
31.190169738
 20
72.2304976132
 30
0.0
  0
VERTEX
  5
1FF
  8
VISIBLE
  6
CONTINUOUS
 62
     7
 10
31.1937570904
 20
72.2316326042
 30
0.0
  0
VERTEX
  5
200
  8
VISIBLE
  6
CONTINUOUS
 62
     7
 10
31.1973179395
 20
72.2326213205
 30
0.0
  0
VERTEX
  5
201
  8
VISIBLE
  6
CONTINUOUS
 62
     7
 10
31.2008762956
 20
72.233446043
 30
0.0
  0
VERTEX
  5
202
  8
VISIBLE
  6
CONTINUOUS
 62
     7
 10
31.2044561697
 20
72.2340890526
 30
0.0
  0
VERTEX
  5
203
  8
VISIBLE
  6
CONTINUOUS
 62
     7
 10
31.2080815721
 20
72.2345326303
 30
0.0
  0
VERTEX
  5
204
  8
VISIBLE
  6
CONTINUOUS
 62
     7
 10
31.2117751065
 20
72.2347600779
 30
0.0
  0
VERTEX
  5
205
  8
VISIBLE
  6
CONTINUOUS
 62
     7
 10
31.215538012
 20
72.2347701968
 30
0.0
  0
VERTEX
  5
206
  8
VISIBLE
  6
CONTINUOUS
 62
     7
 10
31.219354922
 20
72.2345738357
 30
0.0
  0
VERTEX
  5
207
  8
VISIBLE
  6
CONTINUOUS
 62
     7
 10
31.2232100338
 20
72.2341821597
 30
0.0
  0
VERTEX
  5
208
  8
VISIBLE
  6
CONTINUOUS
 62
     7
 10
31.2270875442
 20
72.2336063341
 30
0.0
  0
VERTEX
  5
209
  8
VISIBLE
  6
CONTINUOUS
 62
     7
 10
31.2309716503
 20
72.2328575242
 30
0.0
  0
VERTEX
  5
20A
  8
VISIBLE
  6
CONTINUOUS
 62
     7
 10
31.2348465492
 20
72.2319468952
 30
0.0
  0
VERTEX
  5
20B
  8
VISIBLE
  6
CONTINUOUS
 62
     7
 10
31.2386964379
 20
72.2308856124
 30
0.0
  0
VERTEX
  5
20C
  8
VISIBLE
  6
CONTINUOUS
 62
     7
 10
31.2425055135
 20
72.229684841
 30
0.0
  0
VERTEX
  5
20D
  8
VISIBLE
  6
CONTINUOUS
 62
     7
 10
31.2462579729
 20
72.2283557463
 30
0.0
  0
VERTEX
  5
20E
  8
VISIBLE
  6
CONTINUOUS
 62
     7
 10
31.2499380132
 20
72.2269094935
 30
0.0
  0
VERTEX
  5
20F
  8
VISIBLE
  6
CONTINUOUS
 62
     7
 10
31.2535298316
 20
72.2253572479
 30
0.0
  0
VERTEX
  5
210
  8
VISIBLE
  6
CONTINUOUS
 62
     7
 10
31.2570176249
 20
72.2237101747
 30
0.0
  0
VERTEX
  5
211
  8
VISIBLE
  6
CONTINUOUS
 62
     7
 10
31.2603855902
 20
72.2219794391
 30
0.0
  0
VERTEX
  5
212
  8
VISIBLE
  6
CONTINUOUS
 62
     7
 10
31.2636179247
 20
72.2201762065
 30
0.0
  0
VERTEX
  5
213
  8
VISIBLE
  6
CONTINUOUS
 62
     7
 10
31.26669883
 20
72.21831164
 30
0.0
  0
VERTEX
  5
214
  8
VISIBLE
  6
CONTINUOUS
 62
     7
 10
31.2696191317
 20
72.2163938971
 30
0.0
  0
VERTEX
  5
215
  8
VISIBLE
  6
CONTINUOUS
 62
     7
 10
31.2723894482
 20
72.2144221549
 30
0.0
  0
VERTEX
  5
216
  8
VISIBLE
  6
CONTINUOUS
 62
     7
 10
31.2750240785
 20
72.2123939203
 30
0.0
  0
VERTEX
  5
217
  8
VISIBLE
  6
CONTINUOUS
 62
     7
 10
31.2775373221
 20
72.2103067
 30
0.0
  0
VERTEX
  5
218
  8
VISIBLE
  6
CONTINUOUS
 62
     7
 10
31.2799434779
 20
72.2081580011
 30
0.0
  0
VERTEX
  5
219
  8
VISIBLE
  6
CONTINUOUS
 62
     7
 10
31.2822568452
 20
72.2059453303
 30
0.0
  0
VERTEX
  5
21A
  8
VISIBLE
  6
CONTINUOUS
 62
     7
 10
31.2844917231
 20
72.2036661945
 30
0.0
  0
VERTEX
  5
21B
  8
VISIBLE
  6
CONTINUOUS
 62
     7
 10
31.286662411
 20
72.2013181006
 30
0.0
  0
VERTEX
  5
21C
  8
VISIBLE
  6
CONTINUOUS
 62
     7
 10
31.2887832079
 20
72.1988985554
 30
0.0
  0
VERTEX
  5
21D
  8
VISIBLE
  6
CONTINUOUS
 62
     7
 10
31.290868413
 20
72.1964050658
 30
0.0
  0
VERTEX
  5
21E
  8
VISIBLE
  6
CONTINUOUS
 62
     7
 10
31.2929323255
 20
72.1938351387
 30
0.0
  0
VERTEX
  5
21F
  8
VISIBLE
  6
CONTINUOUS
 62
     7
 10
31.2949892447
 20
72.1911862809
 30
0.0
  0
VERTEX
  5
220
  8
VISIBLE
  6
CONTINUOUS
 62
     7
 10
31.2970534696
 20
72.1884559993
 30
0.0
  0
VERTEX
  5
221
  8
VISIBLE
  6
CONTINUOUS
 62
     7
 10
31.2991392996
 20
72.1856418008
 30
0.0
  0
VERTEX
  5
222
  8
VISIBLE
  6
CONTINUOUS
 62
     7
 10
31.3012610337
 20
72.1827411921
 30
0.0
  0
SEQEND
  5
223
  8
VISIBLE
  6
CONTINUOUS
 62
     7
  0
LINE
  5
F0
  8
VISIBLE
  6
CONTINUOUS
 62
     7
 10
31.4928576734
 20
87.3665756919
 30
0.0
 11
31.3473966708
 21
87.6184229554
 31
0.0
  0
LINE
  5
F1
  8
VISIBLE
  6
CONTINUOUS
 62
     7
 10
31.6338525903
 20
71.777574076
 30
0.0
 11
31.8678609241
 21
72.1827322641
 31
0.0
  0
LINE
  5
F4
  8
STANDARD
  6
DASHDOT2
 62
     7
 10
27.5411373912
 20
79.7746511654
 30
0.0
 11
86.9618406123
 21
79.7746511654
 31
0.0
  0
ENDBLK
  5
F6
  8
0
  0
BLOCK
  8
0
  2
SE1
 70
     0
 10
0.0
 20
0.0
 30
0.0
  3
SE1
  1

  0
ARC
  5
F9
  8
VISIBLE
  6
CONTINUOUS
 62
     7
 10
136.7409969112
 20
79.7746511654
 30
0.0
 40
15.8875
 50
284.6754710692
 51
305.6067477533
  0
CIRCLE
  5
FA
  8
0
  6
HIDDEN2
 62
     7
 10
136.7409969112
 20
79.7746511654
 30
0.0
 40
11.1125
  0
LINE
  5
FB
  8
VISIBLE
  6
CONTINUOUS
 62
     7
 10
140.7659969112
 20
66.4746511654
 30
0.0
 11
140.7659969112
 21
64.4054601896
 31
0.0
  0
LINE
  5
FC
  8
VISIBLE
  6
CONTINUOUS
 62
     7
 10
132.7159969112
 20
66.4746511654
 30
0.0
 11
133.4416465441
 21
67.2003007983
 31
0.0
  0
LINE
  5
FD
  8
VISIBLE
  6
CONTINUOUS
 62
     7
 10
132.7159969112
 20
64.4054601896
 30
0.0
 11
132.7159969112
 21
66.4746511654
 31
0.0
  0
ARC
  5
FE
  8
VISIBLE
  6
CONTINUOUS
 62
     7
 10
136.7409969112
 20
79.7746511654
 30
0.0
 40
15.8875
 50
104.6754710692
 51
255.3245289308
  0
LINE
  5
FF
  8
0
  6
HIDDEN2
 62
     7
 10
133.5159969112
 20
91.1746511654
 30
0.0
 11
132.7159969112
 21
91.9746511654
 31
0.0
  0
LINE
  5
100
  8
VISIBLE
  6
CONTINUOUS
 62
     7
 10
140.7659969112
 20
95.1438421412
 30
0.0
 11
140.7659969112
 21
92.135855597
 31
0.0
  0
ARC
  5
101
  8
VISIBLE
  6
CONTINUOUS
 62
     7
 10
136.7409969112
 20
79.7746511654
 30
0.0
 40
15.8875
 50
324.3932522467
 51
75.3245289308
  0
LINE
  5
102
  8
VISIBLE
  6
CONTINUOUS
 62
     7
 10
145.9909969112
 20
70.5246511654
 30
0.0
 11
145.9909969112
 21
66.8576021119
 31
0.0
  0
LINE
  5
103
  8
VISIBLE
  6
CONTINUOUS
 62
     7
 10
149.6580459647
 20
70.5246511654
 30
0.0
 11
145.9909969112
 21
70.5246511654
 31
0.0
  0
LINE
  5
104
  8
0
  6
HIDDEN2
 62
     7
 10
139.9659969112
 20
91.1746511654
 30
0.0
 11
140.7659969112
 21
91.9746511654
 31
0.0
  0
CIRCLE
  5
105
  8
VISIBLE
  6
CONTINUOUS
 62
     7
 10
136.7409969112
 20
79.7746511654
 30
0.0
 40
12.49999999999999
  0
LINE
  5
106
  8
0
  6
HIDDEN2
 62
     7
 10
133.5159969112
 20
91.1746511654
 30
0.0
 11
139.9659969112
 21
91.1746511654
 31
0.0
  0
LINE
  5
107
  8
VISIBLE
  6
CONTINUOUS
 62
     7
 10
132.7159969112
 20
92.135855597
 30
0.0
 11
132.7159969112
 21
95.1438421412
 31
0.0
  0
LINE
  5
108
  8
VISIBLE
  6
CONTINUOUS
 62
     7
 10
136.7409969112
 20
67.2746511654
 30
0.0
 11
133.5159969112
 21
67.2746511654
 31
0.0
  0
LINE
  5
109
  8
VISIBLE
  6
CONTINUOUS
 62
     7
 10
133.5159969112
 20
67.2746511654
 30
0.0
 11
133.4416465441
 21
67.2003007983
 31
0.0
  0
LINE
  5
10A
  8
VISIBLE
  6
CONTINUOUS
 62
     7
 10
132.7159969112
 20
92.135855597
 30
0.0
 11
132.7159969112
 21
91.9747228502
 31
0.0
  0
POLYLINE
  5
10B
  8
VISIBLE
  6
CONTINUOUS
 62
     7
 66
     1
 10
0.0
 20
0.0
 30
0.0
  0
VERTEX
  5
224
  8
VISIBLE
  6
CONTINUOUS
 62
     7
 10
132.7159969112
 20
91.9747228502
 30
0.0
  0
VERTEX
  5
225
  8
VISIBLE
  6
CONTINUOUS
 62
     7
 10
132.724116274
 20
91.9666251915
 30
0.0
  0
VERTEX
  5
226
  8
VISIBLE
  6
CONTINUOUS
 62
     7
 10
132.732166894
 20
91.9586004764
 30
0.0
  0
VERTEX
  5
227
  8
VISIBLE
  6
CONTINUOUS
 62
     7
 10
132.7401490178
 20
91.9506492867
 30
0.0
  0
VERTEX
  5
228
  8
VISIBLE
  6
CONTINUOUS
 62
     7
 10
132.7480628921
 20
91.9427722043
 30
0.0
  0
VERTEX
  5
229
  8
VISIBLE
  6
CONTINUOUS
 62
     7
 10
132.7559087634
 20
91.9349698111
 30
0.0
  0
VERTEX
  5
22A
  8
VISIBLE
  6
CONTINUOUS
 62
     7
 10
132.7636868785
 20
91.9272426892
 30
0.0
  0
VERTEX
  5
22B
  8
VISIBLE
  6
CONTINUOUS
 62
     7
 10
132.7713974839
 20
91.9195914203
 30
0.0
  0
VERTEX
  5
22C
  8
VISIBLE
  6
CONTINUOUS
 62
     7
 10
132.7790408262
 20
91.9120165864
 30
0.0
  0
VERTEX
  5
22D
  8
VISIBLE
  6
CONTINUOUS
 62
     7
 10
132.7866171521
 20
91.9045187695
 30
0.0
  0
VERTEX
  5
22E
  8
VISIBLE
  6
CONTINUOUS
 62
     7
 10
132.7941267083
 20
91.8970985514
 30
0.0
  0
VERTEX
  5
22F
  8
VISIBLE
  6
CONTINUOUS
 62
     7
 10
132.8015697412
 20
91.8897565141
 30
0.0
  0
VERTEX
  5
230
  8
VISIBLE
  6
CONTINUOUS
 62
     7
 10
132.8089464976
 20
91.8824932395
 30
0.0
  0
VERTEX
  5
231
  8
VISIBLE
  6
CONTINUOUS
 62
     7
 10
132.8162572241
 20
91.8753093095
 30
0.0
  0
VERTEX
  5
232
  8
VISIBLE
  6
CONTINUOUS
 62
     7
 10
132.8235021674
 20
91.8682053061
 30
0.0
  0
VERTEX
  5
233
  8
VISIBLE
  6
CONTINUOUS
 62
     7
 10
132.8306711191
 20
91.8611924867
 30
0.0
  0
VERTEX
  5
234
  8
VISIBLE
  6
CONTINUOUS
 62
     7
 10
132.8377517109
 20
91.8542844362
 30
0.0
  0
VERTEX
  5
235
  8
VISIBLE
  6
CONTINUOUS
 62
     7
 10
132.8447409489
 20
91.8474852275
 30
0.0
  0
VERTEX
  5
236
  8
VISIBLE
  6
CONTINUOUS
 62
     7
 10
132.8516358391
 20
91.8407989337
 30
0.0
  0
VERTEX
  5
237
  8
VISIBLE
  6
CONTINUOUS
 62
     7
 10
132.8584333877
 20
91.8342296277
 30
0.0
  0
VERTEX
  5
238
  8
VISIBLE
  6
CONTINUOUS
 62
     7
 10
132.8651306009
 20
91.8277813825
 30
0.0
  0
VERTEX
  5
239
  8
VISIBLE
  6
CONTINUOUS
 62
     7
 10
132.8717244847
 20
91.821458271
 30
0.0
  0
VERTEX
  5
23A
  8
VISIBLE
  6
CONTINUOUS
 62
     7
 10
132.8782120453
 20
91.8152643664
 30
0.0
  0
VERTEX
  5
23B
  8
VISIBLE
  6
CONTINUOUS
 62
     7
 10
132.8845902888
 20
91.8092037415
 30
0.0
  0
VERTEX
  5
23C
  8
VISIBLE
  6
CONTINUOUS
 62
     7
 10
132.8908562213
 20
91.8032804693
 30
0.0
  0
VERTEX
  5
23D
  8
VISIBLE
  6
CONTINUOUS
 62
     7
 10
132.897006849
 20
91.7974986228
 30
0.0
  0
VERTEX
  5
23E
  8
VISIBLE
  6
CONTINUOUS
 62
     7
 10
132.9030391779
 20
91.7918622749
 30
0.0
  0
VERTEX
  5
23F
  8
VISIBLE
  6
CONTINUOUS
 62
     7
 10
132.9089502142
 20
91.7863754988
 30
0.0
  0
VERTEX
  5
240
  8
VISIBLE
  6
CONTINUOUS
 62
     7
 10
132.9147369641
 20
91.7810423673
 30
0.0
  0
VERTEX
  5
241
  8
VISIBLE
  6
CONTINUOUS
 62
     7
 10
132.9203991035
 20
91.7758665399
 30
0.0
  0
VERTEX
  5
242
  8
VISIBLE
  6
CONTINUOUS
 62
     7
 10
132.9259364555
 20
91.7708510597
 30
0.0
  0
VERTEX
  5
243
  8
VISIBLE
  6
CONTINUOUS
 62
     7
 10
132.9313462462
 20
91.7659990748
 30
0.0
  0
VERTEX
  5
244
  8
VISIBLE
  6
CONTINUOUS
 62
     7
 10
132.9366257019
 20
91.7613137335
 30
0.0
  0
VERTEX
  5
245
  8
VISIBLE
  6
CONTINUOUS
 62
     7
 10
132.9417720489
 20
91.756798184
 30
0.0
  0
VERTEX
  5
246
  8
VISIBLE
  6
CONTINUOUS
 62
     7
 10
132.9467825134
 20
91.7524555745
 30
0.0
  0
VERTEX
  5
247
  8
VISIBLE
  6
CONTINUOUS
 62
     7
 10
132.9516543217
 20
91.7482890533
 30
0.0
  0
VERTEX
  5
248
  8
VISIBLE
  6
CONTINUOUS
 62
     7
 10
132.9563847001
 20
91.7443017686
 30
0.0
  0
VERTEX
  5
249
  8
VISIBLE
  6
CONTINUOUS
 62
     7
 10
132.9609708747
 20
91.7404968686
 30
0.0
  0
VERTEX
  5
24A
  8
VISIBLE
  6
CONTINUOUS
 62
     7
 10
132.9654100718
 20
91.7368775016
 30
0.0
  0
VERTEX
  5
24B
  8
VISIBLE
  6
CONTINUOUS
 62
     7
 10
132.9696995178
 20
91.7334468158
 30
0.0
  0
VERTEX
  5
24C
  8
VISIBLE
  6
CONTINUOUS
 62
     7
 10
132.9738364388
 20
91.7302079593
 30
0.0
  0
VERTEX
  5
24D
  8
VISIBLE
  6
CONTINUOUS
 62
     7
 10
132.9778180611
 20
91.7271640805
 30
0.0
  0
VERTEX
  5
24E
  8
VISIBLE
  6
CONTINUOUS
 62
     7
 10
132.9816416111
 20
91.7243183276
 30
0.0
  0
VERTEX
  5
24F
  8
VISIBLE
  6
CONTINUOUS
 62
     7
 10
132.9853043148
 20
91.7216738487
 30
0.0
  0
VERTEX
  5
250
  8
VISIBLE
  6
CONTINUOUS
 62
     7
 10
132.9888033986
 20
91.7192337922
 30
0.0
  0
VERTEX
  5
251
  8
VISIBLE
  6
CONTINUOUS
 62
     7
 10
132.9921360888
 20
91.7170013063
 30
0.0
  0
VERTEX
  5
252
  8
VISIBLE
  6
CONTINUOUS
 62
     7
 10
132.9952996116
 20
91.7149795391
 30
0.0
  0
VERTEX
  5
253
  8
VISIBLE
  6
CONTINUOUS
 62
     7
 10
132.9982911932
 20
91.7131716389
 30
0.0
  0
VERTEX
  5
254
  8
VISIBLE
  6
CONTINUOUS
 62
     7
 10
133.0011080599
 20
91.7115807539
 30
0.0
  0
VERTEX
  5
255
  8
VISIBLE
  6
CONTINUOUS
 62
     7
 10
133.003747438
 20
91.7102100325
 30
0.0
  0
VERTEX
  5
256
  8
VISIBLE
  6
CONTINUOUS
 62
     7
 10
133.0062065538
 20
91.7090626227
 30
0.0
  0
VERTEX
  5
257
  8
VISIBLE
  6
CONTINUOUS
 62
     7
 10
133.0084826334
 20
91.7081416728
 30
0.0
  0
VERTEX
  5
258
  8
VISIBLE
  6
CONTINUOUS
 62
     7
 10
133.0105729031
 20
91.7074503311
 30
0.0
  0
VERTEX
  5
259
  8
VISIBLE
  6
CONTINUOUS
 62
     7
 10
133.0124745893
 20
91.7069917458
 30
0.0
  0
VERTEX
  5
25A
  8
VISIBLE
  6
CONTINUOUS
 62
     7
 10
133.0141849181
 20
91.7067690651
 30
0.0
  0
VERTEX
  5
25B
  8
VISIBLE
  6
CONTINUOUS
 62
     7
 10
133.0157011158
 20
91.7067854372
 30
0.0
  0
VERTEX
  5
25C
  8
VISIBLE
  6
CONTINUOUS
 62
     7
 10
133.0170204087
 20
91.7070440104
 30
0.0
  0
SEQEND
  5
25D
  8
VISIBLE
  6
CONTINUOUS
 62
     7
  0
LINE
  5
10C
  8
VISIBLE
  6
CONTINUOUS
 62
     7
 10
140.0403472784
 20
67.2003007983
 30
0.0
 11
140.7659969112
 21
66.4746511654
 31
0.0
  0
POLYLINE
  5
10D
  8
VISIBLE
  6
CONTINUOUS
 62
     7
 66
     1
 10
0.0
 20
0.0
 30
0.0
  0
VERTEX
  5
25E
  8
VISIBLE
  6
CONTINUOUS
 62
     7
 10
140.4649734138
 20
91.7070440104
 30
0.0
  0
VERTEX
  5
25F
  8
VISIBLE
  6
CONTINUOUS
 62
     7
 10
140.4668665668
 20
91.706744653
 30
0.0
  0
VERTEX
  5
260
  8
VISIBLE
  6
CONTINUOUS
 62
     7
 10
140.4691316216
 20
91.7069063497
 30
0.0
  0
VERTEX
  5
261
  8
VISIBLE
  6
CONTINUOUS
 62
     7
 10
140.4717628119
 20
91.7075221531
 30
0.0
  0
VERTEX
  5
262
  8
VISIBLE
  6
CONTINUOUS
 62
     7
 10
140.4747543714
 20
91.7085851158
 30
0.0
  0
VERTEX
  5
263
  8
VISIBLE
  6
CONTINUOUS
 62
     7
 10
140.4781005339
 20
91.7100882904
 30
0.0
  0
VERTEX
  5
264
  8
VISIBLE
  6
CONTINUOUS
 62
     7
 10
140.4817955331
 20
91.7120247294
 30
0.0
  0
VERTEX
  5
265
  8
VISIBLE
  6
CONTINUOUS
 62
     7
 10
140.4858336029
 20
91.7143874854
 30
0.0
  0
VERTEX
  5
266
  8
VISIBLE
  6
CONTINUOUS
 62
     7
 10
140.4902089769
 20
91.7171696111
 30
0.0
  0
VERTEX
  5
267
  8
VISIBLE
  6
CONTINUOUS
 62
     7
 10
140.4949158888
 20
91.7203641589
 30
0.0
  0
VERTEX
  5
268
  8
VISIBLE
  6
CONTINUOUS
 62
     7
 10
140.4999485725
 20
91.7239641815
 30
0.0
  0
VERTEX
  5
269
  8
VISIBLE
  6
CONTINUOUS
 62
     7
 10
140.5053012616
 20
91.7279627315
 30
0.0
  0
VERTEX
  5
26A
  8
VISIBLE
  6
CONTINUOUS
 62
     7
 10
140.51096819
 20
91.7323528613
 30
0.0
  0
VERTEX
  5
26B
  8
VISIBLE
  6
CONTINUOUS
 62
     7
 10
140.5169435913
 20
91.7371276237
 30
0.0
  0
VERTEX
  5
26C
  8
VISIBLE
  6
CONTINUOUS
 62
     7
 10
140.5232216993
 20
91.7422800712
 30
0.0
  0
VERTEX
  5
26D
  8
VISIBLE
  6
CONTINUOUS
 62
     7
 10
140.5297967477
 20
91.7478032564
 30
0.0
  0
VERTEX
  5
26E
  8
VISIBLE
  6
CONTINUOUS
 62
     7
 10
140.5366629704
 20
91.7536902318
 30
0.0
  0
VERTEX
  5
26F
  8
VISIBLE
  6
CONTINUOUS
 62
     7
 10
140.543814601
 20
91.7599340501
 30
0.0
  0
VERTEX
  5
270
  8
VISIBLE
  6
CONTINUOUS
 62
     7
 10
140.5512458733
 20
91.7665277638
 30
0.0
  0
VERTEX
  5
271
  8
VISIBLE
  6
CONTINUOUS
 62
     7
 10
140.558951021
 20
91.7734644255
 30
0.0
  0
VERTEX
  5
272
  8
VISIBLE
  6
CONTINUOUS
 62
     7
 10
140.5669242779
 20
91.7807370878
 30
0.0
  0
VERTEX
  5
273
  8
VISIBLE
  6
CONTINUOUS
 62
     7
 10
140.5751410241
 20
91.7883162689
 30
0.0
  0
VERTEX
  5
274
  8
VISIBLE
  6
CONTINUOUS
 62
     7
 10
140.5835764957
 20
91.7961712685
 30
0.0
  0
VERTEX
  5
275
  8
VISIBLE
  6
CONTINUOUS
 62
     7
 10
140.59222471
 20
91.804293312
 30
0.0
  0
VERTEX
  5
276
  8
VISIBLE
  6
CONTINUOUS
 62
     7
 10
140.6010796846
 20
91.8126736242
 30
0.0
  0
VERTEX
  5
277
  8
VISIBLE
  6
CONTINUOUS
 62
     7
 10
140.6101354369
 20
91.8213034303
 30
0.0
  0
VERTEX
  5
278
  8
VISIBLE
  6
CONTINUOUS
 62
     7
 10
140.6193859844
 20
91.8301739554
 30
0.0
  0
VERTEX
  5
279
  8
VISIBLE
  6
CONTINUOUS
 62
     7
 10
140.6288253444
 20
91.8392764246
 30
0.0
  0
VERTEX
  5
27A
  8
VISIBLE
  6
CONTINUOUS
 62
     7
 10
140.6384475345
 20
91.8486020629
 30
0.0
  0
VERTEX
  5
27B
  8
VISIBLE
  6
CONTINUOUS
 62
     7
 10
140.6482465721
 20
91.8581420955
 30
0.0
  0
VERTEX
  5
27C
  8
VISIBLE
  6
CONTINUOUS
 62
     7
 10
140.6582164746
 20
91.8678877475
 30
0.0
  0
VERTEX
  5
27D
  8
VISIBLE
  6
CONTINUOUS
 62
     7
 10
140.6683512595
 20
91.8778302439
 30
0.0
  0
VERTEX
  5
27E
  8
VISIBLE
  6
CONTINUOUS
 62
     7
 10
140.6786449443
 20
91.8879608098
 30
0.0
  0
VERTEX
  5
27F
  8
VISIBLE
  6
CONTINUOUS
 62
     7
 10
140.6890915464
 20
91.8982706703
 30
0.0
  0
VERTEX
  5
280
  8
VISIBLE
  6
CONTINUOUS
 62
     7
 10
140.6996850832
 20
91.9087510504
 30
0.0
  0
VERTEX
  5
281
  8
VISIBLE
  6
CONTINUOUS
 62
     7
 10
140.7104195722
 20
91.9193931754
 30
0.0
  0
VERTEX
  5
282
  8
VISIBLE
  6
CONTINUOUS
 62
     7
 10
140.7212890309
 20
91.9301882703
 30
0.0
  0
VERTEX
  5
283
  8
VISIBLE
  6
CONTINUOUS
 62
     7
 10
140.7322874767
 20
91.9411275601
 30
0.0
  0
VERTEX
  5
284
  8
VISIBLE
  6
CONTINUOUS
 62
     7
 10
140.7434089271
 20
91.9522022699
 30
0.0
  0
VERTEX
  5
285
  8
VISIBLE
  6
CONTINUOUS
 62
     7
 10
140.7546473994
 20
91.9634036249
 30
0.0
  0
VERTEX
  5
286
  8
VISIBLE
  6
CONTINUOUS
 62
     7
 10
140.7659969112
 20
91.9747228502
 30
0.0
  0
SEQEND
  5
287
  8
VISIBLE
  6
CONTINUOUS
 62
     7
  0
LINE
  5
10E
  8
VISIBLE
  6
CONTINUOUS
 62
     7
 10
140.7659969112
 20
91.9747228502
 30
0.0
 11
140.7659969112
 21
92.135855597
 31
0.0
  0
LINE
  5
10F
  8
VISIBLE
  6
CONTINUOUS
 62
     7
 10
140.0403472784
 20
67.2003007983
 30
0.0
 11
139.9659969112
 21
67.2746511654
 31
0.0
  0
LINE
  5
110
  8
VISIBLE
  6
CONTINUOUS
 62
     7
 10
139.9659969112
 20
67.2746511654
 30
0.0
 11
136.7409969112
 21
67.2746511654
 31
0.0
  0
CIRCLE
  5
111
  8
VISIBLE
  6
CONTINUOUS
 62
     7
 10
136.7409969112
 20
79.7746511654
 30
0.0
 40
1.5
  0
CIRCLE
  5
112
  8
VISIBLE
  6
CONTINUOUS
 62
     7
 10
136.7409969112
 20
79.7746511654
 30
0.0
 40
3.5
  0
ARC
  5
113
  8
VISIBLE
  6
CONTINUOUS
 62
     7
 10
136.7409969112
 20
79.7746511654
 30
0.0
 40
6.700000000000002
 50
236.4243920788
 51
243.5756079212
  0
CIRCLE
  5
114
  8
0
  6
CONTINUOUS
 62
     7
 10
136.7409969112
 20
79.7746511654
 30
0.0
 40
7.5
  0
ARC
  5
115
  8
VISIBLE
  6
CONTINUOUS
 62
     7
 10
136.7409969112
 20
79.7746511654
 30
0.0
 40
6.700000000000001
 50
296.4243920788
 51
303.5756079212
  0
ARC
  5
116
  8
VISIBLE
  6
CONTINUOUS
 62
     7
 10
136.7409969112
 20
79.7746511654
 30
0.0
 40
6.7
 50
356.4243920788
 51
3.5756079212
  0
ARC
  5
117
  8
VISIBLE
  6
CONTINUOUS
 62
     7
 10
136.7409969112
 20
79.7746511654
 30
0.0
 40
6.7
 50
56.4243920788
 51
63.5756079212
  0
ARC
  5
118
  8
VISIBLE
  6
CONTINUOUS
 62
     7
 10
136.7409969112
 20
79.7746511654
 30
0.0
 40
6.700000000000001
 50
116.4243920788
 51
123.5756079212
  0
ARC
  5
119
  8
VISIBLE
  6
CONTINUOUS
 62
     7
 10
136.7409969112
 20
79.7746511654
 30
0.0
 40
6.7
 50
176.4243920788
 51
183.5756079212
  0
LINE
  5
11A
  8
VISIBLE
  6
CONTINUOUS
 62
     7
 10
140.4463441824
 20
85.3568014321
 30
0.0
 11
143.4279544855
 21
80.1925008987
 31
0.0
  0
LINE
  5
11B
  8
VISIBLE
  6
CONTINUOUS
 62
     7
 10
143.4279544855
 20
79.3568014321
 30
0.0
 11
140.4463441824
 21
74.1925008987
 31
0.0
  0
LINE
  5
11C
  8
VISIBLE
  6
CONTINUOUS
 62
     7
 10
139.7226072144
 20
73.7746511654
 30
0.0
 11
133.7593866081
 21
73.7746511654
 31
0.0
  0
LINE
  5
11D
  8
VISIBLE
  6
CONTINUOUS
 62
     7
 10
133.0356496401
 20
74.1925008987
 30
0.0
 11
130.054039337
 21
79.3568014321
 31
0.0
  0
LINE
  5
11E
  8
VISIBLE
  6
CONTINUOUS
 62
     7
 10
130.054039337
 20
80.1925008987
 30
0.0
 11
133.0356496401
 21
85.3568014321
 31
0.0
  0
LINE
  5
11F
  8
VISIBLE
  6
CONTINUOUS
 62
     7
 10
133.7593866081
 20
85.7746511654
 30
0.0
 11
139.7226072144
 21
85.7746511654
 31
0.0
  0
POLYLINE
  5
121
  8
TANGENTE
  6
CONTINUOUS
 62
     7
 66
     1
 10
0.0
 20
0.0
 30
0.0
  0
VERTEX
  5
288
  8
TANGENTE
  6
CONTINUOUS
 62
     7
 10
131.8296708349
 20
73.9813014287
 30
0.0
  0
VERTEX
  5
289
  8
TANGENTE
  6
CONTINUOUS
 62
     7
 10
132.0212680628
 20
73.8241734874
 30
0.0
  0
VERTEX
  5
28A
  8
TANGENTE
  6
CONTINUOUS
 62
     7
 10
132.216659057
 20
73.6742911776
 30
0.0
  0
VERTEX
  5
28B
  8
TANGENTE
  6
CONTINUOUS
 62
     7
 10
132.4154540287
 20
73.5317589053
 30
0.0
  0
VERTEX
  5
28C
  8
TANGENTE
  6
CONTINUOUS
 62
     7
 10
132.6172625255
 20
73.3966546371
 30
0.0
  0
VERTEX
  5
28D
  8
TANGENTE
  6
CONTINUOUS
 62
     7
 10
132.8216955343
 20
73.2690303867
 30
0.0
  0
VERTEX
  5
28E
  8
TANGENTE
  6
CONTINUOUS
 62
     7
 10
133.0286619183
 20
73.1487479138
 30
0.0
  0
VERTEX
  5
28F
  8
TANGENTE
  6
CONTINUOUS
 62
     7
 10
133.2404451141
 20
73.0344611002
 30
0.0
  0
VERTEX
  5
290
  8
TANGENTE
  6
CONTINUOUS
 62
     7
 10
133.4574348
 20
72.9261298022
 30
0.0
  0
VERTEX
  5
291
  8
TANGENTE
  6
CONTINUOUS
 62
     7
 10
133.6793956753
 20
72.8240668107
 30
0.0
  0
VERTEX
  5
292
  8
TANGENTE
  6
CONTINUOUS
 62
     7
 10
133.9060691523
 20
72.7285735614
 30
0.0
  0
VERTEX
  5
293
  8
TANGENTE
  6
CONTINUOUS
 62
     7
 10
134.1371739481
 20
72.6399380684
 30
0.0
  0
VERTEX
  5
294
  8
TANGENTE
  6
CONTINUOUS
 62
     7
 10
134.3724068892
 20
72.5584328824
 30
0.0
  0
VERTEX
  5
295
  8
TANGENTE
  6
CONTINUOUS
 62
     7
 10
134.6114439301
 20
72.4843131005
 30
0.0
  0
VERTEX
  5
296
  8
TANGENTE
  6
CONTINUOUS
 62
     7
 10
134.8539413821
 20
72.4178144518
 30
0.0
  0
VERTEX
  5
297
  8
TANGENTE
  6
CONTINUOUS
 62
     7
 10
135.0995373479
 20
72.3591514856
 30
0.0
  0
VERTEX
  5
298
  8
TANGENTE
  6
CONTINUOUS
 62
     7
 10
135.3478533502
 20
72.3085158855
 30
0.0
  0
VERTEX
  5
299
  8
TANGENTE
  6
CONTINUOUS
 62
     7
 10
135.598496143
 20
72.2660749359
 30
0.0
  0
VERTEX
  5
29A
  8
TANGENTE
  6
CONTINUOUS
 62
     7
 10
135.8510596875
 20
72.2319701608
 30
0.0
  0
VERTEX
  5
29B
  8
TANGENTE
  6
CONTINUOUS
 62
     7
 10
136.1051272743
 20
72.2063161567
 30
0.0
  0
VERTEX
  5
29C
  8
TANGENTE
  6
CONTINUOUS
 62
     7
 10
136.3602737686
 20
72.1891996371
 30
0.0
  0
VERTEX
  5
29D
  8
TANGENTE
  6
CONTINUOUS
 62
     7
 10
136.6160679543
 20
72.1806787033
 30
0.0
  0
VERTEX
  5
29E
  8
TANGENTE
  6
CONTINUOUS
 62
     7
 10
136.8720749491
 20
72.1807823525
 30
0.0
  0
VERTEX
  5
29F
  8
TANGENTE
  6
CONTINUOUS
 62
     7
 10
137.1278586637
 20
72.1895102317
 30
0.0
  0
VERTEX
  5
2A0
  8
TANGENTE
  6
CONTINUOUS
 62
     7
 10
137.3829842753
 20
72.2068326406
 30
0.0
  0
VERTEX
  5
2A1
  8
TANGENTE
  6
CONTINUOUS
 62
     7
 10
137.6370206857
 20
72.2326907839
 30
0.0
  0
VERTEX
  5
2A2
  8
TANGENTE
  6
CONTINUOUS
 62
     7
 10
137.8895429353
 20
72.2669972688
 30
0.0
  0
VERTEX
  5
2A3
  8
TANGENTE
  6
CONTINUOUS
 62
     7
 10
138.1401345453
 20
72.3096368398
 30
0.0
  0
VERTEX
  5
2A4
  8
TANGENTE
  6
CONTINUOUS
 62
     7
 10
138.3883897599
 20
72.3604673397
 30
0.0
  0
VERTEX
  5
2A5
  8
TANGENTE
  6
CONTINUOUS
 62
     7
 10
138.6339156653
 20
72.4193208811
 30
0.0
  0
VERTEX
  5
2A6
  8
TANGENTE
  6
CONTINUOUS
 62
     7
 10
138.8763341618
 20
72.4860052125
 30
0.0
  0
VERTEX
  5
2A7
  8
TANGENTE
  6
CONTINUOUS
 62
     7
 10
139.1152837714
 20
72.5603052557
 30
0.0
  0
VERTEX
  5
2A8
  8
TANGENTE
  6
CONTINUOUS
 62
     7
 10
139.3504212612
 20
72.6419847943
 30
0.0
  0
VERTEX
  5
2A9
  8
TANGENTE
  6
CONTINUOUS
 62
     7
 10
139.5814230735
 20
72.7307882893
 30
0.0
  0
VERTEX
  5
2AA
  8
TANGENTE
  6
CONTINUOUS
 62
     7
 10
139.8079865495
 20
72.826442795
 30
0.0
  0
VERTEX
  5
2AB
  8
TANGENTE
  6
CONTINUOUS
 62
     7
 10
140.0298309431
 20
72.9286599508
 30
0.0
  0
VERTEX
  5
2AC
  8
TANGENTE
  6
CONTINUOUS
 62
     7
 10
140.2466982198
 20
73.0371380237
 30
0.0
  0
VERTEX
  5
2AD
  8
TANGENTE
  6
CONTINUOUS
 62
     7
 10
140.4583536439
 20
73.1515639757
 30
0.0
  0
VERTEX
  5
2AE
  8
TANGENTE
  6
CONTINUOUS
 62
     7
 10
140.6652370811
 20
73.2720083112
 30
0.0
  0
VERTEX
  5
2AF
  8
TANGENTE
  6
CONTINUOUS
 62
     7
 10
140.8696115799
 20
73.3998126641
 30
0.0
  0
VERTEX
  5
2B0
  8
TANGENTE
  6
CONTINUOUS
 62
     7
 10
141.0713522541
 20
73.5350960847
 30
0.0
  0
VERTEX
  5
2B1
  8
TANGENTE
  6
CONTINUOUS
 62
     7
 10
141.2700700321
 20
73.677805943
 30
0.0
  0
VERTEX
  5
2B2
  8
TANGENTE
  6
CONTINUOUS
 62
     7
 10
141.4653744526
 20
73.8278636422
 30
0.0
  0
VERTEX
  5
2B3
  8
TANGENTE
  6
CONTINUOUS
 62
     7
 10
141.6568757691
 20
73.9851641367
 30
0.0
  0
VERTEX
  5
2B4
  8
TANGENTE
  6
CONTINUOUS
 62
     7
 10
141.844187135
 20
74.1495756512
 30
0.0
  0
VERTEX
  5
2B5
  8
TANGENTE
  6
CONTINUOUS
 62
     7
 10
142.0269268466
 20
74.320939611
 30
0.0
  0
VERTEX
  5
2B6
  8
TANGENTE
  6
CONTINUOUS
 62
     7
 10
142.2047206206
 20
74.4990707966
 30
0.0
  0
VERTEX
  5
2B7
  8
TANGENTE
  6
CONTINUOUS
 62
     7
 10
142.3772038798
 20
74.6837577264
 30
0.0
  0
VERTEX
  5
2B8
  8
TANGENTE
  6
CONTINUOUS
 62
     7
 10
142.5440240217
 20
74.8747632733
 30
0.0
  0
SEQEND
  5
2B9
  8
TANGENTE
  6
CONTINUOUS
 62
     7
  0
LINE
  5
122
  8
STANDARD
  6
DASHDOT2
 62
     7
 10
137.9909968833
 20
79.7746511654
 30
0.0
 11
135.4909969392
 21
79.7746511654
 31
0.0
  0
LINE
  5
123
  8
STANDARD
  6
DASHDOT2
 62
     7
 10
136.7409969112
 20
81.0246511375
 30
0.0
 11
136.7409969112
 21
78.5246511934
 31
0.0
  0
LINE
  5
124
  8
STANDARD
  6
DASHDOT2
 62
     7
 10
138.6159968693
 20
79.7746511654
 30
0.0
 11
153.5034969112
 21
79.7746511654
 31
0.0
  0
LINE
  5
125
  8
STANDARD
  6
DASHDOT2
 62
     7
 10
136.7409969112
 20
81.6496511235
 30
0.0
 11
136.7409969112
 21
96.5371511654
 31
0.0
  0
LINE
  5
126
  8
STANDARD
  6
DASHDOT2
 62
     7
 10
134.8659969532
 20
79.7746511654
 30
0.0
 11
119.9784969112
 21
79.7746511654
 31
0.0
  0
LINE
  5
127
  8
STANDARD
  6
DASHDOT2
 62
     7
 10
136.7409969112
 20
77.8996512073
 30
0.0
 11
136.7409969112
 21
63.0121511654
 31
0.0
  0
ENDBLK
  5
129
  8
0
  0
BLOCK
  8
0
  2
GDIMGGROUP
 70
     0
 10
0.0
 20
0.0
 30
0.0
  3
GDIMGGROUP
  1

  0
POLYLINE
  5
12C
  8
DEFAULT
  6
CONTINUOUS
 62
     7
 66
     1
 10
0.0
 20
0.0
 30
0.0
  0
VERTEX
  5
2BB
  8
DEFAULT
  6
CONTINUOUS
 62
     7
 10
49.3970636114
 20
56.6506367321
 30
0.0
  0
VERTEX
  5
2BC
  8
DEFAULT
  6
CONTINUOUS
 62
     7
 10
49.3970636114
 20
57.4839700468
 30
0.0
  0
VERTEX
  5
2BD
  8
DEFAULT
  6
CONTINUOUS
 62
     7
 10
51.8970635556
 20
57.0673033894
 30
0.0
  0
VERTEX
  5
2BE
  8
DEFAULT
  6
CONTINUOUS
 62
     7
 10
49.3970636114
 20
56.6506367321
 30
0.0
  0
SEQEND
  5
2BA
  8
DEFAULT
  6
CONTINUOUS
 62
     7
  0
POLYLINE
  5
12D
  8
DEFAULT
  6
CONTINUOUS
 62
     7
 66
     1
 10
0.0
 20
0.0
 30
0.0
  0
VERTEX
  5
2C0
  8
DEFAULT
  6
CONTINUOUS
 62
     7
 10
34.3970639467
 20
56.6506367321
 30
0.0
  0
VERTEX
  5
2C1
  8
DEFAULT
  6
CONTINUOUS
 62
     7
 10
34.3970639467
 20
57.4839700468
 30
0.0
  0
VERTEX
  5
2C2
  8
DEFAULT
  6
CONTINUOUS
 62
     7
 10
31.8970640026
 20
57.0673033894
 30
0.0
  0
VERTEX
  5
2C3
  8
DEFAULT
  6
CONTINUOUS
 62
     7
 10
34.3970639467
 20
56.6506367321
 30
0.0
  0
SEQEND
  5
2BF
  8
DEFAULT
  6
CONTINUOUS
 62
     7
  0
LINE
  5
12E
  8
DEFAULT
  6
CONTINUOUS
 62
     7
 10
51.8970635556
 20
68.6621511654
 30
0.0
 11
51.8970635556
 21
55.8173034174
 31
0.0
  0
LINE
  5
12F
  8
DEFAULT
  6
CONTINUOUS
 62
     7
 10
31.8970635556
 20
67.7746511654
 30
0.0
 11
31.8970635556
 21
55.8173034174
 31
0.0
  0
LINE
  5
130
  8
DEFAULT
  6
CONTINUOUS
 62
     7
 10
51.8970635556
 20
57.0673033894
 30
0.0
 11
31.8970640026
 21
57.0673033894
 31
0.0
  0
TEXT
  5
131
  8
DEFAULT
  6
CONTINUOUS
 62
     7
 10
39.9405420399
 20
57.6923033894
 30
0.0
 40
2.5
  1
40
  7
SEACAD_ARIAL_TTF
 11
39.9405420399
 21
60.1923033894
 31
0.0
 73
     3
  0
ENDBLK
  5
133
  8
0
  0
BLOCK
  8
0
  2
GDIMGGROUP1
 70
     0
 10
0.0
 20
0.0
 30
0.0
  3
GDIMGGROUP1
  1

  0
POLYLINE
  5
136
  8
DEFAULT
  6
CONTINUOUS
 62
     7
 66
     1
 10
0.0
 20
0.0
 30
0.0
  0
VERTEX
  5
2C5
  8
DEFAULT
  6
CONTINUOUS
 62
     7
 10
20.7839624004
 20
89.7746512213
 30
0.0
  0
VERTEX
  5
2C6
  8
DEFAULT
  6
CONTINUOUS
 62
     7
 10
21.6172957151
 20
89.7746512213
 30
0.0
  0
VERTEX
  5
2C7
  8
DEFAULT
  6
CONTINUOUS
 62
     7
 10
21.2006290577
 20
92.2746511654
 30
0.0
  0
VERTEX
  5
2C8
  8
DEFAULT
  6
CONTINUOUS
 62
     7
 10
20.7839624004
 20
89.7746512213
 30
0.0
  0
SEQEND
  5
2C4
  8
DEFAULT
  6
CONTINUOUS
 62
     7
  0
POLYLINE
  5
137
  8
DEFAULT
  6
CONTINUOUS
 62
     7
 66
     1
 10
0.0
 20
0.0
 30
0.0
  0
VERTEX
  5
2CA
  8
DEFAULT
  6
CONTINUOUS
 62
     7
 10
20.7839624004
 20
69.774650737
 30
0.0
  0
VERTEX
  5
2CB
  8
DEFAULT
  6
CONTINUOUS
 62
     7
 10
21.6172957151
 20
69.774650737
 30
0.0
  0
VERTEX
  5
2CC
  8
DEFAULT
  6
CONTINUOUS
 62
     7
 10
21.2006290577
 20
67.2746507929
 30
0.0
  0
VERTEX
  5
2CD
  8
DEFAULT
  6
CONTINUOUS
 62
     7
 10
20.7839624004
 20
69.774650737
 30
0.0
  0
SEQEND
  5
2C9
  8
DEFAULT
  6
CONTINUOUS
 62
     7
  0
LINE
  5
138
  8
DEFAULT
  6
CONTINUOUS
 62
     7
 10
32.3970635556
 20
92.2746511654
 30
0.0
 11
19.9506290857
 21
92.2746511654
 31
0.0
  0
LINE
  5
139
  8
DEFAULT
  6
CONTINUOUS
 62
     7
 10
32.3970635556
 20
67.2746511654
 30
0.0
 11
19.9506290857
 21
67.2746511654
 31
0.0
  0
LINE
  5
13A
  8
DEFAULT
  6
CONTINUOUS
 62
     7
 10
21.2006290577
 20
92.2746511654
 30
0.0
 11
21.2006290577
 21
67.2746507929
 31
0.0
  0
TEXT
  5
13B
  8
DEFAULT
  6
CONTINUOUS
 62
     7
 10
20.5756290577
 20
80.1185678365
 30
0.0
 40
2.5
  1
50
 50
90.0
  7
SEACAD_ARIAL_TTF
 11
18.0756290577
 21
80.1185678365
 31
0.0
 73
     3
  0
TEXT
  5
13D
  8
DEFAULT
  6
CONTINUOUS
 62
     7
 10
20.5756290577
 20
75.5176906435
 30
0.0
 40
2.5
  1
O
 50
90.0
  7
SEACAD_SEMECA1_TTF
 11
18.0756290577
 21
75.5176906435
 31
0.0
 73
     3
  0
ENDBLK
  5
13F
  8
0
  0
ENDSEC
  0
SECTION
  2
ENTITIES
  0
INSERT
  5
5F
  8
DEFAULT
  2
SEANNOT_GROUP
 10
0.0
 20
0.0
 30
0.0
  0
INSERT
  5
68
  8
DEFAULT
  2
SE
 10
0.0
 20
0.0
 30
0.0
  0
INSERT
  5
F8
  8
DEFAULT
  2
SE1
 10
0.0
 20
0.0
 30
0.0
  0
INSERT
  5
12B
  8
DEFAULT
  2
GDIMGGROUP
 10
0.0
 20
0.0
 30
0.0
  0
INSERT
  5
135
  8
DEFAULT
  2
GDIMGGROUP1
 10
0.0
 20
0.0
 30
0.0
  0
ENDSEC
  0
EOF
