999
DXF file: f1304nnl1000caa.dxf
999
Pro/ENGINEER 2011490 by Parametric Technology Corporation
  0
SECTION
  2
HEADER
  9
$ACADVER
  1
AC1021
  9
$DWGCODEPAGE
  3
ANSI_1252
  9
$EXTMAX
 10
297.0
 20
210.0
 30
0.0
  9
$EXTMIN
 10
0.0
 20
0.0
 30
0.0
  9
$LIMMIN
 10
0.0
 20
0.0
  9
$LIMMAX
 10
297.0
 20
210.0
  9
$VIEWCTR
 10
148.5
 20
105.0
  9
$VIEWSIZE
 40
210.0
  9
$CLAYER
  8
0
  9
$LTSCALE
 40
16.335
  9
$CELTYPE
  6
BYLAYER
  9
$DIMSCALE
 40
1.0
  9
$DIMASZ
 40
3.5
  9
$DIMEXO
 40
1.85625
  9
$DIMDLI
 40
11.286
  9
$DIMEXE
 40
5.346
  9
$DIMCEN
 40
2.673
  9
$DIMLFAC
 40
1.0
  9
$DIMBLK
  1
_FILLED
  9
$DIMTXT
 40
3.5
  9
$DIMTOL
 70
1
  9
$DIMLIM
 70
0
  9
$DIMTFAC
 40
1.0
  9
$DIMTP
 40
0.005
  9
$DIMTM
 40
0.005
  9
$PDMODE
 70
3
  9
$PDSIZE
 40
0.3125
  9
$HANDSEED
  5
252
  9
$TILEMODE
 70
1
  9
$MEASUREMENT
 70
1
  9
$INSUNITS
 70
4
  0
ENDSEC
  0
SECTION
  2
CLASSES
  0
CLASS
  1
ACDBDICTIONARYWDFLT
  2
AcDbDictionaryWithDefault
  3
AutoCAD 2000
 90
0
 91
1
280
0
281
0
  0
CLASS
  1
ACDBPLACEHOLDER
  2
AcDbPlaceHolder
  3
AutoCAD 2000
 90
0
 91
1
280
0
281
0
  0
CLASS
  1
LAYOUT
  2
AcDbLayout
  3
AutoCAD 2000
 90
0
 91
0
280
0
281
0
  0
ENDSEC
  0
SECTION
  2
TABLES
  0
TABLE
  2
VPORT
  5
8
100
AcDbSymbolTable
 70
2
  0
VPORT
  5
1F4
100
AcDbSymbolTableRecord
100
AcDbViewportTableRecord
  2
*ACTIVE
 70
0
 10
0.0
 20
0.0
 11
1.0
 21
1.0
 12
148.5
 22
105.0
 13
0.0
 23
0.0
 14
1.0
 24
1.0
 15
0.0
 25
0.0
 16
0.0
 26
0.0
 36
1.0
 17
0.0
 27
0.0
 37
0.0
 40
210.0
 41
1.4142857143
 42
50.0
 43
0.0
 44
0.0
 50
0.0
 51
0.0
 71
0
 72
100
 73
1
 74
1
 75
0
 76
0
 77
0
 78
0
  0
ENDTAB
  0
TABLE
  2
LTYPE
  5
5
100
AcDbSymbolTable
 70
6
  0
LTYPE
  5
14
100
AcDbSymbolTableRecord
100
AcDbLinetypeTableRecord
  2
BYBLOCK
 70
0
  3

 72
65
 73
0
 40
0.0
  0
LTYPE
  5
15
100
AcDbSymbolTableRecord
100
AcDbLinetypeTableRecord
  2
BYLAYER
 70
0
  3

 72
65
 73
0
 40
0.0
  0
LTYPE
  5
16
100
AcDbSymbolTableRecord
100
AcDbLinetypeTableRecord
  2
CONTINUOUS
 70
64
  3
Solid line
 72
65
 73
0
 40
0.0
  0
LTYPE
  5
1F5
100
AcDbSymbolTableRecord
100
AcDbLinetypeTableRecord
  2
CENTER
 70
64
  3
____ _ ____ _ ____ _ ____ _ ____ _ ____ _ ____
 72
65
 73
4
 40
0.6
 49
0.375
 74
0
 49
-0.075
 74
0
 49
0.075
 74
0
 49
-0.075
 74
0
  0
LTYPE
  5
1F6
100
AcDbSymbolTableRecord
100
AcDbLinetypeTableRecord
  2
HIDDEN
 70
64
  3
- - - - - - - - - - - - - - - - - - - -
 72
65
 73
2
 40
0.2
 49
0.1
 74
0
 49
-0.1
 74
0
  0
LTYPE
  5
1F7
100
AcDbSymbolTableRecord
100
AcDbLinetypeTableRecord
  2
PHANTOM
 70
64
  3
_____ _ _ _____ _ _ _____ _ _ _____
 72
65
 73
6
 40
0.8
 49
0.45
 74
0
 49
-0.05
 74
0
 49
0.1
 74
0
 49
-0.05
 74
0
 49
0.1
 74
0
 49
-0.05
 74
0
  0
LTYPE
  5
1F8
100
AcDbSymbolTableRecord
100
AcDbLinetypeTableRecord
  2
DOT
 70
64
  3
. . . . . . . . . . . . . . . . . . . .
 72
65
 73
2
 40
0.2
 49
0.1
 74
0
 49
-0.1
 74
0
  0
LTYPE
  5
1F9
100
AcDbSymbolTableRecord
100
AcDbLinetypeTableRecord
  2
DASHED
 70
64
  3
- - - - - - - - - - - - - - - - - - - -
 72
65
 73
2
 40
0.2
 49
0.1
 74
0
 49
-0.1
 74
0
  0
ENDTAB
  0
TABLE
  2
LAYER
  5
2
100
AcDbSymbolTable
 70
36
  0
LAYER
  5
10
100
AcDbSymbolTableRecord
100
AcDbLayerTableRecord
  2
0
 70
0
 62
7
  6
CONTINUOUS
370
-3
390
F
  0
LAYER
  5
1FA
100
AcDbSymbolTableRecord
100
AcDbLayerTableRecord
  2
DEFAULT_1
 70
0
 62
7
  6
CENTER
370
-3
390
F
  0
LAYER
  5
1FB
100
AcDbSymbolTableRecord
100
AcDbLayerTableRecord
  2
DEFAULT_2
 70
0
 62
8
  6
HIDDEN
370
-3
390
F
  0
LAYER
  5
1FC
100
AcDbSymbolTableRecord
100
AcDbLayerTableRecord
  2
DEFAULT_3
 70
0
 62
7
  6
PHANTOM
370
-3
390
F
  0
LAYER
  5
1FD
100
AcDbSymbolTableRecord
100
AcDbLayerTableRecord
  2
BEZUGSACHSEN
 70
0
 62
7
  6
CONTINUOUS
370
-3
390
F
  0
LAYER
  5
1FE
100
AcDbSymbolTableRecord
100
AcDbLayerTableRecord
  2
BEZUGSEBENEN
 70
0
 62
7
  6
CONTINUOUS
370
-3
390
F
  0
LAYER
  5
1FF
100
AcDbSymbolTableRecord
100
AcDbLayerTableRecord
  2
FASEN
 70
0
 62
7
  6
CONTINUOUS
370
-3
390
F
  0
LAYER
  5
200
100
AcDbSymbolTableRecord
100
AcDbLayerTableRecord
  2
FLAECHEN
 70
0
 62
7
  6
CONTINUOUS
370
-3
390
F
  0
LAYER
  5
201
100
AcDbSymbolTableRecord
100
AcDbLayerTableRecord
  2
FORM_LAGE_TOLERANZEN
 70
0
 62
7
  6
CONTINUOUS
370
-3
390
F
  0
LAYER
  5
202
100
AcDbSymbolTableRecord
100
AcDbLayerTableRecord
  2
HILFEN
 70
0
 62
7
  6
CONTINUOUS
370
-3
390
F
  0
LAYER
  5
203
100
AcDbSymbolTableRecord
100
AcDbLayerTableRecord
  2
KT-AUFMASS_BEI_HARTBEARBEITUNG
 70
0
 62
7
  6
CONTINUOUS
370
-3
390
F
  0
LAYER
  5
204
100
AcDbSymbolTableRecord
100
AcDbLayerTableRecord
  2
KT-AUFMASS_BEI_WEICHBEARBEITUNG
 70
0
 62
7
  6
CONTINUOUS
370
-3
390
F
  0
LAYER
  5
205
100
AcDbSymbolTableRecord
100
AcDbLayerTableRecord
  2
KT-BASISBEMASSUNG
 70
0
 62
7
  6
CONTINUOUS
370
-3
390
F
  0
LAYER
  5
206
100
AcDbSymbolTableRecord
100
AcDbLayerTableRecord
  2
KT-BESCHRIFTUNG
 70
0
 62
7
  6
CONTINUOUS
370
-3
390
F
  0
LAYER
  5
207
100
AcDbSymbolTableRecord
100
AcDbLayerTableRecord
  2
KT-HARTBEARBEITUNG
 70
0
 62
7
  6
CONTINUOUS
370
-3
390
F
  0
LAYER
  5
208
100
AcDbSymbolTableRecord
100
AcDbLayerTableRecord
  2
KT-WEICHBEARBEITUNG
 70
0
 62
7
  6
CONTINUOUS
370
-3
390
F
  0
LAYER
  5
209
100
AcDbSymbolTableRecord
100
AcDbLayerTableRecord
  2
KURVEN
 70
0
 62
7
  6
CONTINUOUS
370
-3
390
F
  0
LAYER
  5
20A
100
AcDbSymbolTableRecord
100
AcDbLayerTableRecord
  2
PLATZIERUNG
 70
0
 62
7
  6
CONTINUOUS
370
-3
390
F
  0
LAYER
  5
20B
100
AcDbSymbolTableRecord
100
AcDbLayerTableRecord
  2
PUNKTE
 70
0
 62
7
  6
CONTINUOUS
370
-3
390
F
  0
LAYER
  5
20C
100
AcDbSymbolTableRecord
100
AcDbLayerTableRecord
  2
RUNDUNGEN
 70
0
 62
7
  6
CONTINUOUS
370
-3
390
F
  0
LAYER
  5
20D
100
AcDbSymbolTableRecord
100
AcDbLayerTableRecord
  2
TEIL_STARTBEZUEGE
 70
0
 62
7
  6
CONTINUOUS
370
-3
390
F
  0
LAYER
  5
20E
100
AcDbSymbolTableRecord
100
AcDbLayerTableRecord
  2
ZEICHNUNGSBEMASSUNGEN
 70
0
 62
7
  6
CONTINUOUS
370
-3
390
F
  0
ENDTAB
  0
TABLE
  2
STYLE
  5
3
100
AcDbSymbolTable
 70
1
  0
STYLE
  5
11
100
AcDbSymbolTableRecord
100
AcDbTextStyleTableRecord
  2
STANDARD
 70
0
 40
0.0
 41
0.7
 50
0.0
 71
0
 42
0.2
  3
txt
  4

  0
STYLE
  5
20F
100
AcDbSymbolTableRecord
100
AcDbTextStyleTableRecord
  2
TEXTSTYLE_1
 70
0
 40
0.0
 41
0.8
 50
0.0
 71
0
 42
0.2
  3
gdt
  4

  0
ENDTAB
  0
TABLE
  2
VIEW
  5
6
100
AcDbSymbolTable
 70
0
  0
ENDTAB
  0
TABLE
  2
UCS
  5
7
100
AcDbSymbolTable
 70
0
  0
ENDTAB
  0
TABLE
  2
APPID
  5
9
100
AcDbSymbolTable
 70
1
  0
APPID
  5
210
100
AcDbSymbolTableRecord
100
AcDbRegAppTableRecord
  2
ACAD
 70
0
  0
ENDTAB
  0
TABLE
  2
BLOCK_RECORD
  5
1
100
AcDbSymbolTable
 70
0
  0
BLOCK_RECORD
  5
211
100
AcDbSymbolTableRecord
100
AcDbBlockTableRecord
  2
*Model_Space
  0
BLOCK_RECORD
  5
212
100
AcDbSymbolTableRecord
100
AcDbBlockTableRecord
  2
*Paper_Space
  0
ENDTAB
  0
TABLE
  2
DIMSTYLE
  5
A
100
AcDbSymbolTable
 70
1
100
AcDbDimStyleTable
 71
0
  0
DIMSTYLE
105
213
100
AcDbSymbolTableRecord
100
AcDbDimStyleTableRecord
  2
STANDARD
 70
0
  3

  4

 40
1.0
 41
3.5
 42
0.0625
 43
0.38
 44
0.18
 45
0.0
 46
0.0
 47
0.005
 48
0.005
140
3.5
141
0.09
142
0.0
143
25.4
144
1.0
145
0.0
146
1.0
147
0.09
 71
1.0
 72
0.0
 73
0
 74
0
 75
0
 76
0
 77
1
 78
8
170
0
171
2
172
0
173
0
174
0
175
0
176
0
177
0
178
5
270
2
271
3
272
3
273
2
274
2
275
0
280
0
281
0
282
0
283
1
284
8
285
0
286
0
287
3
288
0
340
11
  0
ENDTAB
  0
ENDSEC
  0
SECTION
  2
BLOCKS
  0
BLOCK
  5
20
100
AcDbEntity
  8
0
100
AcDbBlockBegin
  2
*Model_Space
 70
0
 10
0.0
 20
0.0
 30
0.0
  3
*Model_Space
  1

  0
ENDBLK
  5
21
100
AcDbEntity
  8
0
100
AcDbBlockEnd
  0
BLOCK
  5
1C
100
AcDbEntity
  8
0
100
AcDbBlockBegin
  2
*Paper_Space
 70
0
 10
0.0
 20
0.0
 30
0.0
  3
*Paper_Space
  1

  0
ENDBLK
  5
1D
100
AcDbEntity
  8
0
100
AcDbBlockEnd
  0
ENDSEC
  0
SECTION
  2
ENTITIES
  0
LINE
  5
214
100
AcDbEntity
  8
0
100
AcDbLine
 62
7
  6
CONTINUOUS
 10
107.8164649416
 20
111.1642372705
 11
107.8164649416
 21
101.7642372705
  0
LINE
  5
215
100
AcDbEntity
  8
0
100
AcDbLine
 62
7
  6
CONTINUOUS
 10
108.1164649416
 20
111.4642372705
 11
108.1164649416
 21
101.4642372705
  0
LINE
  5
216
100
AcDbEntity
  8
0
100
AcDbLine
 62
7
  6
CONTINUOUS
 10
107.8164649416
 20
111.1642372705
 11
108.1164649416
 21
111.4642372705
  0
LINE
  5
217
100
AcDbEntity
  8
0
100
AcDbLine
 62
7
  6
CONTINUOUS
 10
107.8164649416
 20
101.7642372705
 11
108.1164649416
 21
101.4642372705
  0
LINE
  5
218
100
AcDbEntity
  8
0
100
AcDbLine
 62
7
  6
CONTINUOUS
 10
129.8164649416
 20
111.4642372705
 11
129.8164649416
 21
101.4642372705
  0
LINE
  5
219
100
AcDbEntity
  8
0
100
AcDbLine
 62
7
  6
CONTINUOUS
 10
131.2342853965
 20
111.2142372705
 11
131.2342853965
 21
101.7142372705
  0
LINE
  5
21A
100
AcDbEntity
  8
0
100
AcDbLine
 62
9
  6
CONTINUOUS
 10
138.3164649416
 20
111.2142372705
 11
138.3164649416
 21
101.7142372705
  0
LINE
  5
21B
100
AcDbEntity
  8
0
100
AcDbLine
 62
7
  6
CONTINUOUS
 10
167.1345292495
 20
101.4642372705
 11
140.3164649416
 21
101.4642372705
  0
LINE
  5
21C
100
AcDbEntity
  8
0
100
AcDbLine
 62
7
  6
CONTINUOUS
 10
129.8164649416
 20
101.4642372705
 11
108.1164649416
 21
101.4642372705
  0
LINE
  5
21D
100
AcDbEntity
  8
0
100
AcDbLine
 62
7
  6
CONTINUOUS
 10
169.7838134202
 20
101.4642372705
 11
174.4199708432
 21
101.4642372705
  0
LINE
  5
21E
100
AcDbEntity
  8
0
100
AcDbLine
 62
7
  6
CONTINUOUS
 10
177.0692429625
 20
101.4642372705
 11
179.9164649416
 21
101.4642372705
  0
LINE
  5
21F
100
AcDbEntity
  8
0
100
AcDbLine
 62
7
  6
CONTINUOUS
 10
138.3164649416
 20
101.7142372705
 11
131.2342853965
 21
101.7142372705
  0
LINE
  5
220
100
AcDbEntity
  8
0
100
AcDbLine
 62
7
  6
CONTINUOUS
 10
140.3164649416
 20
111.4642372705
 11
140.3164649416
 21
101.4642372705
  0
LINE
  5
221
100
AcDbEntity
  8
0
100
AcDbLine
 62
7
  6
CONTINUOUS
 10
131.2342853965
 20
101.7142372705
 11
129.8164649416
 21
101.4642372705
  0
LINE
  5
222
100
AcDbEntity
  8
0
100
AcDbLine
 62
7
  6
CONTINUOUS
 10
131.2342853965
 20
111.2142372705
 11
129.8164649416
 21
111.4642372705
  0
LINE
  5
223
100
AcDbEntity
  8
0
100
AcDbLine
 62
7
  6
CONTINUOUS
 10
138.3164649416
 20
111.2142372705
 11
131.2342853965
 21
111.2142372705
  0
LINE
  5
224
100
AcDbEntity
  8
0
100
AcDbLine
 62
7
  6
CONTINUOUS
 10
170.7772407934
 20
111.4642372705
 11
166.1412387562
 21
111.4642372705
  0
LINE
  5
225
100
AcDbEntity
  8
BEZUGSACHSEN
100
AcDbLine
 62
7
  6
CONTINUOUS
 10
163.5308971993
 20
111.4642372705
 11
140.3164649416
 21
111.4642372705
  0
LINE
  5
226
100
AcDbEntity
  8
0
100
AcDbLine
 62
7
  6
CONTINUOUS
 10
129.8164649416
 20
111.4642372705
 11
108.1164649416
 21
111.4642372705
  0
LINE
  5
227
100
AcDbEntity
  8
0
100
AcDbLine
 62
7
  6
CONTINUOUS
 10
140.3164649416
 20
111.4642372705
 11
163.5308971993
 21
111.4642372705
  0
LINE
  5
228
100
AcDbEntity
  8
0
100
AcDbLine
 62
7
  6
CONTINUOUS
 10
173.4265301538
 20
111.4642372705
 11
178.0626769776
 21
111.4642372705
  0
LINE
  5
229
100
AcDbEntity
  8
FASEN
100
AcDbLine
 62
7
  6
CONTINUOUS
 10
180.8164649416
 20
102.3642372705
 11
179.9164649416
 21
101.4642372705
  0
LINE
  5
22A
100
AcDbEntity
  8
FASEN
100
AcDbLine
 62
7
  6
CONTINUOUS
 10
180.8164649416
 20
110.5642372705
 11
180.2374578225
 21
111.1432443895
  0
LINE
  5
22B
100
AcDbEntity
  8
0
100
AcDbLine
 62
7
  6
CONTINUOUS
 10
180.2374578225
 20
111.1432443895
 11
180.8164649416
 21
110.5642372705
  0
LINE
  5
22C
100
AcDbEntity
  8
0
100
AcDbLine
 62
7
  6
CONTINUOUS
 10
179.9164649416
 20
101.4642372705
 11
179.9164649416
 21
102.1109935079
  0
LINE
  5
22D
100
AcDbEntity
  8
0
100
AcDbLine
 62
7
  6
CONTINUOUS
 10
179.9164649416
 20
105.0109670378
 11
179.9164649416
 21
110.7708712545
  0
LINE
  5
22E
100
AcDbEntity
  8
FASEN
100
AcDbLine
 62
7
  6
CONTINUOUS
 10
180.8164649416
 20
102.3642372705
 11
180.8164649416
 21
110.5642372705
  0
ARC
  5
22F
100
AcDbEntity
  8
0
100
AcDbCircle
 62
7
  6
CONTINUOUS
 10
138.3164649416
 20
93.5892372705
 40
8.125
100
AcDbArc
 50
75.7499673022
 51
90.0
  0
ARC
  5
230
100
AcDbEntity
  8
0
100
AcDbCircle
 62
7
  6
CONTINUOUS
 10
138.3164649416
 20
119.3392372705
 40
8.125
100
AcDbArc
 50
270.0
 51
284.2500326978
  0
ARC
  5
231
100
AcDbEntity
  8
BEZUGSACHSEN
100
AcDbCircle
 62
7
  6
CONTINUOUS
 10
159.7896091636
 20
99.9384760051
 40
7.4848926354
100
AcDbArc
 50
37.0949032196
 51
39.6786836842
  0
ARC
  5
232
100
AcDbEntity
  8
BEZUGSACHSEN
100
AcDbCircle
 62
9
  6
CONTINUOUS
 10
165.6912856732
 20
103.1221169617
 40
1.3365871114
100
AcDbArc
 50
96.7975697381
 51
97.274723301
  0
ARC
  5
233
100
AcDbEntity
  8
BEZUGSACHSEN
100
AcDbCircle
 62
7
  6
CONTINUOUS
 10
166.1429522553
 20
109.0032898956
 40
2.4609479714
100
AcDbArc
 50
90.0398936798
 51
98.9560247319
  0
ARC
  5
234
100
AcDbEntity
  8
BEZUGSACHSEN
100
AcDbCircle
 62
9
  6
CONTINUOUS
 10
164.749035038
 20
112.2375233837
 40
1.289553234
100
AcDbArc
 50
306.8294021281
 51
307.4451052878
  0
SPLINE
  5
235
100
AcDbEntity
  8
0
100
AcDbSpline
 62
7
  6
CONTINUOUS
 70
0
 71
3
 72
12
 73
8
 74
0
 42
0.0000001
 43
0.0000001
 44
0.0000000001
 40
0.0
 40
0.0
 40
0.0
 40
0.0
 40
0.1130924828
 40
0.2284490828
 40
0.4685423583
 40
0.7248338529
 40
1.0
 40
1.0
 40
1.0
 40
1.0
 10
163.8730890383
 20
111.4342342728
 30
0.0
 10
163.9443246689
 20
111.4230339463
 30
0.0
 10
164.0873192678
 20
111.3942047772
 30
0.0
 10
164.3746372661
 20
111.3113596603
 30
0.0
 10
164.7356218305
 20
111.1596392608
 30
0.0
 10
165.1611189442
 20
110.910555471
 30
0.0
 10
165.4338048135
 20
110.7083079192
 30
0.0
 10
165.570230051
 20
110.5979811766
 30
0.0
  0
SPLINE
  5
236
100
AcDbEntity
  8
BEZUGSACHSEN
100
AcDbSpline
 62
7
  6
CONTINUOUS
 70
0
 71
3
 72
9
 73
5
 74
0
 42
0.0000001
 43
0.0000001
 44
0.0000000001
 40
0.0
 40
0.0
 40
0.0
 40
0.0
 40
0.2432444961
 40
1.0
 40
1.0
 40
1.0
 40
1.0
 10
179.9164649416
 20
111.3340600754
 30
0.0
 10
179.8720114327
 20
111.3195751849
 30
0.0
 10
179.6907101892
 20
111.255600312
 30
0.0
 10
179.5155919356
 20
111.1745925096
 30
0.0
 10
179.3872987031
 20
111.1060493252
 30
0.0
  0
SPLINE
  5
237
100
AcDbEntity
  8
0
100
AcDbSpline
 62
7
  6
CONTINUOUS
 70
0
 71
3
 72
14
 73
10
 74
0
 42
0.0000001
 43
0.0000001
 44
0.0000000001
 40
0.0
 40
0.0
 40
0.0
 40
0.0
 40
0.2785084656
 40
0.4089845396
 40
0.534220308
 40
0.6549366645
 40
0.772059706
 40
0.8866736822
 40
1.0
 40
1.0
 40
1.0
 40
1.0
 10
172.8559382762
 20
110.5977431344
 30
0.0
 10
172.6901956398
 20
110.7317861461
 30
0.0
 10
172.4362723801
 20
110.9166705136
 30
0.0
 10
172.0817818629
 20
111.1210562116
 30
0.0
 10
171.8213931409
 20
111.2451514091
 30
0.0
 10
171.5607097081
 20
111.3425027488
 30
0.0
 10
171.2997529641
 20
111.412583794
 30
0.0
 10
171.0385836562
 20
111.4547992845
 30
0.0
 10
170.8639840811
 20
111.4642212765
 30
0.0
 10
170.7772474203
 20
111.4642276496
 30
0.0
  0
SPLINE
  5
238
100
AcDbEntity
  8
0
100
AcDbSpline
 62
7
  6
CONTINUOUS
 70
0
 71
3
 72
9
 73
5
 74
0
 42
0.0000001
 43
0.0000001
 44
0.0000000001
 40
0.0
 40
0.0
 40
0.0
 40
0.0
 40
0.2419264094
 40
1.0
 40
1.0
 40
1.0
 40
1.0
 10
180.0009441847
 20
110.7048304911
 30
0.0
 10
179.9939082487
 20
110.7098597524
 30
0.0
 10
179.9650690706
 20
110.7309887175
 30
0.0
 10
179.9371634799
 20
110.7533786276
 30
0.0
 10
179.9164649416
 20
110.7708712545
 30
0.0
  0
SPLINE
  5
239
100
AcDbEntity
  8
BEZUGSACHSEN
100
AcDbSpline
 62
7
  6
CONTINUOUS
 70
0
 71
3
 72
11
 73
7
 74
0
 42
0.0000001
 43
0.0000001
 44
0.0000000001
 40
0.0
 40
0.0
 40
0.0
 40
0.0
 40
0.2851136143
 40
0.5457169253
 40
0.783492127
 40
1.0
 40
1.0
 40
1.0
 40
1.0
 10
164.6773769277
 20
111.1755544755
 30
0.0
 10
164.7801831457
 20
111.2005691133
 30
0.0
 10
164.9761795991
 20
111.2515984843
 30
0.0
 10
165.2571672145
 20
111.3263188703
 30
0.0
 10
165.5149304906
 20
111.3892151012
 30
0.0
 10
165.680476586
 20
111.4217117807
 30
0.0
 10
165.7598408448
 20
111.4342342728
 30
0.0
  0
SPLINE
  5
23A
100
AcDbEntity
  8
0
100
AcDbSpline
 62
7
  6
CONTINUOUS
 70
0
 71
3
 72
11
 73
7
 74
0
 42
0.0000001
 43
0.0000001
 44
0.0000000001
 40
0.0
 40
0.0
 40
0.0
 40
0.0
 40
0.2395695488
 40
0.4835315432
 40
0.7358920038
 40
1.0
 40
1.0
 40
1.0
 40
1.0
 10
167.1345339351
 20
101.4642440727
 30
0.0
 10
167.2452111441
 20
101.4642405691
 30
0.0
 10
167.4688859464
 20
101.479676348
 30
0.0
 10
167.8027199206
 20
101.5487172892
 30
0.0
 10
168.1359022337
 20
101.6626709336
 30
0.0
 10
168.3519549474
 20
101.7651278276
 30
0.0
 10
168.4595696596
 20
101.8226290013
 30
0.0
  0
SPLINE
  5
23B
100
AcDbEntity
  8
0
100
AcDbSpline
 62
7
  6
CONTINUOUS
 70
0
 71
3
 72
9
 73
5
 74
0
 42
0.0000001
 43
0.0000001
 44
0.0000000001
 40
0.0
 40
0.0
 40
0.0
 40
0.0
 40
0.5045602996
 40
1.0
 40
1.0
 40
1.0
 40
1.0
 10
179.9164649416
 20
111.3340600754
 30
0.0
 10
179.9768067506
 20
111.3150501701
 30
0.0
 10
180.0928860711
 20
111.2645176241
 30
0.0
 10
180.1935310832
 20
111.1871711288
 30
0.0
 10
180.2374578225
 20
111.1432443895
 30
0.0
  0
SPLINE
  5
23C
100
AcDbEntity
  8
BEZUGSACHSEN
100
AcDbSpline
 62
7
  6
CONTINUOUS
 70
0
 71
3
 72
9
 73
5
 74
0
 42
0.0000001
 43
0.0000001
 44
0.0000000001
 40
0.0
 40
0.0
 40
0.0
 40
0.0
 40
0.5210122749
 40
1.0
 40
1.0
 40
1.0
 40
1.0
 10
163.8730890383
 20
111.4342342728
 30
0.0
 10
163.814116973
 20
111.443539182
 30
0.0
 10
163.7003939817
 20
111.4582554073
 30
0.0
 10
163.5857833394
 20
111.4642372705
 30
0.0
 10
163.5308971993
 20
111.4642372705
 30
0.0
  0
SPLINE
  5
23D
100
AcDbEntity
  8
0
100
AcDbSpline
 62
7
  6
CONTINUOUS
 70
0
 71
3
 72
13
 73
9
 74
0
 42
0.0000001
 43
0.0000001
 44
0.0000000001
 40
0.0
 40
0.0
 40
0.0
 40
0.0
 40
0.1152947886
 40
0.2316353043
 40
0.3500243765
 40
0.471368861
 40
0.7258242569
 40
1.0
 40
1.0
 40
1.0
 40
1.0
 10
178.0626780002
 20
111.464232282
 30
0.0
 10
178.1400073322
 20
111.4642302212
 30
0.0
 10
178.2954683659
 20
111.4567634491
 30
0.0
 10
178.5281571374
 20
111.4232365883
 30
0.0
 10
178.7607241182
 20
111.3675070418
 30
0.0
 10
179.0755003922
 20
111.2625348576
 30
0.0
 10
179.4705268573
 20
111.0740055542
 30
0.0
 10
179.7679604567
 20
110.8793316497
 30
0.0
 10
179.9164632103
 20
110.7708728074
 30
0.0
  0
SPLINE
  5
23E
100
AcDbEntity
  8
BEZUGSACHSEN
100
AcDbSpline
 62
7
  6
CONTINUOUS
 70
0
 71
3
 72
11
 73
7
 74
0
 42
0.0000001
 43
0.0000001
 44
0.0000000001
 40
0.0
 40
0.0
 40
0.0
 40
0.0
 40
0.2395718845
 40
0.4835267338
 40
0.7358990139
 40
1.0
 40
1.0
 40
1.0
 40
1.0
 10
173.4265301084
 20
111.4642366715
 30
0.0
 10
173.315853588
 20
111.4642364903
 30
0.0
 10
173.0921864052
 20
111.4487829108
 30
0.0
 10
172.7583524812
 20
111.379755922
 30
0.0
 10
172.4251772796
 20
111.2658029276
 30
0.0
 10
172.209117399
 20
111.1633643095
 30
0.0
 10
172.1015094239
 20
111.1058615342
 30
0.0
  0
SPLINE
  5
23F
100
AcDbEntity
  8
BEZUGSACHSEN
100
AcDbSpline
 62
7
  6
CONTINUOUS
 70
0
 71
3
 72
14
 73
10
 74
0
 42
0.0000001
 43
0.0000001
 44
0.0000000001
 40
0.0
 40
0.0
 40
0.0
 40
0.0
 40
0.1133253582
 40
0.2279437502
 40
0.3450632051
 40
0.4657843537
 40
0.5910180507
 40
0.7214947147
 40
1.0
 40
1.0
 40
1.0
 40
1.0
 10
169.7838125916
 20
101.4642373505
 30
0.0
 10
169.6970812064
 20
101.4642378574
 30
0.0
 10
169.5224873482
 20
101.4736672566
 30
0.0
 10
169.2613365411
 20
101.5159019711
 30
0.0
 10
169.0003839374
 20
101.5859608024
 30
0.0
 10
168.7397204668
 20
101.6833219277
 30
0.0
 10
168.4793288416
 20
101.8073802343
 30
0.0
 10
168.1248593609
 20
102.0117555462
 30
0.0
 10
167.8709587546
 20
102.1966376491
 30
0.0
 10
167.7052207749
 20
102.3306647989
 30
0.0
  0
SPLINE
  5
240
100
AcDbEntity
  8
0
100
AcDbSpline
 62
7
  6
CONTINUOUS
 70
0
 71
3
 72
11
 73
7
 74
0
 42
0.0000001
 43
0.0000001
 44
0.0000000001
 40
0.0
 40
0.0
 40
0.0
 40
0.0
 40
0.2395718277
 40
0.4835383009
 40
0.7358999294
 40
1.0
 40
1.0
 40
1.0
 40
1.0
 10
174.4199709385
 20
101.4642374182
 30
0.0
 10
174.5306169798
 20
101.4642380629
 30
0.0
 10
174.7542270001
 20
101.4796877036
 30
0.0
 10
175.0879757081
 20
101.5486664233
 30
0.0
 10
175.4210619098
 20
101.6625793753
 30
0.0
 10
175.6370715759
 20
101.7649560986
 30
0.0
 10
175.7446561438
 20
101.8224305481
 30
0.0
  0
SPLINE
  5
241
100
AcDbEntity
  8
0
100
AcDbSpline
 62
7
  6
CONTINUOUS
 70
0
 71
3
 72
13
 73
9
 74
0
 42
0.0000001
 43
0.0000001
 44
0.0000000001
 40
0.0
 40
0.0
 40
0.0
 40
0.0
 40
0.1133467992
 40
0.2279861861
 40
0.3451348799
 40
0.465876105
 40
0.72143147
 40
1.0
 40
1.0
 40
1.0
 40
1.0
 10
177.0692419524
 20
101.4642375025
 30
0.0
 10
176.9825113008
 20
101.4642370799
 30
0.0
 10
176.8079190625
 20
101.4736680995
 30
0.0
 10
176.5467676228
 20
101.5159053377
 30
0.0
 10
176.2858072403
 20
101.5859546403
 30
0.0
 10
175.9316399423
 20
101.7182469979
 30
0.0
 10
175.4876456693
 20
101.9554230287
 30
0.0
 10
175.1563849853
 20
102.1966208747
 30
0.0
 10
174.9906444229
 20
102.3306548039
 30
0.0
  0
SPLINE
  5
242
100
AcDbEntity
  8
BEZUGSACHSEN
100
AcDbSpline
 62
9
  6
CONTINUOUS
 70
0
 71
3
 72
9
 73
5
 74
0
 42
0.0000001
 43
0.0000001
 44
0.0000000001
 40
0.0
 40
0.0
 40
0.0
 40
0.0
 40
0.4755928497
 40
1.0
 40
1.0
 40
1.0
 40
1.0
 10
165.7598393215
 20
104.4528886177
 30
0.0
 10
165.7240442005
 20
104.4568108545
 30
0.0
 10
165.6481514124
 20
104.4596253815
 30
0.0
 10
165.572511048
 20
104.454007562
 30
0.0
 10
165.5330847555
 20
104.4493085641
 30
0.0
  0
SPLINE
  5
243
100
AcDbEntity
  8
BEZUGSACHSEN
100
AcDbSpline
 62
7
  6
CONTINUOUS
 70
0
 71
3
 72
34
 73
30
 74
0
 42
0.0000001
 43
0.0000001
 44
0.0000000001
 40
0.0
 40
0.0
 40
0.0
 40
0.0
 40
0.0571447773
 40
0.1151989684
 40
0.1742637306
 40
0.234380463
 40
0.2648482275
 40
0.2955825955
 40
0.3265826309
 40
0.3578464557
 40
0.3893691552
 40
0.4211394073
 40
0.4371404656
 40
0.4532000167
 40
0.469311328
 40
0.4854654525
 40
0.5016521588
 40
0.5178616862
 40
0.5502539422
 40
0.5826916619
 40
0.6151439689
 40
0.6475938513
 40
0.6800282947
 40
0.7124354226
 40
0.7448023079
 40
0.8093298361
 40
0.8734968709
 40
0.9371218817
 40
1.0
 40
1.0
 40
1.0
 40
1.0
 10
163.8730890383
 20
103.505585576
 30
0.0
 10
163.8071861698
 20
103.5822190628
 30
0.0
 10
163.6800784665
 20
103.7417413179
 30
0.0
 10
163.5058293371
 20
103.9963069655
 30
0.0
 10
163.3485810611
 20
104.2678500677
 30
0.0
 10
163.2357573528
 20
104.5077922067
 30
0.0
 10
163.1603839449
 20
104.7088181662
 30
0.0
 10
163.1129888402
 20
104.8650015446
 30
0.0
 10
163.0775375004
 20
105.0258285545
 30
0.0
 10
163.0577739819
 20
105.190879773
 30
0.0
 10
163.0591440586
 20
105.3586627237
 30
0.0
 10
163.0845308324
 20
105.4977084855
 30
0.0
 10
163.1240268634
 20
105.6037752161
 30
0.0
 10
163.1643891807
 20
105.6791480834
 30
0.0
 10
163.2158185401
 20
105.7478580908
 30
0.0
 10
163.2777837616
 20
105.8076083215
 30
0.0
 10
163.3487494796
 20
105.8566220313
 30
0.0
 10
163.4523282118
 20
105.9065612549
 30
0.0
 10
163.5933539808
 20
105.9405136398
 30
0.0
 10
163.7663649692
 20
105.943269665
 30
0.0
 10
163.9372026905
 20
105.9173820952
 30
0.0
 10
164.1030067143
 20
105.8696445995
 30
0.0
 10
164.2627601814
 20
105.8050074478
 30
0.0
 10
164.4161890333
 20
105.7270171837
 30
0.0
 10
164.6121861668
 20
105.6088655437
 30
0.0
 10
164.8421238991
 20
105.4396541985
 30
0.0
 10
165.0966467387
 20
105.213477194
 30
0.0
 10
165.3322630935
 20
104.9718782977
 30
0.0
 10
165.4792323252
 20
104.803019825
 30
0.0
 10
165.5502605914
 20
104.7174416768
 30
0.0
  0
SPLINE
  5
244
100
AcDbEntity
  8
BEZUGSACHSEN
100
AcDbSpline
 62
7
  6
CONTINUOUS
 70
0
 71
3
 72
17
 73
13
 74
0
 42
0.0000001
 43
0.0000001
 44
0.0000000001
 40
0.0
 40
0.0
 40
0.0
 40
0.0
 40
0.0514525484
 40
0.1032687406
 40
0.1557963985
 40
0.2093621678
 40
0.3206822349
 40
0.4391735558
 40
0.5660481434
 40
0.7018852998
 40
0.8466773347
 40
1.0
 40
1.0
 40
1.0
 40
1.0
 10
167.1345292495
 20
101.4642372705
 30
0.0
 10
167.0665247173
 20
101.4642372705
 30
0.0
 10
166.9299658829
 20
101.4700103887
 30
0.0
 10
166.7254627561
 20
101.4959181649
 30
0.0
 10
166.5210096037
 20
101.5389814013
 30
0.0
 10
166.2450668727
 20
101.6200446463
 30
0.0
 10
165.8985739881
 20
101.7657085983
 30
0.0
 10
165.4898200286
 20
102.0025943039
 30
0.0
 10
165.082235851
 20
102.3000677338
 30
0.0
 10
164.6753332053
 20
102.6537224415
 30
0.0
 10
164.2690093399
 20
103.059016581
 30
0.0
 10
164.0054876266
 20
103.3521714918
 30
0.0
 10
163.8730890383
 20
103.505585576
 30
0.0
  0
SPLINE
  5
245
100
AcDbEntity
  8
0
100
AcDbSpline
 62
7
  6
CONTINUOUS
 70
0
 71
3
 72
32
 73
28
 74
0
 42
0.0000001
 43
0.0000001
 44
0.0000000001
 40
0.0
 40
0.0
 40
0.0
 40
0.0
 40
0.0279557767
 40
0.0571772586
 40
0.0876370547
 40
0.1192829248
 40
0.1520397318
 40
0.1858132374
 40
0.2559510276
 40
0.3286663598
 40
0.4027831991
 40
0.4770530844
 40
0.5502198928
 40
0.6210838953
 40
0.6885690358
 40
0.720764044
 40
0.751806714
 40
0.7816329601
 40
0.8102034292
 40
0.8375079971
 40
0.8635674113
 40
0.8884410129
 40
0.9122281803
 40
0.9350710581
 40
0.9571593803
 40
0.9787171002
 40
1.0
 40
1.0
 40
1.0
 40
1.0
 10
165.570230051
 20
110.5979811766
 30
0.0
 10
165.6645349862
 20
110.5217170154
 30
0.0
 10
165.8528891035
 20
110.3600855645
 30
0.0
 10
166.1290743383
 20
110.0986134638
 30
0.0
 10
166.4051694185
 20
109.8142941074
 30
0.0
 10
166.6812158423
 20
109.5089540012
 30
0.0
 10
166.9572153039
 20
109.1844775151
 30
0.0
 10
167.3298878145
 20
108.7232510454
 30
0.0
 10
167.7925830347
 20
108.1122216795
 30
0.0
 10
168.3409958763
 20
107.3471235236
 30
0.0
 10
168.8894605808
 20
106.560153064
 30
0.0
 10
169.4378708147
 20
105.7707721788
 30
0.0
 10
169.9863170114
 20
104.9986041904
 30
0.0
 10
170.534782033
 20
104.262769446
 30
0.0
 10
170.9989337804
 20
103.6861833977
 30
0.0
 10
171.3728330093
 20
103.259654055
 30
0.0
 10
171.6489043373
 20
102.9649215505
 30
0.0
 10
171.9250323716
 20
102.6921512091
 30
0.0
 10
172.2012511501
 20
102.4430445621
 30
0.0
 10
172.4776281422
 20
102.219197937
 30
0.0
 10
172.7541845886
 20
102.0219866724
 30
0.0
 10
173.030995987
 20
101.8527002093
 30
0.0
 10
173.3081208617
 20
101.7124634717
 30
0.0
 10
173.5855989384
 20
101.6022215582
 30
0.0
 10
173.8634684526
 20
101.5228479961
 30
0.0
 10
174.1416070405
 20
101.4749401775
 30
0.0
 10
174.3276372245
 20
101.4642368802
 30
0.0
 10
174.4199709385
 20
101.4642374182
 30
0.0
  0
SPLINE
  5
246
100
AcDbEntity
  8
0
100
AcDbSpline
 62
7
  6
CONTINUOUS
 70
0
 71
3
 72
32
 73
28
 74
0
 42
0.0000001
 43
0.0000001
 44
0.0000000001
 40
0.0
 40
0.0
 40
0.0
 40
0.0
 40
0.0279571459
 40
0.0571793078
 40
0.0876396456
 40
0.1192864175
 40
0.15204414
 40
0.1858182451
 40
0.2559569444
 40
0.3286729966
 40
0.4027901756
 40
0.4770601696
 40
0.5502268905
 40
0.6210906899
 40
0.6885757103
 40
0.7207705324
 40
0.7518130441
 40
0.781639471
 40
0.8102102898
 40
0.8375144035
 40
0.8635735565
 40
0.8884474261
 40
0.9122357149
 40
0.9350797768
 40
0.9571633657
 40
0.9787152049
 40
1.0
 40
1.0
 40
1.0
 40
1.0
 10
174.9906444229
 20
102.3306548039
 30
0.0
 10
174.896337693
 20
102.4069203925
 30
0.0
 10
174.7079815623
 20
102.5685519501
 30
0.0
 10
174.4318115317
 20
102.8300403251
 30
0.0
 10
174.1557396691
 20
103.1143781617
 30
0.0
 10
173.8796953242
 20
103.4197168276
 30
0.0
 10
173.6036883086
 20
103.7441839468
 30
0.0
 10
173.2310311525
 20
104.2054137858
 30
0.0
 10
172.768374336
 20
104.8164547495
 30
0.0
 10
172.2199268531
 20
105.5815036334
 30
0.0
 10
171.6715211087
 20
106.3684865713
 30
0.0
 10
171.123094846
 20
107.1578228619
 30
0.0
 10
170.5746805441
 20
107.9299773865
 30
0.0
 10
170.02623424
 20
108.6657900131
 30
0.0
 10
169.5620818632
 20
109.2423438418
 30
0.0
 10
169.1882014473
 20
109.6688641198
 30
0.0
 10
168.9121418842
 20
109.9635901809
 30
0.0
 10
168.6360129987
 20
110.2363457877
 30
0.0
 10
168.3597905913
 20
110.4854316497
 30
0.0
 10
168.0834342692
 20
110.7092837586
 30
0.0
 10
167.8068909643
 20
110.9064932625
 30
0.0
 10
167.5300812274
 20
111.0757731047
 30
0.0
 10
167.2529506575
 20
111.2160040459
 30
0.0
 10
166.9754851371
 20
111.3262215321
 30
0.0
 10
166.6976769948
 20
111.4056247534
 30
0.0
 10
166.4195860236
 20
111.4535465185
 30
0.0
 10
166.2335779161
 20
111.4642372705
 30
0.0
 10
166.1412387562
 20
111.4642372705
 30
0.0
  0
SPLINE
  5
247
100
AcDbEntity
  8
0
100
AcDbSpline
 62
7
  6
CONTINUOUS
 70
0
 71
3
 72
21
 73
17
 74
0
 42
0.0000001
 43
0.0000001
 44
0.0000000001
 40
0.0
 40
0.0
 40
0.0
 40
0.0
 40
0.130885761
 40
0.2560801007
 40
0.3164288637
 40
0.3752676519
 40
0.4326618774
 40
0.4887690438
 40
0.5438849202
 40
0.5985517062
 40
0.6537435453
 40
0.7110731664
 40
0.7730950145
 40
0.8429543543
 40
0.9210369146
 40
1.0
 40
1.0
 40
1.0
 40
1.0
 10
179.9164649416
 20
105.0109670378
 30
0.0
 10
179.9672796827
 20
104.884414734
 30
0.0
 10
180.0638950533
 20
104.6356752919
 30
0.0
 10
180.1741980169
 20
104.3248922796
 30
0.0
 10
180.2513797914
 20
104.0822188244
 30
0.0
 10
180.3023745939
 20
103.9054128618
 30
0.0
 10
180.3461756573
 20
103.7312252368
 30
0.0
 10
180.381446861
 20
103.5590414076
 30
0.0
 10
180.4064568201
 20
103.3878969479
 30
0.0
 10
180.4187517117
 20
103.2162453906
 30
0.0
 10
180.4144240536
 20
103.0417641744
 30
0.0
 10
180.3878019157
 20
102.8613097739
 30
0.0
 10
180.3303120766
 20
102.6718699389
 30
0.0
 10
180.2324065735
 20
102.4750487072
 30
0.0
 10
180.093060375
 20
102.2828477878
 30
0.0
 10
179.978034662
 20
102.1655655948
 30
0.0
 10
179.9164649416
 20
102.1109935079
 30
0.0
  0
SPLINE
  5
248
100
AcDbEntity
  8
0
100
AcDbSpline
 62
7
  6
CONTINUOUS
 70
0
 71
3
 72
25
 73
21
 74
0
 42
0.0000001
 43
0.0000001
 44
0.0000000001
 40
0.0
 40
0.0
 40
0.0
 40
0.0
 40
0.1081672927
 40
0.2162196384
 40
0.3230815862
 40
0.3755674651
 40
0.4269277073
 40
0.4768109932
 40
0.5251882464
 40
0.5728777407
 40
0.5973426258
 40
0.6230070309
 40
0.6508368564
 40
0.6820257174
 40
0.7178973313
 40
0.759751479
 40
0.8086583486
 40
0.8652047529
 40
0.929251788
 40
1.0
 40
1.0
 40
1.0
 40
1.0
 10
180.2374578225
 20
111.1432443895
 30
0.0
 10
180.2623686683
 20
111.1183335437
 30
0.0
 10
180.3085698735
 20
111.0647631022
 30
0.0
 10
180.3643270928
 20
110.9750382227
 30
0.0
 10
180.3971678879
 20
110.8937375266
 30
0.0
 10
180.4125384246
 20
110.8267185791
 30
0.0
 10
180.4176351654
 20
110.7767528704
 30
0.0
 10
180.415111368
 20
110.7278460624
 30
0.0
 10
180.4033576713
 20
110.6813947041
 30
0.0
 10
180.3836575066
 20
110.6466289351
 30
0.0
 10
180.3611312891
 20
110.6238523677
 30
0.0
 10
180.3399473996
 20
110.6095362406
 30
0.0
 10
180.3142344215
 20
110.5990360119
 30
0.0
 10
180.283674262
 20
110.5932711504
 30
0.0
 10
180.2480225407
 20
110.5932251163
 30
0.0
 10
180.2071613279
 20
110.5998725197
 30
0.0
 10
180.1612035441
 20
110.6140874183
 30
0.0
 10
180.1106190672
 20
110.6364510002
 30
0.0
 10
180.0562130139
 20
110.6669939753
 30
0.0
 10
180.0196898241
 20
110.6914311764
 30
0.0
 10
180.0009441847
 20
110.7048304911
 30
0.0
  0
SPLINE
  5
249
100
AcDbEntity
  8
BEZUGSACHSEN
100
AcDbSpline
 62
7
  6
CONTINUOUS
 70
0
 71
3
 72
11
 73
7
 74
0
 42
0.0000001
 43
0.0000001
 44
0.0000000001
 40
0.0
 40
0.0
 40
0.0
 40
0.0
 40
0.2255484729
 40
0.4684442742
 40
0.7273424954
 40
1.0
 40
1.0
 40
1.0
 40
1.0
 10
167.7052207749
 20
102.3306647989
 30
0.0
 10
167.5365523744
 20
102.4670616888
 30
0.0
 10
167.2008158588
 20
102.7685356594
 30
0.0
 10
166.7170890008
 20
103.2744412725
 30
0.0
 10
166.2338274456
 20
103.8415910189
 30
0.0
 10
165.9184950915
 20
104.2441095934
 30
0.0
 10
165.7598408448
 20
104.4528919626
 30
0.0
  0
SPLINE
  5
24A
100
AcDbEntity
  8
BEZUGSACHSEN
100
AcDbSpline
 62
9
  6
CONTINUOUS
 70
0
 71
3
 72
10
 73
6
 74
0
 42
0.0000001
 43
0.0000001
 44
0.0000000001
 40
0.0
 40
0.0
 40
0.0
 40
0.0
 40
0.5051002234
 40
0.7536089541
 40
1.0
 40
1.0
 40
1.0
 40
1.0
 10
165.5220376246
 20
111.2053341958
 30
0.0
 10
165.4485541545
 20
111.1503032868
 30
0.0
 10
165.3294726853
 20
111.0796294925
 30
0.0
 10
165.1593801127
 20
111.0148011307
 30
0.0
 10
165.0719139724
 20
110.9927062659
 30
0.0
 10
165.0279245267
 20
110.9843118902
 30
0.0
  0
SPLINE
  5
24B
100
AcDbEntity
  8
BEZUGSACHSEN
100
AcDbSpline
 62
9
  6
CONTINUOUS
 70
0
 71
3
 72
9
 73
5
 74
0
 42
0.0000001
 43
0.0000001
 44
0.0000000001
 40
0.0
 40
0.0
 40
0.0
 40
0.0
 40
0.2533215607
 40
1.0
 40
1.0
 40
1.0
 40
1.0
 10
165.7598393215
 20
111.4342396227
 30
0.0
 10
165.742913608
 20
111.4135341283
 30
0.0
 10
165.6738322458
 20
111.333685677
 30
0.0
 10
165.5956685186
 20
111.2616268707
 30
0.0
 10
165.5330847555
 20
111.2137003553
 30
0.0
  0
SPLINE
  5
24C
100
AcDbEntity
  8
BEZUGSACHSEN
100
AcDbSpline
 62
7
  6
CONTINUOUS
 70
0
 71
3
 72
24
 73
20
 74
0
 42
0.0000001
 43
0.0000001
 44
0.0000000001
 40
0.0
 40
0.0
 40
0.0
 40
0.0
 40
0.073851287
 40
0.1487432763
 40
0.2989319282
 40
0.3728615096
 40
0.4451370291
 40
0.5151545165
 40
0.5823782963
 40
0.6463658846
 40
0.7067926894
 40
0.7634839865
 40
0.8164577043
 40
0.8659497171
 40
0.912465105
 40
0.9348554558
 40
0.9568172234
 40
0.9784836506
 40
1.0
 40
1.0
 40
1.0
 40
1.0
 10
179.9164649416
 20
105.0109670378
 30
0.0
 10
179.7798858015
 20
105.1988015477
 30
0.0
 10
179.5080115932
 20
105.579451856
 30
0.0
 10
178.9691662167
 20
106.3497417076
 30
0.0
 10
178.4340976214
 20
107.1229779775
 30
0.0
 10
177.892945627
 20
107.8818976407
 30
0.0
 10
177.4891476571
 20
108.4290241916
 30
0.0
 10
177.0853402182
 20
108.9497525983
 30
0.0
 10
176.6814865976
 20
109.4371203651
 30
0.0
 10
176.2774619026
 20
109.8845830016
 30
0.0
 10
175.8731753455
 20
110.2862147894
 30
0.0
 10
175.46845003
 20
110.6367217686
 30
0.0
 10
175.0628526502
 20
110.9312617855
 30
0.0
 10
174.6561506816
 20
111.1658202047
 30
0.0
 10
174.3114568474
 20
111.3100139499
 30
0.0
 10
174.0369465403
 20
111.3902543909
 30
0.0
 10
173.8335276374
 20
111.4328778535
 30
0.0
 10
173.6300579635
 20
111.4585231898
 30
0.0
 10
173.4941926859
 20
111.4642367823
 30
0.0
 10
173.4265301084
 20
111.4642366715
 30
0.0
  0
SPLINE
  5
24D
100
AcDbEntity
  8
0
100
AcDbSpline
 62
7
  6
CONTINUOUS
 70
0
 71
3
 72
22
 73
18
 74
0
 42
0.0000001
 43
0.0000001
 44
0.0000000001
 40
0.0
 40
0.0
 40
0.0
 40
0.0
 40
0.0506106125
 40
0.1050009746
 40
0.1630694018
 40
0.2245185275
 40
0.2888966014
 40
0.3556356201
 40
0.4240795654
 40
0.4935163884
 40
0.6323792655
 40
0.7003158474
 40
0.766314244
 40
0.8297460199
 40
0.8900772783
 40
0.9469082367
 40
1.0
 40
1.0
 40
1.0
 40
1.0
 10
179.9164628479
 20
102.1109901449
 30
0.0
 10
179.7638082393
 20
102.2189125279
 30
0.0
 10
179.4592421282
 20
102.4602058345
 30
0.0
 10
179.0194948851
 20
102.8725656419
 30
0.0
 10
178.5801620656
 20
103.3417456219
 30
0.0
 10
178.1410966676
 20
103.8603413176
 30
0.0
 10
177.7021326589
 20
104.4202193211
 30
0.0
 10
177.2632239739
 20
105.0125477308
 30
0.0
 10
176.8243204623
 20
105.6279380961
 30
0.0
 10
176.2391291024
 20
106.4661362845
 30
0.0
 10
175.6581829534
 20
107.3050471223
 30
0.0
 10
175.06871505
 20
108.1224000244
 30
0.0
 10
174.6297845474
 20
108.7046161327
 30
0.0
 10
174.1908115332
 20
109.2512898106
 30
0.0
 10
173.7516449495
 20
109.7537884376
 30
0.0
 10
173.312254444
 20
110.2042371543
 30
0.0
 10
173.0084268246
 20
110.4744192587
 30
0.0
 10
172.8559382762
 20
110.5977431344
 30
0.0
  0
SPLINE
  5
24E
100
AcDbEntity
  8
BEZUGSACHSEN
100
AcDbSpline
 62
9
  6
CONTINUOUS
 70
0
 71
3
 72
11
 73
7
 74
0
 42
0.0000001
 43
0.0000001
 44
0.0000000001
 40
0.0
 40
0.0
 40
0.0
 40
0.0
 40
0.2535366433
 40
0.5103809539
 40
0.7619523876
 40
1.0
 40
1.0
 40
1.0
 40
1.0
 10
164.8164649416
 20
104.2142372705
 30
0.0
 10
164.7268919266
 20
104.1692641526
 30
0.0
 10
164.5507855629
 20
104.0701348622
 30
0.0
 10
164.3018591047
 20
103.899875842
 30
0.0
 10
164.073536122
 20
103.7123341966
 30
0.0
 10
163.9359619529
 20
103.5756059969
 30
0.0
 10
163.8730905762
 20
103.5055835493
 30
0.0
  0
SPLINE
  5
24F
100
AcDbEntity
  8
BEZUGSACHSEN
100
AcDbSpline
 62
9
  6
CONTINUOUS
 70
0
 71
3
 72
11
 73
7
 74
0
 42
0.0000001
 43
0.0000001
 44
0.0000000001
 40
0.0
 40
0.0
 40
0.0
 40
0.0
 40
0.2224078444
 40
0.4653926294
 40
0.7258895522
 40
1.0
 40
1.0
 40
1.0
 40
1.0
 10
165.5220376269
 20
104.4479451084
 30
0.0
 10
165.4671456949
 20
104.4409387463
 30
0.0
 10
165.3531293183
 20
104.4193191627
 30
0.0
 10
165.1794018469
 20
104.3692038227
 30
0.0
 10
164.9982749979
 20
104.3006771768
 30
0.0
 10
164.8774152323
 20
104.2448394113
 30
0.0
 10
164.8164649337
 20
104.2142372823
 30
0.0
  0
ENDSEC
  0
SECTION
  2
OBJECTS
  0
DICTIONARY
  5
C
100
AcDbDictionary
280
0
281
1
  3
ACAD_GROUP
350
D
  3
ACAD_MLINESTYLE
350
17
  3
ACAD_LAYOUT
350
1A
  3
ACAD_PLOTSETTINGS
350
19
  3
ACAD_PLOTSTYLENAME
350
E
  0
DICTIONARY
  5
D
102
{ACAD_REACTORS
330
C
102
}
100
AcDbDictionary
280
0
281
1
  0
ACDBDICTIONARYWDFLT
  5
E
102
{ACAD_REACTORS
330
C
102
}
100
AcDbDictionary
281
1
  3
Normal
350
F
100
AcDbDictionaryWithDefault
340
F
  0
DICTIONARY
  5
17
102
{ACAD_REACTORS
330
C
102
}
100
AcDbDictionary
280
0
281
1
  3
Standard
350
18
  0
DICTIONARY
  5
19
102
{ACAD_REACTORS
330
C
102
}
100
AcDbDictionary
281
1
  0
DICTIONARY
  5
1A
102
{ACAD_REACTORS
330
C
102
}
100
AcDbDictionary
281
1
  3
Model
350
250
  3
Layout1
350
251
  0
ACDBPLACEHOLDER
  5
F
102
{ACAD_REACTORS
330
E
102
}
  0
MLINESTYLE
  5
18
102
{ACAD_REACTORS
330
17
102
}
100
AcDbMlineStyle
  2
STANDARD
 70
0
  3

 62
256
 51
90.0
 52
90.0
 71
2
 49
0.5
 62
256
  6
BYLAYER
 49
-0.5
 62
256
  6
BYLAYER
  0
LAYOUT
  5
250
102
{ACAD_REACTORS
330
1A
102
}
100
AcDbPlotSettings
  1

  2
none_device
  4
ISO_A4_(297.00_x_210.00_MM)
  6

 40
0.0
 41
0.0
 42
0.0
 43
0.0
 44
297.0
 45
210.0
 46
0.0
 47
0.0
 48
0.0
 49
0.0
140
0.0
141
0.0
142
1.0
143
1.0
 70
1024
 72
1
 73
0
 74
0
  7

 75
0
147
1.0
148
0.0
149
0.0
100
AcDbLayout
  1
Model
 70
0
 71
0
 10
0.0
 20
0.0
 11
297.0
 21
210.0
 12
0.0
 22
0.0
 32
0.0
 14
0.0
 24
0.0
 34
0.0
 15
0.0
 25
0.0
 35
0.0
146
0.0
 13
0.0
 23
0.0
 33
0.0
 16
1.0
 26
0.0
 36
0.0
 17
0.0
 27
1.0
 37
0.0
 76
0
330
211
345
0
346
0
  0
LAYOUT
  5
251
102
{ACAD_REACTORS
330
1A
102
}
100
AcDbPlotSettings
  1

  2
none_device
  4
ISO_A4_(297.00_x_210.00_MM)
  6

 40
0.0
 41
0.0
 42
0.0
 43
0.0
 44
297.0
 45
210.0
 46
0.0
 47
0.0
 48
0.0
 49
0.0
140
0.0
141
0.0
142
1.0
143
1.0
 70
0
 72
1
 73
0
 74
0
  7

 75
0
147
1.0
148
0.0
149
0.0
100
AcDbLayout
  1
Layout1
 70
0
 71
1
 10
0.0
 20
0.0
 11
297.0
 21
210.0
 12
0.0
 22
0.0
 32
0.0
 14
0.0
 24
0.0
 34
0.0
 15
0.0
 25
0.0
 35
0.0
146
0.0
 13
0.0
 23
0.0
 33
0.0
 16
1.0
 26
0.0
 36
0.0
 17
0.0
 27
1.0
 37
0.0
 76
0
330
212
345
0
346
0
  0
ENDSEC
  0
EOF
