999
DXF file: f1005lll1000caa.dxf
999
Pro/ENGINEER 2011490 by Parametric Technology Corporation
  0
SECTION
  2
HEADER
  9
$ACADVER
  1
AC1021
  9
$DWGCODEPAGE
  3
ANSI_1252
  9
$EXTMAX
 10
297.0
 20
210.0
 30
0.0
  9
$EXTMIN
 10
0.0
 20
0.0
 30
0.0
  9
$LIMMIN
 10
0.0
 20
0.0
  9
$LIMMAX
 10
297.0
 20
210.0
  9
$VIEWCTR
 10
148.5
 20
105.0
  9
$VIEWSIZE
 40
210.0
  9
$CLAYER
  8
0
  9
$LTSCALE
 40
16.335
  9
$CELTYPE
  6
BYLAYER
  9
$DIMSCALE
 40
1.0
  9
$DIMASZ
 40
3.5
  9
$DIMEXO
 40
1.85625
  9
$DIMDLI
 40
11.286
  9
$DIMEXE
 40
5.346
  9
$DIMCEN
 40
2.673
  9
$DIMLFAC
 40
1.0
  9
$DIMBLK
  1
_FILLED
  9
$DIMTXT
 40
3.5
  9
$DIMTOL
 70
1
  9
$DIMLIM
 70
0
  9
$DIMTFAC
 40
1.0
  9
$DIMTP
 40
0.005
  9
$DIMTM
 40
0.005
  9
$PDMODE
 70
3
  9
$PDSIZE
 40
0.3125
  9
$HANDSEED
  5
24F
  9
$TILEMODE
 70
1
  9
$MEASUREMENT
 70
1
  9
$INSUNITS
 70
4
  0
ENDSEC
  0
SECTION
  2
CLASSES
  0
CLASS
  1
ACDBDICTIONARYWDFLT
  2
AcDbDictionaryWithDefault
  3
AutoCAD 2000
 90
0
 91
1
280
0
281
0
  0
CLASS
  1
ACDBPLACEHOLDER
  2
AcDbPlaceHolder
  3
AutoCAD 2000
 90
0
 91
1
280
0
281
0
  0
CLASS
  1
LAYOUT
  2
AcDbLayout
  3
AutoCAD 2000
 90
0
 91
0
280
0
281
0
  0
ENDSEC
  0
SECTION
  2
TABLES
  0
TABLE
  2
VPORT
  5
8
100
AcDbSymbolTable
 70
2
  0
VPORT
  5
1F4
100
AcDbSymbolTableRecord
100
AcDbViewportTableRecord
  2
*ACTIVE
 70
0
 10
0.0
 20
0.0
 11
1.0
 21
1.0
 12
148.5
 22
105.0
 13
0.0
 23
0.0
 14
1.0
 24
1.0
 15
0.0
 25
0.0
 16
0.0
 26
0.0
 36
1.0
 17
0.0
 27
0.0
 37
0.0
 40
210.0
 41
1.4142857143
 42
50.0
 43
0.0
 44
0.0
 50
0.0
 51
0.0
 71
0
 72
100
 73
1
 74
1
 75
0
 76
0
 77
0
 78
0
  0
ENDTAB
  0
TABLE
  2
LTYPE
  5
5
100
AcDbSymbolTable
 70
6
  0
LTYPE
  5
14
100
AcDbSymbolTableRecord
100
AcDbLinetypeTableRecord
  2
BYBLOCK
 70
0
  3

 72
65
 73
0
 40
0.0
  0
LTYPE
  5
15
100
AcDbSymbolTableRecord
100
AcDbLinetypeTableRecord
  2
BYLAYER
 70
0
  3

 72
65
 73
0
 40
0.0
  0
LTYPE
  5
16
100
AcDbSymbolTableRecord
100
AcDbLinetypeTableRecord
  2
CONTINUOUS
 70
64
  3
Solid line
 72
65
 73
0
 40
0.0
  0
LTYPE
  5
1F5
100
AcDbSymbolTableRecord
100
AcDbLinetypeTableRecord
  2
CENTER
 70
64
  3
____ _ ____ _ ____ _ ____ _ ____ _ ____ _ ____
 72
65
 73
4
 40
0.6
 49
0.375
 74
0
 49
-0.075
 74
0
 49
0.075
 74
0
 49
-0.075
 74
0
  0
LTYPE
  5
1F6
100
AcDbSymbolTableRecord
100
AcDbLinetypeTableRecord
  2
HIDDEN
 70
64
  3
- - - - - - - - - - - - - - - - - - - -
 72
65
 73
2
 40
0.2
 49
0.1
 74
0
 49
-0.1
 74
0
  0
LTYPE
  5
1F7
100
AcDbSymbolTableRecord
100
AcDbLinetypeTableRecord
  2
PHANTOM
 70
64
  3
_____ _ _ _____ _ _ _____ _ _ _____
 72
65
 73
6
 40
0.8
 49
0.45
 74
0
 49
-0.05
 74
0
 49
0.1
 74
0
 49
-0.05
 74
0
 49
0.1
 74
0
 49
-0.05
 74
0
  0
LTYPE
  5
1F8
100
AcDbSymbolTableRecord
100
AcDbLinetypeTableRecord
  2
DOT
 70
64
  3
. . . . . . . . . . . . . . . . . . . .
 72
65
 73
2
 40
0.2
 49
0.1
 74
0
 49
-0.1
 74
0
  0
LTYPE
  5
1F9
100
AcDbSymbolTableRecord
100
AcDbLinetypeTableRecord
  2
DASHED
 70
64
  3
- - - - - - - - - - - - - - - - - - - -
 72
65
 73
2
 40
0.2
 49
0.1
 74
0
 49
-0.1
 74
0
  0
ENDTAB
  0
TABLE
  2
LAYER
  5
2
100
AcDbSymbolTable
 70
36
  0
LAYER
  5
10
100
AcDbSymbolTableRecord
100
AcDbLayerTableRecord
  2
0
 70
0
 62
7
  6
CONTINUOUS
370
-3
390
F
  0
LAYER
  5
1FA
100
AcDbSymbolTableRecord
100
AcDbLayerTableRecord
  2
DEFAULT_1
 70
0
 62
7
  6
CENTER
370
-3
390
F
  0
LAYER
  5
1FB
100
AcDbSymbolTableRecord
100
AcDbLayerTableRecord
  2
DEFAULT_2
 70
0
 62
8
  6
HIDDEN
370
-3
390
F
  0
LAYER
  5
1FC
100
AcDbSymbolTableRecord
100
AcDbLayerTableRecord
  2
DEFAULT_3
 70
0
 62
7
  6
PHANTOM
370
-3
390
F
  0
LAYER
  5
1FD
100
AcDbSymbolTableRecord
100
AcDbLayerTableRecord
  2
BEZUGSACHSEN
 70
0
 62
7
  6
CONTINUOUS
370
-3
390
F
  0
LAYER
  5
1FE
100
AcDbSymbolTableRecord
100
AcDbLayerTableRecord
  2
BEZUGSEBENEN
 70
0
 62
7
  6
CONTINUOUS
370
-3
390
F
  0
LAYER
  5
1FF
100
AcDbSymbolTableRecord
100
AcDbLayerTableRecord
  2
FASEN
 70
0
 62
7
  6
CONTINUOUS
370
-3
390
F
  0
LAYER
  5
200
100
AcDbSymbolTableRecord
100
AcDbLayerTableRecord
  2
FLAECHEN
 70
0
 62
7
  6
CONTINUOUS
370
-3
390
F
  0
LAYER
  5
201
100
AcDbSymbolTableRecord
100
AcDbLayerTableRecord
  2
FORM_LAGE_TOLERANZEN
 70
0
 62
7
  6
CONTINUOUS
370
-3
390
F
  0
LAYER
  5
202
100
AcDbSymbolTableRecord
100
AcDbLayerTableRecord
  2
HILFEN
 70
0
 62
7
  6
CONTINUOUS
370
-3
390
F
  0
LAYER
  5
203
100
AcDbSymbolTableRecord
100
AcDbLayerTableRecord
  2
KT-AUFMASS_BEI_HARTBEARBEITUNG
 70
0
 62
7
  6
CONTINUOUS
370
-3
390
F
  0
LAYER
  5
204
100
AcDbSymbolTableRecord
100
AcDbLayerTableRecord
  2
KT-AUFMASS_BEI_WEICHBEARBEITUNG
 70
0
 62
7
  6
CONTINUOUS
370
-3
390
F
  0
LAYER
  5
205
100
AcDbSymbolTableRecord
100
AcDbLayerTableRecord
  2
KT-BASISBEMASSUNG
 70
0
 62
7
  6
CONTINUOUS
370
-3
390
F
  0
LAYER
  5
206
100
AcDbSymbolTableRecord
100
AcDbLayerTableRecord
  2
KT-BESCHRIFTUNG
 70
0
 62
7
  6
CONTINUOUS
370
-3
390
F
  0
LAYER
  5
207
100
AcDbSymbolTableRecord
100
AcDbLayerTableRecord
  2
KT-HARTBEARBEITUNG
 70
0
 62
7
  6
CONTINUOUS
370
-3
390
F
  0
LAYER
  5
208
100
AcDbSymbolTableRecord
100
AcDbLayerTableRecord
  2
KT-KREIS
 70
0
 62
7
  6
CONTINUOUS
370
-3
390
F
  0
LAYER
  5
209
100
AcDbSymbolTableRecord
100
AcDbLayerTableRecord
  2
KT-WEICHBEARBEITUNG
 70
0
 62
7
  6
CONTINUOUS
370
-3
390
F
  0
LAYER
  5
20A
100
AcDbSymbolTableRecord
100
AcDbLayerTableRecord
  2
KURVEN
 70
0
 62
7
  6
CONTINUOUS
370
-3
390
F
  0
LAYER
  5
20B
100
AcDbSymbolTableRecord
100
AcDbLayerTableRecord
  2
PLATZIERUNG
 70
0
 62
7
  6
CONTINUOUS
370
-3
390
F
  0
LAYER
  5
20C
100
AcDbSymbolTableRecord
100
AcDbLayerTableRecord
  2
PUNKTE
 70
0
 62
7
  6
CONTINUOUS
370
-3
390
F
  0
LAYER
  5
20D
100
AcDbSymbolTableRecord
100
AcDbLayerTableRecord
  2
RUNDUNGEN
 70
0
 62
7
  6
CONTINUOUS
370
-3
390
F
  0
LAYER
  5
20E
100
AcDbSymbolTableRecord
100
AcDbLayerTableRecord
  2
TEIL_STARTBEZUEGE
 70
0
 62
7
  6
CONTINUOUS
370
-3
390
F
  0
LAYER
  5
20F
100
AcDbSymbolTableRecord
100
AcDbLayerTableRecord
  2
ZEICHNUNGSBEMASSUNGEN
 70
0
 62
7
  6
CONTINUOUS
370
-3
390
F
  0
ENDTAB
  0
TABLE
  2
STYLE
  5
3
100
AcDbSymbolTable
 70
1
  0
STYLE
  5
11
100
AcDbSymbolTableRecord
100
AcDbTextStyleTableRecord
  2
STANDARD
 70
0
 40
0.0
 41
0.7
 50
0.0
 71
0
 42
0.2
  3
txt
  4

  0
STYLE
  5
210
100
AcDbSymbolTableRecord
100
AcDbTextStyleTableRecord
  2
TEXTSTYLE_1
 70
0
 40
0.0
 41
0.8
 50
0.0
 71
0
 42
0.2
  3
gdt
  4

  0
ENDTAB
  0
TABLE
  2
VIEW
  5
6
100
AcDbSymbolTable
 70
0
  0
ENDTAB
  0
TABLE
  2
UCS
  5
7
100
AcDbSymbolTable
 70
0
  0
ENDTAB
  0
TABLE
  2
APPID
  5
9
100
AcDbSymbolTable
 70
1
  0
APPID
  5
211
100
AcDbSymbolTableRecord
100
AcDbRegAppTableRecord
  2
ACAD
 70
0
  0
ENDTAB
  0
TABLE
  2
BLOCK_RECORD
  5
1
100
AcDbSymbolTable
 70
0
  0
BLOCK_RECORD
  5
212
100
AcDbSymbolTableRecord
100
AcDbBlockTableRecord
  2
*Model_Space
  0
BLOCK_RECORD
  5
213
100
AcDbSymbolTableRecord
100
AcDbBlockTableRecord
  2
*Paper_Space
  0
ENDTAB
  0
TABLE
  2
DIMSTYLE
  5
A
100
AcDbSymbolTable
 70
1
100
AcDbDimStyleTable
 71
0
  0
DIMSTYLE
105
214
100
AcDbSymbolTableRecord
100
AcDbDimStyleTableRecord
  2
STANDARD
 70
0
  3

  4

 40
1.0
 41
3.5
 42
0.0625
 43
0.38
 44
0.18
 45
0.0
 46
0.0
 47
0.005
 48
0.005
140
3.5
141
0.09
142
0.0
143
25.4
144
1.0
145
0.0
146
1.0
147
0.09
 71
1.0
 72
0.0
 73
0
 74
0
 75
0
 76
0
 77
1
 78
8
170
0
171
2
172
0
173
0
174
0
175
0
176
0
177
0
178
5
270
2
271
3
272
3
273
2
274
2
275
0
280
0
281
0
282
0
283
1
284
8
285
0
286
0
287
3
288
0
340
11
  0
ENDTAB
  0
ENDSEC
  0
SECTION
  2
BLOCKS
  0
BLOCK
  5
20
100
AcDbEntity
  8
0
100
AcDbBlockBegin
  2
*Model_Space
 70
0
 10
0.0
 20
0.0
 30
0.0
  3
*Model_Space
  1

  0
ENDBLK
  5
21
100
AcDbEntity
  8
0
100
AcDbBlockEnd
  0
BLOCK
  5
1C
100
AcDbEntity
  8
0
100
AcDbBlockBegin
  2
*Paper_Space
 70
0
 10
0.0
 20
0.0
 30
0.0
  3
*Paper_Space
  1

  0
ENDBLK
  5
1D
100
AcDbEntity
  8
0
100
AcDbBlockEnd
  0
ENDSEC
  0
SECTION
  2
ENTITIES
  0
LINE
  5
215
100
AcDbEntity
  8
0
100
AcDbLine
 62
7
  6
CONTINUOUS
 10
92.4392737896
 20
117.2303631052
 11
92.4392737896
 21
107.8303631052
  0
LINE
  5
216
100
AcDbEntity
  8
0
100
AcDbLine
 62
7
  6
CONTINUOUS
 10
92.7392737896
 20
117.5303631052
 11
92.7392737896
 21
107.5303631052
  0
LINE
  5
217
100
AcDbEntity
  8
0
100
AcDbLine
 62
7
  6
CONTINUOUS
 10
92.4392737896
 20
117.2303631052
 11
92.7392737896
 21
117.5303631052
  0
LINE
  5
218
100
AcDbEntity
  8
0
100
AcDbLine
 62
7
  6
CONTINUOUS
 10
92.4392737896
 20
107.8303631052
 11
92.7392737896
 21
107.5303631052
  0
LINE
  5
219
100
AcDbEntity
  8
0
100
AcDbLine
 62
7
  6
CONTINUOUS
 10
122.4392737896
 20
117.5303631052
 11
122.4392737896
 21
107.5303631052
  0
LINE
  5
21A
100
AcDbEntity
  8
0
100
AcDbLine
 62
7
  6
CONTINUOUS
 10
123.8570942446
 20
117.2803631052
 11
123.8570942446
 21
107.7803631052
  0
LINE
  5
21B
100
AcDbEntity
  8
0
100
AcDbLine
 62
7
  6
CONTINUOUS
 10
123.8570942446
 20
107.7803631052
 11
122.4392737896
 21
107.5303631052
  0
LINE
  5
21C
100
AcDbEntity
  8
0
100
AcDbLine
 62
7
  6
CONTINUOUS
 10
159.7573379508
 20
107.5303631052
 11
133.9392737896
 21
107.5303631052
  0
LINE
  5
21D
100
AcDbEntity
  8
0
100
AcDbLine
 62
7
  6
CONTINUOUS
 10
122.4392737896
 20
107.5303631052
 11
92.7392737896
 21
107.5303631052
  0
LINE
  5
21E
100
AcDbEntity
  8
0
100
AcDbLine
 62
7
  6
CONTINUOUS
 10
162.4066328229
 20
107.5303631052
 11
167.042781306
 21
107.5303631052
  0
LINE
  5
21F
100
AcDbEntity
  8
0
100
AcDbLine
 62
7
  6
CONTINUOUS
 10
169.6920573389
 20
107.5303631052
 11
173.5392737896
 21
107.5303631052
  0
LINE
  5
220
100
AcDbEntity
  8
0
100
AcDbLine
 62
7
  6
CONTINUOUS
 10
132.4392737896
 20
107.7803631052
 11
123.8570942446
 21
107.7803631052
  0
LINE
  5
221
100
AcDbEntity
  8
0
100
AcDbLine
 62
9
  6
CONTINUOUS
 10
132.4392737896
 20
117.2803631052
 11
132.4392737896
 21
107.7803631052
  0
LINE
  5
222
100
AcDbEntity
  8
0
100
AcDbLine
 62
7
  6
CONTINUOUS
 10
133.9392737896
 20
117.5303631052
 11
133.9392737896
 21
107.5303631052
  0
LINE
  5
223
100
AcDbEntity
  8
0
100
AcDbLine
 62
7
  6
CONTINUOUS
 10
123.8570942446
 20
117.2803631052
 11
122.4392737896
 21
117.5303631052
  0
LINE
  5
224
100
AcDbEntity
  8
0
100
AcDbLine
 62
7
  6
CONTINUOUS
 10
132.4392737896
 20
117.2803631052
 11
123.8570942446
 21
117.2803631052
  0
LINE
  5
225
100
AcDbEntity
  8
0
100
AcDbLine
 62
7
  6
CONTINUOUS
 10
163.4000666093
 20
117.5303631052
 11
158.7640687609
 21
117.5303631052
  0
LINE
  5
226
100
AcDbEntity
  8
BEZUGSACHSEN
100
AcDbLine
 62
7
  6
CONTINUOUS
 10
156.1521639469
 20
117.5303631052
 11
133.9392737896
 21
117.5303631052
  0
LINE
  5
227
100
AcDbEntity
  8
0
100
AcDbLine
 62
7
  6
CONTINUOUS
 10
122.4392737896
 20
117.5303631052
 11
92.7392737896
 21
117.5303631052
  0
LINE
  5
228
100
AcDbEntity
  8
0
100
AcDbLine
 62
7
  6
CONTINUOUS
 10
133.9392737896
 20
117.5303631052
 11
156.1521639469
 21
117.5303631052
  0
LINE
  5
229
100
AcDbEntity
  8
0
100
AcDbLine
 62
7
  6
CONTINUOUS
 10
166.0493405446
 20
117.5303631052
 11
170.6854712854
 21
117.5303631052
  0
LINE
  5
22A
100
AcDbEntity
  8
0
100
AcDbLine
 62
7
  6
CONTINUOUS
 10
173.3347748138
 20
117.5303631052
 11
173.5392737896
 21
117.5303631052
  0
LINE
  5
22B
100
AcDbEntity
  8
FASEN
100
AcDbLine
 62
7
  6
CONTINUOUS
 10
174.4392737896
 20
108.4303631052
 11
173.5392737896
 21
107.5303631052
  0
LINE
  5
22C
100
AcDbEntity
  8
FASEN
100
AcDbLine
 62
7
  6
CONTINUOUS
 10
174.4392737896
 20
116.6303631052
 11
173.5392737896
 21
117.5303631052
  0
LINE
  5
22D
100
AcDbEntity
  8
0
100
AcDbLine
 62
7
  6
CONTINUOUS
 10
173.5392737896
 20
107.5303631052
 11
173.5392737896
 21
107.6584004928
  0
LINE
  5
22E
100
AcDbEntity
  8
0
100
AcDbLine
 62
7
  6
CONTINUOUS
 10
173.5392737896
 20
109.7802520049
 11
173.5392737896
 21
115.9399897409
  0
LINE
  5
22F
100
AcDbEntity
  8
0
100
AcDbLine
 62
7
  6
CONTINUOUS
 10
173.5392737896
 20
117.5217243258
 11
173.5392737896
 21
117.5303631052
  0
LINE
  5
230
100
AcDbEntity
  8
FASEN
100
AcDbLine
 62
7
  6
CONTINUOUS
 10
174.4392737896
 20
108.4303631052
 11
174.4392737896
 21
116.6303631052
  0
ARC
  5
231
100
AcDbEntity
  8
0
100
AcDbCircle
 62
7
  6
CONTINUOUS
 10
132.4392737896
 20
103.1553631052
 40
4.625
100
AcDbArc
 50
71.0753555839
 51
90.0
  0
ARC
  5
232
100
AcDbEntity
  8
0
100
AcDbCircle
 62
7
  6
CONTINUOUS
 10
132.4392737896
 20
121.9053631052
 40
4.625
100
AcDbArc
 50
270.0
 51
288.9246444161
  0
ARC
  5
233
100
AcDbEntity
  8
BEZUGSACHSEN
100
AcDbCircle
 62
7
  6
CONTINUOUS
 10
158.765019929
 20
115.0815263149
 40
2.448836975
100
AcDbArc
 50
90.022254612
 51
97.3329700721
  0
ARC
  5
234
100
AcDbEntity
  8
0
100
AcDbCircle
 62
7
  6
CONTINUOUS
 10
173.3346098817
 20
115.0976065808
 40
2.4327501082
100
AcDbArc
 50
85.1739605031
 51
89.9960516636
  0
SPLINE
  5
235
100
AcDbEntity
  8
0
100
AcDbSpline
 62
7
  6
CONTINUOUS
 70
0
 71
3
 72
14
 73
10
 74
0
 42
0.0000001
 43
0.0000001
 44
0.0000000001
 40
0.0
 40
0.0
 40
0.0
 40
0.0
 40
0.1423892339
 40
0.278658147
 40
0.5341876476
 40
0.6549147935
 40
0.772041945
 40
0.8866655393
 40
1.0
 40
1.0
 40
1.0
 40
1.0
 10
165.4787297769
 20
116.6638896297
 30
0.0
 10
165.3939950643
 20
116.7324092787
 30
0.0
 10
165.2245796822
 20
116.8622095261
 30
0.0
 10
164.8854000614
 20
117.0906578736
 30
0.0
 10
164.5376788756
 20
117.2763269105
 30
0.0
 10
164.1835315996
 20
117.4086556414
 30
0.0
 10
163.9225486105
 20
117.4786680915
 30
0.0
 10
163.6613967653
 20
117.5209266974
 30
0.0
 10
163.4867955217
 20
117.5303778795
 30
0.0
 10
163.4000593875
 20
117.5303735892
 30
0.0
  0
SPLINE
  5
236
100
AcDbEntity
  8
BEZUGSACHSEN
100
AcDbSpline
 62
7
  6
CONTINUOUS
 70
0
 71
3
 72
14
 73
10
 74
0
 42
0.0000001
 43
0.0000001
 44
0.0000000001
 40
0.0
 40
0.0
 40
0.0
 40
0.0
 40
0.2785084219
 40
0.4089873693
 40
0.5342185183
 40
0.6549400939
 40
0.7720607621
 40
0.8866714515
 40
1.0
 40
1.0
 40
1.0
 40
1.0
 10
160.3278018859
 20
108.3969731715
 30
0.0
 10
160.4935596791
 20
108.2629219414
 30
0.0
 10
160.747483227
 20
108.0779933267
 30
0.0
 10
161.1019977681
 20
107.8735835763
 30
0.0
 10
161.3624152402
 20
107.7494909923
 30
0.0
 10
161.6231107564
 20
107.6521112443
 30
0.0
 10
161.8840926363
 20
107.5820427652
 30
0.0
 10
162.1452736853
 20
107.5397918113
 30
0.0
 10
162.3198875424
 20
107.5303631052
 30
0.0
 10
162.4066328229
 20
107.5303631052
 30
0.0
  0
SPLINE
  5
237
100
AcDbEntity
  8
BEZUGSACHSEN
100
AcDbSpline
 62
7
  6
CONTINUOUS
 70
0
 71
3
 72
11
 73
7
 74
0
 42
0.0000001
 43
0.0000001
 44
0.0000000001
 40
0.0
 40
0.0
 40
0.0
 40
0.0
 40
0.2879473512
 40
0.5493239205
 40
0.7860844719
 40
1.0
 40
1.0
 40
1.0
 40
1.0
 10
157.3019818389
 20
117.2415045471
 30
0.0
 10
157.4122121
 20
117.2683725245
 30
0.0
 10
157.6216078037
 20
117.3232256873
 30
0.0
 10
157.920968302
 20
117.4027231919
 30
0.0
 10
158.1939783393
 20
117.4676125429
 30
0.0
 10
158.3689220751
 20
117.4991328802
 30
0.0
 10
158.4524617411
 20
117.510334646
 30
0.0
  0
SPLINE
  5
238
100
AcDbEntity
  8
BEZUGSACHSEN
100
AcDbSpline
 62
7
  6
CONTINUOUS
 70
0
 71
3
 72
11
 73
7
 74
0
 42
0.0000001
 43
0.0000001
 44
0.0000000001
 40
0.0
 40
0.0
 40
0.0
 40
0.0
 40
0.2742901159
 40
0.5306185281
 40
0.7712761379
 40
1.0
 40
1.0
 40
1.0
 40
1.0
 10
158.1930631881
 20
116.6640951724
 30
0.0
 10
158.0629878326
 20
116.7692878814
 30
0.0
 10
157.8030148942
 20
116.9628957539
 30
0.0
 10
157.3981313267
 20
117.2042847135
 30
0.0
 10
156.9919214289
 20
117.3831266226
 30
0.0
 10
156.7147693997
 20
117.4599642255
 30
0.0
 10
156.5777456963
 20
117.4861158977
 30
0.0
  0
SPLINE
  5
239
100
AcDbEntity
  8
0
100
AcDbSpline
 62
7
  6
CONTINUOUS
 70
0
 71
3
 72
11
 73
7
 74
0
 42
0.0000001
 43
0.0000001
 44
0.0000000001
 40
0.0
 40
0.0
 40
0.0
 40
0.0
 40
0.2640927416
 40
0.5164581366
 40
0.7604231121
 40
1.0
 40
1.0
 40
1.0
 40
1.0
 10
168.3674510231
 20
107.8885437027
 30
0.0
 10
168.2598722975
 20
107.8310676027
 30
0.0
 10
168.04385143
 20
107.728724782
 30
0.0
 10
167.7107841966
 20
107.6147738901
 30
0.0
 10
167.3770309578
 20
107.545813425
 30
0.0
 10
167.1534220863
 20
107.5303432259
 30
0.0
 10
167.0427746068
 20
107.5303533799
 30
0.0
  0
SPLINE
  5
23A
100
AcDbEntity
  8
BEZUGSACHSEN
100
AcDbSpline
 62
7
  6
CONTINUOUS
 70
0
 71
3
 72
9
 73
5
 74
0
 42
0.0000001
 43
0.0000001
 44
0.0000000001
 40
0.0
 40
0.0
 40
0.0
 40
0.0
 40
0.5252823367
 40
1.0
 40
1.0
 40
1.0
 40
1.0
 10
156.5777456963
 20
117.4861158977
 30
0.0
 10
156.503976054
 20
117.4996088744
 30
0.0
 10
156.3627313377
 20
117.5212124767
 30
0.0
 10
156.2199384034
 20
117.5303631052
 30
0.0
 10
156.1521639469
 20
117.5303631052
 30
0.0
  0
SPLINE
  5
23B
100
AcDbEntity
  8
0
100
AcDbSpline
 62
7
  6
CONTINUOUS
 70
0
 71
3
 72
11
 73
7
 74
0
 42
0.0000001
 43
0.0000001
 44
0.0000000001
 40
0.0
 40
0.0
 40
0.0
 40
0.0
 40
0.2395851353
 40
0.483555119
 40
0.7359104673
 40
1.0
 40
1.0
 40
1.0
 40
1.0
 10
159.7573418957
 20
107.5303688323
 30
0.0
 10
159.8679277447
 20
107.5303758656
 30
0.0
 10
160.0914130455
 20
107.5457785343
 30
0.0
 10
160.4249696592
 20
107.6147020783
 30
0.0
 10
160.7578759791
 20
107.7284647972
 30
0.0
 10
160.9737640651
 20
107.8307483018
 30
0.0
 10
161.0812875813
 20
107.8881715161
 30
0.0
  0
SPLINE
  5
23C
100
AcDbEntity
  8
0
100
AcDbSpline
 62
7
  6
CONTINUOUS
 70
0
 71
3
 72
11
 73
7
 74
0
 42
0.0000001
 43
0.0000001
 44
0.0000000001
 40
0.0
 40
0.0
 40
0.0
 40
0.0
 40
0.2395711894
 40
0.4835369234
 40
0.735895562
 40
1.0
 40
1.0
 40
1.0
 40
1.0
 10
173.3347775261
 20
117.5303566832
 30
0.0
 10
173.2241025
 20
117.5303541874
 30
0.0
 10
173.0004297901
 20
117.514936274
 30
0.0
 10
172.6666084933
 20
117.4458655784
 30
0.0
 10
172.3334318989
 20
117.3319361473
 30
0.0
 10
172.1173736925
 20
117.2295073909
 30
0.0
 10
172.0097673536
 20
117.1720009145
 30
0.0
  0
SPLINE
  5
23D
100
AcDbEntity
  8
0
100
AcDbSpline
 62
7
  6
CONTINUOUS
 70
0
 71
3
 72
14
 73
10
 74
0
 42
0.0000001
 43
0.0000001
 44
0.0000000001
 40
0.0
 40
0.0
 40
0.0
 40
0.0
 40
0.1133278998
 40
0.2279445734
 40
0.3450691167
 40
0.4657852269
 40
0.5910227023
 40
0.72150127
 40
1.0
 40
1.0
 40
1.0
 40
1.0
 10
170.6854801306
 20
117.5303469569
 30
0.0
 10
170.7722093264
 20
117.5303460077
 30
0.0
 10
170.946796635
 20
117.5209451054
 30
0.0
 10
171.2079408316
 20
117.4787083104
 30
0.0
 10
171.4688753604
 20
117.4086423091
 30
0.0
 10
171.7295419981
 20
117.3113180544
 30
0.0
 10
171.9899081436
 20
117.1872338557
 30
0.0
 10
172.3443526586
 20
116.9828611652
 30
0.0
 10
172.5982767108
 20
116.7980417743
 30
0.0
 10
172.7639991853
 20
116.6640195886
 30
0.0
  0
SPLINE
  5
23E
100
AcDbEntity
  8
BEZUGSACHSEN
100
AcDbSpline
 62
7
  6
CONTINUOUS
 70
0
 71
3
 72
11
 73
7
 74
0
 42
0.0000001
 43
0.0000001
 44
0.0000000001
 40
0.0
 40
0.0
 40
0.0
 40
0.0
 40
0.239557528
 40
0.4835311641
 40
0.735890625
 40
1.0
 40
1.0
 40
1.0
 40
1.0
 10
166.0493386886
 20
117.5303630083
 30
0.0
 10
165.9386559741
 20
117.5303635276
 30
0.0
 10
165.7149621445
 20
117.5148972166
 30
0.0
 10
165.3810895759
 20
117.4458774975
 30
0.0
 10
165.0478809795
 20
117.3318743358
 30
0.0
 10
164.831796521
 20
117.2294292612
 30
0.0
 10
164.7241749892
 20
117.1719136286
 30
0.0
  0
SPLINE
  5
23F
100
AcDbEntity
  8
0
100
AcDbSpline
 62
7
  6
CONTINUOUS
 70
0
 71
3
 72
15
 73
11
 74
0
 42
0.0000001
 43
0.0000001
 44
0.0000000001
 40
0.0
 40
0.0
 40
0.0
 40
0.0
 40
0.1133147494
 40
0.2279150215
 40
0.3450207259
 40
0.4657141117
 40
0.5909319317
 40
0.7213985689
 40
0.8576330003
 40
1.0
 40
1.0
 40
1.0
 40
1.0
 10
169.6920583059
 20
107.5303633823
 30
0.0
 10
169.6053206121
 20
107.5303633047
 30
0.0
 10
169.4307194517
 20
107.5397922885
 30
0.0
 10
169.1695583577
 20
107.5820332466
 30
0.0
 10
168.9086039702
 20
107.6520819436
 30
0.0
 10
168.6479454977
 20
107.7494723156
 30
0.0
 10
168.3875595634
 20
107.8735298189
 30
0.0
 10
168.1274105049
 20
108.0234834767
 30
0.0
 10
167.8675140699
 20
108.1985139684
 30
0.0
 10
167.6981310773
 20
108.3283055002
 30
0.0
 10
167.6133949901
 20
108.3968296456
 30
0.0
  0
SPLINE
  5
240
100
AcDbEntity
  8
0
100
AcDbSpline
 62
7
  6
CONTINUOUS
 70
0
 71
3
 72
26
 73
22
 74
0
 42
0.0000001
 43
0.0000001
 44
0.0000000001
 40
0.0
 40
0.0
 40
0.0
 40
0.0
 40
0.1122309503
 40
0.2297137939
 40
0.2904821243
 40
0.3525193441
 40
0.4156593422
 40
0.4796211394
 40
0.5439972074
 40
0.6081909375
 40
0.6712978756
 40
0.7021189944
 40
0.7322318967
 40
0.7615054719
 40
0.7899349904
 40
0.8178694028
 40
0.8463237952
 40
0.8771462853
 40
0.9124825909
 40
0.9535213889
 40
1.0
 40
1.0
 40
1.0
 40
1.0
 10
173.5392737896
 20
117.5217243258
 30
0.0
 10
173.5922259317
 20
117.459819204
 30
0.0
 10
173.6930903057
 20
117.3265060664
 30
0.0
 10
173.8002998987
 20
117.1443811159
 30
0.0
 10
173.875437381
 20
116.9868874632
 30
0.0
 10
173.9261767805
 20
116.8617252929
 30
0.0
 10
173.9696778975
 20
116.7314113023
 30
0.0
 10
174.0046292308
 20
116.5967719633
 30
0.0
 10
174.0293072558
 20
116.4590528421
 30
0.0
 10
174.0414217924
 20
116.3202463309
 30
0.0
 10
174.0382220697
 20
116.2051082932
 30
0.0
 10
174.0248257931
 20
116.1159616873
 30
0.0
 10
174.0086539843
 20
116.0523728104
 30
0.0
 10
173.9851721615
 20
115.992877988
 30
0.0
 10
173.9528348435
 20
115.9393470591
 30
0.0
 10
173.9096927045
 20
115.8945064409
 30
0.0
 10
173.8538114916
 20
115.8626281977
 30
0.0
 10
173.7851799286
 20
115.8494067941
 30
0.0
 10
173.706922402
 20
115.8585720493
 30
0.0
 10
173.6226893379
 20
115.8895514421
 30
0.0
 10
173.5674485888
 20
115.9214336457
 30
0.0
 10
173.5392737896
 20
115.9399897409
 30
0.0
  0
SPLINE
  5
241
100
AcDbEntity
  8
BEZUGSACHSEN
100
AcDbSpline
 62
7
  6
CONTINUOUS
 70
0
 71
3
 72
33
 73
29
 74
0
 42
0.0000001
 43
0.0000001
 44
0.0000000001
 40
0.0
 40
0.0
 40
0.0
 40
0.0
 40
0.0569575097
 40
0.1147516279
 40
0.1735149538
 40
0.2333109293
 40
0.2941563603
 40
0.3249880586
 40
0.356083259
 40
0.387440218
 40
0.4190542406
 40
0.4509127967
 40
0.466956956
 40
0.4830590049
 40
0.499212263
 40
0.5154079906
 40
0.531636172
 40
0.5478872069
 40
0.580363253
 40
0.6128848355
 40
0.6454221716
 40
0.6779574716
 40
0.7104785168
 40
0.7429738563
 40
0.8078022584
 40
0.8723631604
 40
0.9364918154
 40
1.0
 40
1.0
 40
1.0
 40
1.0
 10
156.5777456962
 20
109.4776948387
 30
0.0
 10
156.5105197718
 20
109.5510577846
 30
0.0
 10
156.3806594138
 20
109.7040692283
 30
0.0
 10
156.2015336373
 20
109.9489183951
 30
0.0
 10
156.0379766163
 20
110.2103651111
 30
0.0
 10
155.8930835813
 20
110.4886701539
 30
0.0
 10
155.7933199492
 20
110.7344175827
 30
0.0
 10
155.7317836297
 20
110.9400562624
 30
0.0
 10
155.6973025746
 20
111.0995415794
 30
0.0
 10
155.6783706151
 20
111.2631271748
 30
0.0
 10
155.6803397116
 20
111.4293210218
 30
0.0
 10
155.7058843737
 20
111.5669576258
 30
0.0
 10
155.7451505627
 20
111.6719466631
 30
0.0
 10
155.7851238543
 20
111.7465839887
 30
0.0
 10
155.8359338872
 20
111.8147074947
 30
0.0
 10
155.897076008
 20
111.8740920962
 30
0.0
 10
155.9670836203
 20
111.9230004437
 30
0.0
 10
156.0693145653
 20
111.9731383049
 30
0.0
 10
156.2086849352
 20
112.007866237
 30
0.0
 10
156.3799911634
 20
112.0120009534
 30
0.0
 10
156.549373708
 20
111.9877038775
 30
0.0
 10
156.7139291059
 20
111.9416693381
 30
0.0
 10
156.872606238
 20
111.8787925584
 30
0.0
 10
157.0757049789
 20
111.777270622
 30
0.0
 10
157.3142678194
 20
111.6238357251
 30
0.0
 10
157.5779664217
 20
111.4115752716
 30
0.0
 10
157.8217440112
 20
111.1802511285
 30
0.0
 10
157.9734540053
 20
111.0166455398
 30
0.0
 10
158.0467646559
 20
110.933365937
 30
0.0
  0
SPLINE
  5
242
100
AcDbEntity
  8
BEZUGSACHSEN
100
AcDbSpline
 62
7
  6
CONTINUOUS
 70
0
 71
3
 72
15
 73
11
 74
0
 42
0.0000001
 43
0.0000001
 44
0.0000000001
 40
0.0
 40
0.0
 40
0.0
 40
0.0
 40
0.1038517604
 40
0.2104182504
 40
0.3220879592
 40
0.4406787875
 40
0.5674116869
 40
0.7029064358
 40
0.8472175489
 40
1.0
 40
1.0
 40
1.0
 40
1.0
 10
159.7573379508
 20
107.5303631052
 30
0.0
 10
159.6244123861
 20
107.5303631052
 30
0.0
 10
159.3545929102
 20
107.5528335258
 30
0.0
 10
158.9530299637
 20
107.6527206948
 30
0.0
 10
158.5528913086
 20
107.8167813984
 30
0.0
 10
158.1542900321
 20
108.0422135767
 30
0.0
 10
157.7568346078
 20
108.3256245659
 30
0.0
 10
157.3600003478
 20
108.6629914687
 30
0.0
 10
156.9637258441
 20
109.0501941169
 30
0.0
 10
156.7067842343
 20
109.3307571894
 30
0.0
 10
156.5777456962
 20
109.4776948387
 30
0.0
  0
SPLINE
  5
243
100
AcDbEntity
  8
0
100
AcDbSpline
 62
7
  6
CONTINUOUS
 70
0
 71
3
 72
23
 73
19
 74
0
 42
0.0000001
 43
0.0000001
 44
0.0000000001
 40
0.0
 40
0.0
 40
0.0
 40
0.0
 40
0.1336092511
 40
0.2569444803
 40
0.3145711821
 40
0.3694631396
 40
0.421693028
 40
0.4714845448
 40
0.5193137106
 40
0.5661170427
 40
0.6136866284
 40
0.6651233574
 40
0.7254285511
 40
0.7609937034
 40
0.8011641821
 40
0.8462254507
 40
0.8955681841
 40
1.0
 40
1.0
 40
1.0
 40
1.0
 10
173.5392737896
 20
109.7802520049
 30
0.0
 10
173.5892994957
 20
109.6863197192
 30
0.0
 10
173.6842285056
 20
109.5049977365
 30
0.0
 10
173.7955624908
 20
109.2804720477
 30
0.0
 10
173.8735601196
 20
109.1095451269
 30
0.0
 10
173.9245740584
 20
108.9886139528
 30
0.0
 10
173.968471748
 20
108.8715413583
 30
0.0
 10
174.0039282676
 20
108.7574753929
 30
0.0
 10
174.0291623508
 20
108.6450695072
 30
0.0
 10
174.0416238627
 20
108.5321766512
 30
0.0
 10
174.0370184973
 20
108.4155891947
 30
0.0
 10
174.009033592
 20
108.2910495869
 30
0.0
 10
173.9617956949
 20
108.1829116804
 30
0.0
 10
173.9070772978
 20
108.0893116918
 30
0.0
 10
173.852698696
 20
108.0098379385
 30
0.0
 10
173.7869466773
 20
107.925116904
 30
0.0
 10
173.6837790338
 20
107.8048921754
 30
0.0
 10
173.5986373991
 20
107.7166695153
 30
0.0
 10
173.5392737896
 20
107.6584004928
 30
0.0
  0
SPLINE
  5
244
100
AcDbEntity
  8
0
100
AcDbSpline
 62
7
  6
CONTINUOUS
 70
0
 71
3
 72
30
 73
26
 74
0
 42
0.0000001
 43
0.0000001
 44
0.0000000001
 40
0.0
 40
0.0
 40
0.0
 40
0.0
 40
0.0279579254
 40
0.0571803073
 40
0.1192792871
 40
0.1858070282
 40
0.2559471642
 40
0.3286644251
 40
0.4027827793
 40
0.4770538646
 40
0.5502215533
 40
0.621086396
 40
0.6885722697
 40
0.7207674408
 40
0.7518104825
 40
0.7816373656
 40
0.8102083921
 40
0.8375129187
 40
0.8635722422
 40
0.8884471626
 40
0.9122354531
 40
0.9350796581
 40
0.9571618104
 40
0.9787138732
 40
1.0
 40
1.0
 40
1.0
 40
1.0
 10
167.6133949901
 20
108.3968296456
 30
0.0
 10
167.5190868521
 20
108.4730944907
 30
0.0
 10
167.3307249953
 20
108.6347200966
 30
0.0
 10
166.954922524
 20
108.9906580682
 30
0.0
 10
166.4882370372
 20
109.4927082795
 30
0.0
 10
165.9396048488
 20
110.1583375715
 30
0.0
 10
165.3911183519
 20
110.882614718
 30
0.0
 10
164.8427004351
 20
111.6476894811
 30
0.0
 10
164.2943057775
 20
112.4346689827
 30
0.0
 10
163.745867319
 20
113.223987884
 30
0.0
 10
163.1974887483
 20
113.9961580327
 30
0.0
 10
162.6490107006
 20
114.7319367991
 30
0.0
 10
162.1848695064
 20
115.3084896345
 30
0.0
 10
161.8110008315
 20
115.7350133447
 30
0.0
 10
161.5349353126
 20
116.0297293975
 30
0.0
 10
161.2588064302
 20
116.3024793774
 30
0.0
 10
160.9825934017
 20
116.5515703487
 30
0.0
 10
160.7062354896
 20
116.7754127351
 30
0.0
 10
160.4296995745
 20
116.972632214
 30
0.0
 10
160.1528800952
 20
117.1418919415
 30
0.0
 10
159.8757571804
 20
117.2821333695
 30
0.0
 10
159.5983013122
 20
117.3923413823
 30
0.0
 10
159.3205087773
 20
117.4717580156
 30
0.0
 10
159.0424220356
 20
117.5196732833
 30
0.0
 10
158.856411601
 20
117.5303631052
 30
0.0
 10
158.7640687609
 20
117.5303631052
 30
0.0
  0
SPLINE
  5
245
100
AcDbEntity
  8
0
100
AcDbSpline
 62
7
  6
CONTINUOUS
 70
0
 71
3
 72
9
 73
5
 74
0
 42
0.0000001
 43
0.0000001
 44
0.0000000001
 40
0.0
 40
0.0
 40
0.0
 40
0.0
 40
0.4848617797
 40
1.0
 40
1.0
 40
1.0
 40
1.0
 10
172.7639991853
 20
116.6640195886
 30
0.0
 10
172.8973785355
 20
116.5561537598
 30
0.0
 10
173.1633937664
 20
116.3223634373
 30
0.0
 10
173.4136811209
 20
116.0720379175
 30
0.0
 10
173.5392853961
 20
115.9399841565
 30
0.0
  0
SPLINE
  5
246
100
AcDbEntity
  8
BEZUGSACHSEN
100
AcDbSpline
 62
7
  6
CONTINUOUS
 70
0
 71
3
 72
11
 73
7
 74
0
 42
0.0000001
 43
0.0000001
 44
0.0000000001
 40
0.0
 40
0.0
 40
0.0
 40
0.0
 40
0.2722116291
 40
0.5308281368
 40
0.7738245234
 40
1.0
 40
1.0
 40
1.0
 40
1.0
 10
158.4524617411
 20
110.4275628063
 30
0.0
 10
158.6054261315
 20
110.2281397916
 30
0.0
 10
158.9095435889
 20
109.8436542132
 30
0.0
 10
159.3755986414
 20
109.3017459188
 30
0.0
 10
159.8421018695
 20
108.8175321186
 30
0.0
 10
160.1654283411
 20
108.5282875007
 30
0.0
 10
160.3278018859
 20
108.3969731715
 30
0.0
  0
SPLINE
  5
247
100
AcDbEntity
  8
BEZUGSACHSEN
100
AcDbSpline
 62
7
  6
CONTINUOUS
 70
0
 71
3
 72
26
 73
22
 74
0
 42
0.0000001
 43
0.0000001
 44
0.0000000001
 40
0.0
 40
0.0
 40
0.0
 40
0.0
 40
0.0676797265
 40
0.1381546532
 40
0.2106588339
 40
0.2843468198
 40
0.3583299001
 40
0.4317087146
 40
0.5036057444
 40
0.5731987337
 40
0.6397569524
 40
0.7026794242
 40
0.7615427934
 40
0.7893897712
 40
0.8161723247
 40
0.866640976
 40
0.913432637
 40
0.9357307331
 40
0.9574741361
 40
0.978834842
 40
1.0
 40
1.0
 40
1.0
 40
1.0
 10
173.5392737896
 20
109.7802520049
 30
0.0
 10
173.3794102266
 20
109.9721712825
 30
0.0
 10
173.061706277
 20
110.3711474721
 30
0.0
 10
172.5964470638
 20
110.9941083579
 30
0.0
 10
172.1311308392
 20
111.644451564
 30
0.0
 10
171.6658520975
 20
112.3106390886
 30
0.0
 10
171.2006073523
 20
112.9807774369
 30
0.0
 10
170.73529457
 20
113.642820895
 30
0.0
 10
170.2700112249
 20
114.2850239299
 30
0.0
 10
169.804714607
 20
114.8959332212
 30
0.0
 10
169.3392771316
 20
115.464671833
 30
0.0
 10
168.8736477699
 20
115.981197878
 30
0.0
 10
168.4782126641
 20
116.3674823787
 30
0.0
 10
168.1604357634
 20
116.6405755084
 30
0.0
 10
167.854514202
 20
116.8792118321
 30
0.0
 10
167.4716379435
 20
117.1321413164
 30
0.0
 10
167.0725272841
 20
117.3245592329
 30
0.0
 10
166.754487818
 20
117.4316903199
 30
0.0
 10
166.5195500837
 20
117.4885128965
 30
0.0
 10
166.2845007936
 20
117.5227318096
 30
0.0
 10
166.1274507703
 20
117.5303626418
 30
0.0
 10
166.0493386886
 20
117.5303630083
 30
0.0
  0
SPLINE
  5
248
100
AcDbEntity
  8
BEZUGSACHSEN
100
AcDbSpline
 62
7
  6
CONTINUOUS
 70
0
 71
3
 72
30
 73
26
 74
0
 42
0.0000001
 43
0.0000001
 44
0.0000000001
 40
0.0
 40
0.0
 40
0.0
 40
0.0
 40
0.0212855046
 40
0.0428419548
 40
0.0649284883
 40
0.0877735287
 40
0.1115603801
 40
0.1364349002
 40
0.162494828
 40
0.1897988645
 40
0.2183701559
 40
0.248196716
 40
0.3114268041
 40
0.3789127825
 40
0.449777725
 40
0.5229454689
 40
0.5972163779
 40
0.6713342322
 40
0.744050631
 40
0.8141895089
 40
0.8807154441
 40
0.9123618202
 40
0.9428223143
 40
0.9720440349
 40
1.0
 40
1.0
 40
1.0
 40
1.0
 10
167.042781306
 20
107.5303631052
 30
0.0
 10
166.9504377535
 20
107.5303631052
 30
0.0
 10
166.7644046133
 20
107.5410600658
 30
0.0
 10
166.4862712434
 20
107.5889682679
 30
0.0
 10
166.20841861
 20
107.6683655635
 30
0.0
 10
165.9309312859
 20
107.7785719317
 30
0.0
 10
165.6538108269
 20
107.9188349348
 30
0.0
 10
165.3769907562
 20
108.0881041975
 30
0.0
 10
165.1004292146
 20
108.2853083784
 30
0.0
 10
164.8240805548
 20
108.5091851073
 30
0.0
 10
164.5478374672
 20
108.7582614385
 30
0.0
 10
164.1723776884
 20
109.1292248339
 30
0.0
 10
163.7061810562
 20
109.647459301
 30
0.0
 10
163.1575999874
 20
110.3288586004
 30
0.0
 10
162.609116498
 20
111.0647142413
 30
0.0
 10
162.0607029308
 20
111.8368914788
 30
0.0
 10
161.5122629334
 20
112.626253245
 30
0.0
 10
160.9638328393
 20
113.4132387211
 30
0.0
 10
160.4154026992
 20
114.1783465334
 30
0.0
 10
159.8669036685
 20
114.9025894433
 30
0.0
 10
159.4022836911
 20
115.4663566234
 30
0.0
 10
159.0279990266
 20
115.8804082103
 30
0.0
 10
158.7518883517
 20
116.1647134564
 30
0.0
 10
158.4757152656
 20
116.4261958489
 30
0.0
 10
158.2873668756
 20
116.587831223
 30
0.0
 10
158.1930631881
 20
116.6640951724
 30
0.0
  0
SPLINE
  5
249
100
AcDbEntity
  8
BEZUGSACHSEN
100
AcDbSpline
 62
9
  6
CONTINUOUS
 70
0
 71
3
 72
15
 73
11
 74
0
 42
0.0000001
 43
0.0000001
 44
0.0000000001
 40
0.0
 40
0.0
 40
0.0
 40
0.0
 40
0.1303466441
 40
0.2595957572
 40
0.3869989792
 40
0.5120769362
 40
0.636036216
 40
0.7589626
 40
0.879950881
 40
1.0
 40
1.0
 40
1.0
 40
1.0
 10
158.4524617411
 20
117.510334646
 30
0.0
 10
158.4266044714
 20
117.4787908446
 30
0.0
 10
158.3726106416
 20
117.4179365715
 30
0.0
 10
158.2840413856
 20
117.3351185598
 30
0.0
 10
158.1901654453
 20
117.2610503173
 30
0.0
 10
158.0918282218
 20
117.1959156874
 30
0.0
 10
157.9888896138
 20
117.1411939756
 30
0.0
 10
157.8823988076
 20
117.0970434078
 30
0.0
 10
157.7734734169
 20
117.0632378888
 30
0.0
 10
157.6994333747
 20
117.0480779305
 30
0.0
 10
157.6622964925
 20
117.0424218963
 30
0.0
  0
SPLINE
  5
24A
100
AcDbEntity
  8
0
100
AcDbSpline
 62
7
  6
CONTINUOUS
 70
0
 71
3
 72
25
 73
21
 74
0
 42
0.0000001
 43
0.0000001
 44
0.0000000001
 40
0.0
 40
0.0
 40
0.0
 40
0.0
 40
0.0220181095
 40
0.0448354092
 40
0.0685767819
 40
0.0933347079
 40
0.119173245
 40
0.1461227008
 40
0.203353603
 40
0.2648479446
 40
0.3301220503
 40
0.3984789382
 40
0.469072322
 40
0.6131204809
 40
0.6845565261
 40
0.7542786324
 40
0.8213758733
 40
0.8850613632
 40
0.944725931
 40
1.0
 40
1.0
 40
1.0
 40
1.0
 10
173.5392848294
 20
107.6584178367
 30
0.0
 10
173.4539980846
 20
107.68598191
 30
0.0
 10
173.2828635699
 20
107.7502301165
 30
0.0
 10
173.0304859806
 20
107.8702007363
 30
0.0
 10
172.778314803
 20
108.0145591114
 30
0.0
 10
172.5263250737
 20
108.1824829714
 30
0.0
 10
172.2745173099
 20
108.3731330751
 30
0.0
 10
171.9320373814
 20
108.6619905561
 30
0.0
 10
171.5060805802
 20
109.0756100927
 30
0.0
 10
171.0054048947
 20
109.63321629
 30
0.0
 10
170.505011377
 20
110.2504078349
 30
0.0
 10
170.004724088
 20
110.914513544
 30
0.0
 10
169.3332535984
 20
111.8506843472
 30
0.0
 10
168.6725596182
 20
112.8097152366
 30
0.0
 10
168.0037348436
 20
113.7587432756
 30
0.0
 10
167.5034840313
 20
114.4432604088
 30
0.0
 10
167.0031699339
 20
115.0883432715
 30
0.0
 10
166.5026532263
 20
115.6808214912
 30
0.0
 10
166.0017733172
 20
116.2085747294
 30
0.0
 10
165.6536914113
 20
116.5224091265
 30
0.0
 10
165.4787297769
 20
116.6638896297
 30
0.0
  0
SPLINE
  5
24B
100
AcDbEntity
  8
BEZUGSACHSEN
100
AcDbSpline
 62
9
  6
CONTINUOUS
 70
0
 71
3
 72
35
 73
31
 74
0
 42
0.0000001
 43
0.0000001
 44
0.0000000001
 40
0.0
 40
0.0
 40
0.0
 40
0.0
 40
0.0444694959
 40
0.0930855229
 40
0.1186859517
 40
0.145090837
 40
0.1723522845
 40
0.2005797689
 40
0.2297433147
 40
0.2596816516
 40
0.2903066835
 40
0.3215891139
 40
0.3535325887
 40
0.3861362626
 40
0.4193034716
 40
0.4529179565
 40
0.4869112405
 40
0.5212342237
 40
0.5558497606
 40
0.5906912396
 40
0.6256669245
 40
0.6607029717
 40
0.6957375617
 40
0.7307069116
 40
0.7655252217
 40
0.8001173198
 40
0.8344418606
 40
0.8684574612
 40
0.935309552
 40
1.0
 40
1.0
 40
1.0
 40
1.0
 10
158.4524617411
 20
110.4275628063
 30
0.0
 10
158.42058388
 20
110.4324158348
 30
0.0
 10
158.3531551466
 20
110.4377877187
 30
0.0
 10
158.2669758405
 20
110.43767459
 30
0.0
 10
158.1942425212
 20
110.431407041
 30
0.0
 10
158.1372932169
 20
110.4234605908
 30
0.0
 10
158.0789188271
 20
110.4124905782
 30
0.0
 10
158.0189208341
 20
110.3995115221
 30
0.0
 10
157.9573452329
 20
110.384695488
 30
0.0
 10
157.8946892239
 20
110.36710076
 30
0.0
 10
157.8313300062
 20
110.3465286773
 30
0.0
 10
157.7674271513
 20
110.3230901146
 30
0.0
 10
157.7029231377
 20
110.2972373837
 30
0.0
 10
157.6375534927
 20
110.2699003416
 30
0.0
 10
157.5716530487
 20
110.2407138898
 30
0.0
 10
157.5058255397
 20
110.2089593724
 30
0.0
 10
157.4403235037
 20
110.1746916858
 30
0.0
 10
157.3753157502
 20
110.1380048779
 30
0.0
 10
157.3104929602
 20
110.0997812987
 30
0.0
 10
157.2457299018
 20
110.0605308657
 30
0.0
 10
157.1816860364
 20
110.019537217
 30
0.0
 10
157.1188036759
 20
109.9765298077
 30
0.0
 10
157.0573524651
 20
109.9315087754
 30
0.0
 10
156.997347048
 20
109.8848467019
 30
0.0
 10
156.938249955
 20
109.8375589643
 30
0.0
 10
156.8802950834
 20
109.7895974692
 30
0.0
 10
156.8243038548
 20
109.7402249538
 30
0.0
 10
156.7530320967
 20
109.6728823619
 30
0.0
 10
156.6704622769
 20
109.5856615943
 30
0.0
 10
156.607390423
 20
109.5140473469
 30
0.0
 10
156.5777456962
 20
109.4776948387
 30
0.0
  0
SPLINE
  5
24C
100
AcDbEntity
  8
BEZUGSACHSEN
100
AcDbSpline
 62
7
  6
CONTINUOUS
 70
0
 71
3
 72
9
 73
5
 74
0
 42
0.0000001
 43
0.0000001
 44
0.0000000001
 40
0.0
 40
0.0
 40
0.0
 40
0.0
 40
0.5042640139
 40
1.0
 40
1.0
 40
1.0
 40
1.0
 10
158.0467646559
 20
110.933365937
 30
0.0
 10
158.1187964827
 20
110.8515390554
 30
0.0
 10
158.2575287068
 20
110.6856182684
 30
0.0
 10
158.3889907523
 20
110.5139172346
 30
0.0
 10
158.4524617411
 20
110.4275628063
 30
0.0
  0
ENDSEC
  0
SECTION
  2
OBJECTS
  0
DICTIONARY
  5
C
100
AcDbDictionary
280
0
281
1
  3
ACAD_GROUP
350
D
  3
ACAD_MLINESTYLE
350
17
  3
ACAD_LAYOUT
350
1A
  3
ACAD_PLOTSETTINGS
350
19
  3
ACAD_PLOTSTYLENAME
350
E
  0
DICTIONARY
  5
D
102
{ACAD_REACTORS
330
C
102
}
100
AcDbDictionary
280
0
281
1
  0
ACDBDICTIONARYWDFLT
  5
E
102
{ACAD_REACTORS
330
C
102
}
100
AcDbDictionary
281
1
  3
Normal
350
F
100
AcDbDictionaryWithDefault
340
F
  0
DICTIONARY
  5
17
102
{ACAD_REACTORS
330
C
102
}
100
AcDbDictionary
280
0
281
1
  3
Standard
350
18
  0
DICTIONARY
  5
19
102
{ACAD_REACTORS
330
C
102
}
100
AcDbDictionary
281
1
  0
DICTIONARY
  5
1A
102
{ACAD_REACTORS
330
C
102
}
100
AcDbDictionary
281
1
  3
Model
350
24D
  3
Layout1
350
24E
  0
ACDBPLACEHOLDER
  5
F
102
{ACAD_REACTORS
330
E
102
}
  0
MLINESTYLE
  5
18
102
{ACAD_REACTORS
330
17
102
}
100
AcDbMlineStyle
  2
STANDARD
 70
0
  3

 62
256
 51
90.0
 52
90.0
 71
2
 49
0.5
 62
256
  6
BYLAYER
 49
-0.5
 62
256
  6
BYLAYER
  0
LAYOUT
  5
24D
102
{ACAD_REACTORS
330
1A
102
}
100
AcDbPlotSettings
  1

  2
none_device
  4
ISO_A4_(297.00_x_210.00_MM)
  6

 40
0.0
 41
0.0
 42
0.0
 43
0.0
 44
297.0
 45
210.0
 46
0.0
 47
0.0
 48
0.0
 49
0.0
140
0.0
141
0.0
142
1.0
143
1.0
 70
1024
 72
1
 73
0
 74
0
  7

 75
0
147
1.0
148
0.0
149
0.0
100
AcDbLayout
  1
Model
 70
0
 71
0
 10
0.0
 20
0.0
 11
297.0
 21
210.0
 12
0.0
 22
0.0
 32
0.0
 14
0.0
 24
0.0
 34
0.0
 15
0.0
 25
0.0
 35
0.0
146
0.0
 13
0.0
 23
0.0
 33
0.0
 16
1.0
 26
0.0
 36
0.0
 17
0.0
 27
1.0
 37
0.0
 76
0
330
212
345
0
346
0
  0
LAYOUT
  5
24E
102
{ACAD_REACTORS
330
1A
102
}
100
AcDbPlotSettings
  1

  2
none_device
  4
ISO_A4_(297.00_x_210.00_MM)
  6

 40
0.0
 41
0.0
 42
0.0
 43
0.0
 44
297.0
 45
210.0
 46
0.0
 47
0.0
 48
0.0
 49
0.0
140
0.0
141
0.0
142
1.0
143
1.0
 70
0
 72
1
 73
0
 74
0
  7

 75
0
147
1.0
148
0.0
149
0.0
100
AcDbLayout
  1
Layout1
 70
0
 71
1
 10
0.0
 20
0.0
 11
297.0
 21
210.0
 12
0.0
 22
0.0
 32
0.0
 14
0.0
 24
0.0
 34
0.0
 15
0.0
 25
0.0
 35
0.0
146
0.0
 13
0.0
 23
0.0
 33
0.0
 16
1.0
 26
0.0
 36
0.0
 17
0.0
 27
1.0
 37
0.0
 76
0
330
213
345
0
346
0
  0
ENDSEC
  0
EOF
