999
DXF file: f1004nnl1000caa.dxf
999
Pro/ENGINEER 2011490 by Parametric Technology Corporation
  0
SECTION
  2
HEADER
  9
$ACADVER
  1
AC1021
  9
$DWGCODEPAGE
  3
ANSI_1252
  9
$EXTMAX
 10
297.0
 20
210.0
 30
0.0
  9
$EXTMIN
 10
0.0
 20
0.0
 30
0.0
  9
$LIMMIN
 10
0.0
 20
0.0
  9
$LIMMAX
 10
297.0
 20
210.0
  9
$VIEWCTR
 10
148.5
 20
105.0
  9
$VIEWSIZE
 40
210.0
  9
$CLAYER
  8
0
  9
$LTSCALE
 40
16.335
  9
$CELTYPE
  6
BYLAYER
  9
$DIMSCALE
 40
1.0
  9
$DIMASZ
 40
3.5
  9
$DIMEXO
 40
1.85625
  9
$DIMDLI
 40
11.286
  9
$DIMEXE
 40
5.346
  9
$DIMCEN
 40
2.673
  9
$DIMLFAC
 40
1.0
  9
$DIMBLK
  1
_FILLED
  9
$DIMTXT
 40
3.5
  9
$DIMTOL
 70
1
  9
$DIMLIM
 70
0
  9
$DIMTFAC
 40
1.0
  9
$DIMTP
 40
0.005
  9
$DIMTM
 40
0.005
  9
$PDMODE
 70
3
  9
$PDSIZE
 40
0.3125
  9
$HANDSEED
  5
252
  9
$TILEMODE
 70
1
  9
$MEASUREMENT
 70
1
  9
$INSUNITS
 70
4
  0
ENDSEC
  0
SECTION
  2
CLASSES
  0
CLASS
  1
ACDBDICTIONARYWDFLT
  2
AcDbDictionaryWithDefault
  3
AutoCAD 2000
 90
0
 91
1
280
0
281
0
  0
CLASS
  1
ACDBPLACEHOLDER
  2
AcDbPlaceHolder
  3
AutoCAD 2000
 90
0
 91
1
280
0
281
0
  0
CLASS
  1
LAYOUT
  2
AcDbLayout
  3
AutoCAD 2000
 90
0
 91
0
280
0
281
0
  0
ENDSEC
  0
SECTION
  2
TABLES
  0
TABLE
  2
VPORT
  5
8
100
AcDbSymbolTable
 70
2
  0
VPORT
  5
1F4
100
AcDbSymbolTableRecord
100
AcDbViewportTableRecord
  2
*ACTIVE
 70
0
 10
0.0
 20
0.0
 11
1.0
 21
1.0
 12
148.5
 22
105.0
 13
0.0
 23
0.0
 14
1.0
 24
1.0
 15
0.0
 25
0.0
 16
0.0
 26
0.0
 36
1.0
 17
0.0
 27
0.0
 37
0.0
 40
210.0
 41
1.4142857143
 42
50.0
 43
0.0
 44
0.0
 50
0.0
 51
0.0
 71
0
 72
100
 73
1
 74
1
 75
0
 76
0
 77
0
 78
0
  0
ENDTAB
  0
TABLE
  2
LTYPE
  5
5
100
AcDbSymbolTable
 70
6
  0
LTYPE
  5
14
100
AcDbSymbolTableRecord
100
AcDbLinetypeTableRecord
  2
BYBLOCK
 70
0
  3

 72
65
 73
0
 40
0.0
  0
LTYPE
  5
15
100
AcDbSymbolTableRecord
100
AcDbLinetypeTableRecord
  2
BYLAYER
 70
0
  3

 72
65
 73
0
 40
0.0
  0
LTYPE
  5
16
100
AcDbSymbolTableRecord
100
AcDbLinetypeTableRecord
  2
CONTINUOUS
 70
64
  3
Solid line
 72
65
 73
0
 40
0.0
  0
LTYPE
  5
1F5
100
AcDbSymbolTableRecord
100
AcDbLinetypeTableRecord
  2
CENTER
 70
64
  3
____ _ ____ _ ____ _ ____ _ ____ _ ____ _ ____
 72
65
 73
4
 40
0.6
 49
0.375
 74
0
 49
-0.075
 74
0
 49
0.075
 74
0
 49
-0.075
 74
0
  0
LTYPE
  5
1F6
100
AcDbSymbolTableRecord
100
AcDbLinetypeTableRecord
  2
HIDDEN
 70
64
  3
- - - - - - - - - - - - - - - - - - - -
 72
65
 73
2
 40
0.2
 49
0.1
 74
0
 49
-0.1
 74
0
  0
LTYPE
  5
1F7
100
AcDbSymbolTableRecord
100
AcDbLinetypeTableRecord
  2
PHANTOM
 70
64
  3
_____ _ _ _____ _ _ _____ _ _ _____
 72
65
 73
6
 40
0.8
 49
0.45
 74
0
 49
-0.05
 74
0
 49
0.1
 74
0
 49
-0.05
 74
0
 49
0.1
 74
0
 49
-0.05
 74
0
  0
LTYPE
  5
1F8
100
AcDbSymbolTableRecord
100
AcDbLinetypeTableRecord
  2
DOT
 70
64
  3
. . . . . . . . . . . . . . . . . . . .
 72
65
 73
2
 40
0.2
 49
0.1
 74
0
 49
-0.1
 74
0
  0
LTYPE
  5
1F9
100
AcDbSymbolTableRecord
100
AcDbLinetypeTableRecord
  2
DASHED
 70
64
  3
- - - - - - - - - - - - - - - - - - - -
 72
65
 73
2
 40
0.2
 49
0.1
 74
0
 49
-0.1
 74
0
  0
ENDTAB
  0
TABLE
  2
LAYER
  5
2
100
AcDbSymbolTable
 70
36
  0
LAYER
  5
10
100
AcDbSymbolTableRecord
100
AcDbLayerTableRecord
  2
0
 70
0
 62
7
  6
CONTINUOUS
370
-3
390
F
  0
LAYER
  5
1FA
100
AcDbSymbolTableRecord
100
AcDbLayerTableRecord
  2
DEFAULT_1
 70
0
 62
7
  6
CENTER
370
-3
390
F
  0
LAYER
  5
1FB
100
AcDbSymbolTableRecord
100
AcDbLayerTableRecord
  2
DEFAULT_2
 70
0
 62
8
  6
HIDDEN
370
-3
390
F
  0
LAYER
  5
1FC
100
AcDbSymbolTableRecord
100
AcDbLayerTableRecord
  2
DEFAULT_3
 70
0
 62
7
  6
PHANTOM
370
-3
390
F
  0
LAYER
  5
1FD
100
AcDbSymbolTableRecord
100
AcDbLayerTableRecord
  2
BEZUGSACHSEN
 70
0
 62
7
  6
CONTINUOUS
370
-3
390
F
  0
LAYER
  5
1FE
100
AcDbSymbolTableRecord
100
AcDbLayerTableRecord
  2
BEZUGSEBENEN
 70
0
 62
7
  6
CONTINUOUS
370
-3
390
F
  0
LAYER
  5
1FF
100
AcDbSymbolTableRecord
100
AcDbLayerTableRecord
  2
FASEN
 70
0
 62
7
  6
CONTINUOUS
370
-3
390
F
  0
LAYER
  5
200
100
AcDbSymbolTableRecord
100
AcDbLayerTableRecord
  2
FLAECHEN
 70
0
 62
7
  6
CONTINUOUS
370
-3
390
F
  0
LAYER
  5
201
100
AcDbSymbolTableRecord
100
AcDbLayerTableRecord
  2
FORM_LAGE_TOLERANZEN
 70
0
 62
7
  6
CONTINUOUS
370
-3
390
F
  0
LAYER
  5
202
100
AcDbSymbolTableRecord
100
AcDbLayerTableRecord
  2
HILFEN
 70
0
 62
7
  6
CONTINUOUS
370
-3
390
F
  0
LAYER
  5
203
100
AcDbSymbolTableRecord
100
AcDbLayerTableRecord
  2
KT-AUFMASS_BEI_HARTBEARBEITUNG
 70
0
 62
7
  6
CONTINUOUS
370
-3
390
F
  0
LAYER
  5
204
100
AcDbSymbolTableRecord
100
AcDbLayerTableRecord
  2
KT-AUFMASS_BEI_WEICHBEARBEITUNG
 70
0
 62
7
  6
CONTINUOUS
370
-3
390
F
  0
LAYER
  5
205
100
AcDbSymbolTableRecord
100
AcDbLayerTableRecord
  2
KT-BASISBEMASSUNG
 70
0
 62
7
  6
CONTINUOUS
370
-3
390
F
  0
LAYER
  5
206
100
AcDbSymbolTableRecord
100
AcDbLayerTableRecord
  2
KT-BESCHRIFTUNG
 70
0
 62
7
  6
CONTINUOUS
370
-3
390
F
  0
LAYER
  5
207
100
AcDbSymbolTableRecord
100
AcDbLayerTableRecord
  2
KT-HARTBEARBEITUNG
 70
0
 62
7
  6
CONTINUOUS
370
-3
390
F
  0
LAYER
  5
208
100
AcDbSymbolTableRecord
100
AcDbLayerTableRecord
  2
KT-WEICHBEARBEITUNG
 70
0
 62
7
  6
CONTINUOUS
370
-3
390
F
  0
LAYER
  5
209
100
AcDbSymbolTableRecord
100
AcDbLayerTableRecord
  2
KURVEN
 70
0
 62
7
  6
CONTINUOUS
370
-3
390
F
  0
LAYER
  5
20A
100
AcDbSymbolTableRecord
100
AcDbLayerTableRecord
  2
PLATZIERUNG
 70
0
 62
7
  6
CONTINUOUS
370
-3
390
F
  0
LAYER
  5
20B
100
AcDbSymbolTableRecord
100
AcDbLayerTableRecord
  2
PUNKTE
 70
0
 62
7
  6
CONTINUOUS
370
-3
390
F
  0
LAYER
  5
20C
100
AcDbSymbolTableRecord
100
AcDbLayerTableRecord
  2
RUNDUNGEN
 70
0
 62
7
  6
CONTINUOUS
370
-3
390
F
  0
LAYER
  5
20D
100
AcDbSymbolTableRecord
100
AcDbLayerTableRecord
  2
TEIL_STARTBEZUEGE
 70
0
 62
7
  6
CONTINUOUS
370
-3
390
F
  0
LAYER
  5
20E
100
AcDbSymbolTableRecord
100
AcDbLayerTableRecord
  2
ZEICHNUNGSBEMASSUNGEN
 70
0
 62
7
  6
CONTINUOUS
370
-3
390
F
  0
ENDTAB
  0
TABLE
  2
STYLE
  5
3
100
AcDbSymbolTable
 70
1
  0
STYLE
  5
11
100
AcDbSymbolTableRecord
100
AcDbTextStyleTableRecord
  2
STANDARD
 70
0
 40
0.0
 41
0.7
 50
0.0
 71
0
 42
0.2
  3
txt
  4

  0
STYLE
  5
20F
100
AcDbSymbolTableRecord
100
AcDbTextStyleTableRecord
  2
TEXTSTYLE_1
 70
0
 40
0.0
 41
0.8
 50
0.0
 71
0
 42
0.2
  3
gdt
  4

  0
ENDTAB
  0
TABLE
  2
VIEW
  5
6
100
AcDbSymbolTable
 70
0
  0
ENDTAB
  0
TABLE
  2
UCS
  5
7
100
AcDbSymbolTable
 70
0
  0
ENDTAB
  0
TABLE
  2
APPID
  5
9
100
AcDbSymbolTable
 70
1
  0
APPID
  5
210
100
AcDbSymbolTableRecord
100
AcDbRegAppTableRecord
  2
ACAD
 70
0
  0
ENDTAB
  0
TABLE
  2
BLOCK_RECORD
  5
1
100
AcDbSymbolTable
 70
0
  0
BLOCK_RECORD
  5
211
100
AcDbSymbolTableRecord
100
AcDbBlockTableRecord
  2
*Model_Space
  0
BLOCK_RECORD
  5
212
100
AcDbSymbolTableRecord
100
AcDbBlockTableRecord
  2
*Paper_Space
  0
ENDTAB
  0
TABLE
  2
DIMSTYLE
  5
A
100
AcDbSymbolTable
 70
1
100
AcDbDimStyleTable
 71
0
  0
DIMSTYLE
105
213
100
AcDbSymbolTableRecord
100
AcDbDimStyleTableRecord
  2
STANDARD
 70
0
  3

  4

 40
1.0
 41
3.5
 42
0.0625
 43
0.38
 44
0.18
 45
0.0
 46
0.0
 47
0.005
 48
0.005
140
3.5
141
0.09
142
0.0
143
25.4
144
1.0
145
0.0
146
1.0
147
0.09
 71
1.0
 72
0.0
 73
0
 74
0
 75
0
 76
0
 77
1
 78
8
170
0
171
2
172
0
173
0
174
0
175
0
176
0
177
0
178
5
270
2
271
3
272
3
273
2
274
2
275
0
280
0
281
0
282
0
283
1
284
8
285
0
286
0
287
3
288
0
340
11
  0
ENDTAB
  0
ENDSEC
  0
SECTION
  2
BLOCKS
  0
BLOCK
  5
20
100
AcDbEntity
  8
0
100
AcDbBlockBegin
  2
*Model_Space
 70
0
 10
0.0
 20
0.0
 30
0.0
  3
*Model_Space
  1

  0
ENDBLK
  5
21
100
AcDbEntity
  8
0
100
AcDbBlockEnd
  0
BLOCK
  5
1C
100
AcDbEntity
  8
0
100
AcDbBlockBegin
  2
*Paper_Space
 70
0
 10
0.0
 20
0.0
 30
0.0
  3
*Paper_Space
  1

  0
ENDBLK
  5
1D
100
AcDbEntity
  8
0
100
AcDbBlockEnd
  0
ENDSEC
  0
SECTION
  2
ENTITIES
  0
LINE
  5
214
100
AcDbEntity
  8
0
100
AcDbLine
 62
7
  6
CONTINUOUS
 10
95.6842132721
 20
109.9091767529
 11
95.6842132721
 21
100.5091767529
  0
LINE
  5
215
100
AcDbEntity
  8
0
100
AcDbLine
 62
7
  6
CONTINUOUS
 10
95.9842132721
 20
110.2091767529
 11
95.9842132721
 21
100.2091767529
  0
LINE
  5
216
100
AcDbEntity
  8
0
100
AcDbLine
 62
7
  6
CONTINUOUS
 10
95.6842132721
 20
109.9091767529
 11
95.9842132721
 21
110.2091767529
  0
LINE
  5
217
100
AcDbEntity
  8
0
100
AcDbLine
 62
7
  6
CONTINUOUS
 10
95.6842132721
 20
100.5091767529
 11
95.9842132721
 21
100.2091767529
  0
LINE
  5
218
100
AcDbEntity
  8
0
100
AcDbLine
 62
7
  6
CONTINUOUS
 10
117.6842132721
 20
110.2091767529
 11
117.6842132721
 21
100.2091767529
  0
LINE
  5
219
100
AcDbEntity
  8
0
100
AcDbLine
 62
7
  6
CONTINUOUS
 10
119.102033727
 20
109.9591767529
 11
119.102033727
 21
100.4591767529
  0
LINE
  5
21A
100
AcDbEntity
  8
0
100
AcDbLine
 62
9
  6
CONTINUOUS
 10
126.1842132721
 20
109.9591767529
 11
126.1842132721
 21
100.4591767529
  0
LINE
  5
21B
100
AcDbEntity
  8
0
100
AcDbLine
 62
7
  6
CONTINUOUS
 10
155.0022775801
 20
100.2091767529
 11
128.1842132721
 21
100.2091767529
  0
LINE
  5
21C
100
AcDbEntity
  8
0
100
AcDbLine
 62
7
  6
CONTINUOUS
 10
117.6842132721
 20
100.2091767529
 11
95.9842132721
 21
100.2091767529
  0
LINE
  5
21D
100
AcDbEntity
  8
0
100
AcDbLine
 62
7
  6
CONTINUOUS
 10
157.6515617507
 20
100.2091767529
 11
162.2877191738
 21
100.2091767529
  0
LINE
  5
21E
100
AcDbEntity
  8
0
100
AcDbLine
 62
7
  6
CONTINUOUS
 10
164.936991293
 20
100.2091767529
 11
167.7842132721
 21
100.2091767529
  0
LINE
  5
21F
100
AcDbEntity
  8
0
100
AcDbLine
 62
7
  6
CONTINUOUS
 10
126.1842132721
 20
100.4591767529
 11
119.102033727
 21
100.4591767529
  0
LINE
  5
220
100
AcDbEntity
  8
0
100
AcDbLine
 62
7
  6
CONTINUOUS
 10
128.1842132721
 20
110.2091767529
 11
128.1842132721
 21
100.2091767529
  0
LINE
  5
221
100
AcDbEntity
  8
0
100
AcDbLine
 62
7
  6
CONTINUOUS
 10
119.102033727
 20
100.4591767529
 11
117.6842132721
 21
100.2091767529
  0
LINE
  5
222
100
AcDbEntity
  8
0
100
AcDbLine
 62
7
  6
CONTINUOUS
 10
119.102033727
 20
109.9591767529
 11
117.6842132721
 21
110.2091767529
  0
LINE
  5
223
100
AcDbEntity
  8
0
100
AcDbLine
 62
7
  6
CONTINUOUS
 10
126.1842132721
 20
109.9591767529
 11
119.102033727
 21
109.9591767529
  0
LINE
  5
224
100
AcDbEntity
  8
0
100
AcDbLine
 62
7
  6
CONTINUOUS
 10
158.644989124
 20
110.2091767529
 11
154.0089870868
 21
110.2091767529
  0
LINE
  5
225
100
AcDbEntity
  8
BEZUGSACHSEN
100
AcDbLine
 62
7
  6
CONTINUOUS
 10
151.3986455298
 20
110.2091767529
 11
128.1842132721
 21
110.2091767529
  0
LINE
  5
226
100
AcDbEntity
  8
0
100
AcDbLine
 62
7
  6
CONTINUOUS
 10
117.6842132721
 20
110.2091767529
 11
95.9842132721
 21
110.2091767529
  0
LINE
  5
227
100
AcDbEntity
  8
0
100
AcDbLine
 62
7
  6
CONTINUOUS
 10
128.1842132721
 20
110.2091767529
 11
151.3986455298
 21
110.2091767529
  0
LINE
  5
228
100
AcDbEntity
  8
0
100
AcDbLine
 62
7
  6
CONTINUOUS
 10
161.2942784843
 20
110.2091767529
 11
165.9304253082
 21
110.2091767529
  0
LINE
  5
229
100
AcDbEntity
  8
FASEN
100
AcDbLine
 62
7
  6
CONTINUOUS
 10
168.6842132721
 20
101.1091767529
 11
167.7842132721
 21
100.2091767529
  0
LINE
  5
22A
100
AcDbEntity
  8
FASEN
100
AcDbLine
 62
7
  6
CONTINUOUS
 10
168.6842132721
 20
109.3091767529
 11
168.105206153
 21
109.888183872
  0
LINE
  5
22B
100
AcDbEntity
  8
0
100
AcDbLine
 62
7
  6
CONTINUOUS
 10
168.105206153
 20
109.888183872
 11
168.6842132721
 21
109.3091767529
  0
LINE
  5
22C
100
AcDbEntity
  8
0
100
AcDbLine
 62
7
  6
CONTINUOUS
 10
167.7842132721
 20
100.2091767529
 11
167.7842132721
 21
100.8559329904
  0
LINE
  5
22D
100
AcDbEntity
  8
0
100
AcDbLine
 62
7
  6
CONTINUOUS
 10
167.7842132721
 20
103.7559065203
 11
167.7842132721
 21
109.515810737
  0
LINE
  5
22E
100
AcDbEntity
  8
FASEN
100
AcDbLine
 62
7
  6
CONTINUOUS
 10
168.6842132721
 20
101.1091767529
 11
168.6842132721
 21
109.3091767529
  0
ARC
  5
22F
100
AcDbEntity
  8
0
100
AcDbCircle
 62
7
  6
CONTINUOUS
 10
126.1842132721
 20
92.3341767529
 40
8.125
100
AcDbArc
 50
75.7499673022
 51
90.0
  0
ARC
  5
230
100
AcDbEntity
  8
0
100
AcDbCircle
 62
7
  6
CONTINUOUS
 10
126.1842132721
 20
118.0841767529
 40
8.125
100
AcDbArc
 50
270.0
 51
284.2500326978
  0
ARC
  5
231
100
AcDbEntity
  8
BEZUGSACHSEN
100
AcDbCircle
 62
7
  6
CONTINUOUS
 10
147.6573574941
 20
98.6834154876
 40
7.4848926354
100
AcDbArc
 50
37.0949032196
 51
39.6786836842
  0
ARC
  5
232
100
AcDbEntity
  8
BEZUGSACHSEN
100
AcDbCircle
 62
9
  6
CONTINUOUS
 10
153.559034004
 20
101.8670564422
 40
1.3365871133
100
AcDbArc
 50
96.7975697383
 51
97.2747233005
  0
ARC
  5
233
100
AcDbEntity
  8
BEZUGSACHSEN
100
AcDbCircle
 62
7
  6
CONTINUOUS
 10
154.0107005858
 20
107.7482293781
 40
2.4609479714
100
AcDbArc
 50
90.0398936798
 51
98.9560247319
  0
ARC
  5
234
100
AcDbEntity
  8
BEZUGSACHSEN
100
AcDbCircle
 62
9
  6
CONTINUOUS
 10
152.6167833686
 20
110.9824628661
 40
1.289553234
100
AcDbArc
 50
306.8294021281
 51
307.4451052878
  0
SPLINE
  5
235
100
AcDbEntity
  8
0
100
AcDbSpline
 62
7
  6
CONTINUOUS
 70
0
 71
3
 72
12
 73
8
 74
0
 42
0.0000001
 43
0.0000001
 44
0.0000000001
 40
0.0
 40
0.0
 40
0.0
 40
0.0
 40
0.1130924828
 40
0.2284490828
 40
0.4685423583
 40
0.7248338529
 40
1.0
 40
1.0
 40
1.0
 40
1.0
 10
151.7408373689
 20
110.1791737553
 30
0.0
 10
151.8120729995
 20
110.1679734288
 30
0.0
 10
151.9550675984
 20
110.1391442597
 30
0.0
 10
152.2423855966
 20
110.0562991428
 30
0.0
 10
152.6033701611
 20
109.9045787433
 30
0.0
 10
153.0288672748
 20
109.6554949534
 30
0.0
 10
153.3015531441
 20
109.4532474017
 30
0.0
 10
153.4379783815
 20
109.3429206591
 30
0.0
  0
SPLINE
  5
236
100
AcDbEntity
  8
BEZUGSACHSEN
100
AcDbSpline
 62
7
  6
CONTINUOUS
 70
0
 71
3
 72
9
 73
5
 74
0
 42
0.0000001
 43
0.0000001
 44
0.0000000001
 40
0.0
 40
0.0
 40
0.0
 40
0.0
 40
0.2432444961
 40
1.0
 40
1.0
 40
1.0
 40
1.0
 10
167.7842132721
 20
110.0789995579
 30
0.0
 10
167.7397597632
 20
110.0645146674
 30
0.0
 10
167.5584585197
 20
110.0005397945
 30
0.0
 10
167.3833402662
 20
109.919531992
 30
0.0
 10
167.2550470337
 20
109.8509888077
 30
0.0
  0
SPLINE
  5
237
100
AcDbEntity
  8
0
100
AcDbSpline
 62
7
  6
CONTINUOUS
 70
0
 71
3
 72
14
 73
10
 74
0
 42
0.0000001
 43
0.0000001
 44
0.0000000001
 40
0.0
 40
0.0
 40
0.0
 40
0.0
 40
0.2785084656
 40
0.4089845396
 40
0.534220308
 40
0.6549366645
 40
0.772059706
 40
0.8866736822
 40
1.0
 40
1.0
 40
1.0
 40
1.0
 10
160.7236866067
 20
109.3426826168
 30
0.0
 10
160.5579439704
 20
109.4767256286
 30
0.0
 10
160.3040207107
 20
109.6616099961
 30
0.0
 10
159.9495301934
 20
109.865995694
 30
0.0
 10
159.6891414714
 20
109.9900908915
 30
0.0
 10
159.4284580387
 20
110.0874422313
 30
0.0
 10
159.1675012947
 20
110.1575232765
 30
0.0
 10
158.9063319867
 20
110.199738767
 30
0.0
 10
158.7317324117
 20
110.2091607589
 30
0.0
 10
158.6449957508
 20
110.2091671321
 30
0.0
  0
SPLINE
  5
238
100
AcDbEntity
  8
0
100
AcDbSpline
 62
7
  6
CONTINUOUS
 70
0
 71
3
 72
9
 73
5
 74
0
 42
0.0000001
 43
0.0000001
 44
0.0000000001
 40
0.0
 40
0.0
 40
0.0
 40
0.0
 40
0.2419264094
 40
1.0
 40
1.0
 40
1.0
 40
1.0
 10
167.8686925153
 20
109.4497699735
 30
0.0
 10
167.8616565793
 20
109.4547992349
 30
0.0
 10
167.8328174011
 20
109.4759281999
 30
0.0
 10
167.8049118105
 20
109.49831811
 30
0.0
 10
167.7842132721
 20
109.515810737
 30
0.0
  0
SPLINE
  5
239
100
AcDbEntity
  8
BEZUGSACHSEN
100
AcDbSpline
 62
7
  6
CONTINUOUS
 70
0
 71
3
 72
11
 73
7
 74
0
 42
0.0000001
 43
0.0000001
 44
0.0000000001
 40
0.0
 40
0.0
 40
0.0
 40
0.0
 40
0.2851136143
 40
0.5457169253
 40
0.783492127
 40
1.0
 40
1.0
 40
1.0
 40
1.0
 10
152.5451252582
 20
109.920493958
 30
0.0
 10
152.6479314763
 20
109.9455085958
 30
0.0
 10
152.8439279297
 20
109.9965379667
 30
0.0
 10
153.124915545
 20
110.0712583528
 30
0.0
 10
153.3826788212
 20
110.1341545837
 30
0.0
 10
153.5482249165
 20
110.1666512632
 30
0.0
 10
153.6275891753
 20
110.1791737553
 30
0.0
  0
SPLINE
  5
23A
100
AcDbEntity
  8
0
100
AcDbSpline
 62
7
  6
CONTINUOUS
 70
0
 71
3
 72
11
 73
7
 74
0
 42
0.0000001
 43
0.0000001
 44
0.0000000001
 40
0.0
 40
0.0
 40
0.0
 40
0.0
 40
0.2395695488
 40
0.4835315432
 40
0.7358920038
 40
1.0
 40
1.0
 40
1.0
 40
1.0
 10
155.0022822656
 20
100.2091835552
 30
0.0
 10
155.1129594747
 20
100.2091800515
 30
0.0
 10
155.3366342769
 20
100.2246158305
 30
0.0
 10
155.6704682511
 20
100.2936567716
 30
0.0
 10
156.0036505642
 20
100.407610416
 30
0.0
 10
156.2197032779
 20
100.5100673101
 30
0.0
 10
156.3273179902
 20
100.5675684837
 30
0.0
  0
SPLINE
  5
23B
100
AcDbEntity
  8
0
100
AcDbSpline
 62
7
  6
CONTINUOUS
 70
0
 71
3
 72
9
 73
5
 74
0
 42
0.0000001
 43
0.0000001
 44
0.0000000001
 40
0.0
 40
0.0
 40
0.0
 40
0.0
 40
0.5045602996
 40
1.0
 40
1.0
 40
1.0
 40
1.0
 10
167.7842132721
 20
110.0789995579
 30
0.0
 10
167.8445550812
 20
110.0599896526
 30
0.0
 10
167.9606344016
 20
110.0094571066
 30
0.0
 10
168.0612794138
 20
109.9321106113
 30
0.0
 10
168.105206153
 20
109.888183872
 30
0.0
  0
SPLINE
  5
23C
100
AcDbEntity
  8
BEZUGSACHSEN
100
AcDbSpline
 62
7
  6
CONTINUOUS
 70
0
 71
3
 72
9
 73
5
 74
0
 42
0.0000001
 43
0.0000001
 44
0.0000000001
 40
0.0
 40
0.0
 40
0.0
 40
0.0
 40
0.5210122749
 40
1.0
 40
1.0
 40
1.0
 40
1.0
 10
151.7408373689
 20
110.1791737553
 30
0.0
 10
151.6818653036
 20
110.1884786644
 30
0.0
 10
151.5681423122
 20
110.2031948897
 30
0.0
 10
151.45353167
 20
110.2091767529
 30
0.0
 10
151.3986455298
 20
110.2091767529
 30
0.0
  0
SPLINE
  5
23D
100
AcDbEntity
  8
0
100
AcDbSpline
 62
7
  6
CONTINUOUS
 70
0
 71
3
 72
13
 73
9
 74
0
 42
0.0000001
 43
0.0000001
 44
0.0000000001
 40
0.0
 40
0.0
 40
0.0
 40
0.0
 40
0.1152947886
 40
0.2316353043
 40
0.3500243765
 40
0.471368861
 40
0.7258242569
 40
1.0
 40
1.0
 40
1.0
 40
1.0
 10
165.9304263307
 20
110.2091717644
 30
0.0
 10
166.0077556628
 20
110.2091697037
 30
0.0
 10
166.1632166964
 20
110.2017029316
 30
0.0
 10
166.395905468
 20
110.1681760708
 30
0.0
 10
166.6284724487
 20
110.1124465242
 30
0.0
 10
166.9432487227
 20
110.0074743401
 30
0.0
 10
167.3382751878
 20
109.8189450366
 30
0.0
 10
167.6357087873
 20
109.6242711321
 30
0.0
 10
167.7842115409
 20
109.5158122899
 30
0.0
  0
SPLINE
  5
23E
100
AcDbEntity
  8
BEZUGSACHSEN
100
AcDbSpline
 62
7
  6
CONTINUOUS
 70
0
 71
3
 72
11
 73
7
 74
0
 42
0.0000001
 43
0.0000001
 44
0.0000000001
 40
0.0
 40
0.0
 40
0.0
 40
0.0
 40
0.2395718845
 40
0.4835267338
 40
0.7358990139
 40
1.0
 40
1.0
 40
1.0
 40
1.0
 10
161.294278439
 20
110.209176154
 30
0.0
 10
161.1836019185
 20
110.2091759728
 30
0.0
 10
160.9599347358
 20
110.1937223933
 30
0.0
 10
160.6261008117
 20
110.1246954045
 30
0.0
 10
160.2929256101
 20
110.01074241
 30
0.0
 10
160.0768657295
 20
109.908303792
 30
0.0
 10
159.9692577545
 20
109.8508010167
 30
0.0
  0
SPLINE
  5
23F
100
AcDbEntity
  8
BEZUGSACHSEN
100
AcDbSpline
 62
7
  6
CONTINUOUS
 70
0
 71
3
 72
14
 73
10
 74
0
 42
0.0000001
 43
0.0000001
 44
0.0000000001
 40
0.0
 40
0.0
 40
0.0
 40
0.0
 40
0.1133253582
 40
0.2279437502
 40
0.3450632051
 40
0.4657843537
 40
0.5910180507
 40
0.7214947147
 40
1.0
 40
1.0
 40
1.0
 40
1.0
 10
157.6515609221
 20
100.209176833
 30
0.0
 10
157.564829537
 20
100.2091773399
 30
0.0
 10
157.3902356788
 20
100.2186067391
 30
0.0
 10
157.1290848716
 20
100.2608414535
 30
0.0
 10
156.868132268
 20
100.3309002849
 30
0.0
 10
156.6074687974
 20
100.4282614101
 30
0.0
 10
156.3470771722
 20
100.5523197167
 30
0.0
 10
155.9926076915
 20
100.7566950287
 30
0.0
 10
155.7387070851
 20
100.9415771315
 30
0.0
 10
155.5729691054
 20
101.0756042813
 30
0.0
  0
SPLINE
  5
240
100
AcDbEntity
  8
0
100
AcDbSpline
 62
7
  6
CONTINUOUS
 70
0
 71
3
 72
11
 73
7
 74
0
 42
0.0000001
 43
0.0000001
 44
0.0000000001
 40
0.0
 40
0.0
 40
0.0
 40
0.0
 40
0.2395718277
 40
0.4835383009
 40
0.7358999294
 40
1.0
 40
1.0
 40
1.0
 40
1.0
 10
162.287719269
 20
100.2091769006
 30
0.0
 10
162.3983653103
 20
100.2091775453
 30
0.0
 10
162.6219753307
 20
100.2246271861
 30
0.0
 10
162.9557240386
 20
100.2936059058
 30
0.0
 10
163.2888102403
 20
100.4075188577
 30
0.0
 10
163.5048199065
 20
100.5098955811
 30
0.0
 10
163.6124044743
 20
100.5673700306
 30
0.0
  0
SPLINE
  5
241
100
AcDbEntity
  8
0
100
AcDbSpline
 62
7
  6
CONTINUOUS
 70
0
 71
3
 72
13
 73
9
 74
0
 42
0.0000001
 43
0.0000001
 44
0.0000000001
 40
0.0
 40
0.0
 40
0.0
 40
0.0
 40
0.1133467992
 40
0.2279861861
 40
0.3451348799
 40
0.465876105
 40
0.72143147
 40
1.0
 40
1.0
 40
1.0
 40
1.0
 10
164.936990283
 20
100.209176985
 30
0.0
 10
164.8502596314
 20
100.2091765624
 30
0.0
 10
164.675667393
 20
100.218607582
 30
0.0
 10
164.4145159534
 20
100.2608448202
 30
0.0
 10
164.1535555709
 20
100.3308941227
 30
0.0
 10
163.7993882729
 20
100.4631864804
 30
0.0
 10
163.3553939999
 20
100.7003625112
 30
0.0
 10
163.0241333159
 20
100.9415603572
 30
0.0
 10
162.8583927534
 20
101.0755942863
 30
0.0
  0
SPLINE
  5
242
100
AcDbEntity
  8
BEZUGSACHSEN
100
AcDbSpline
 62
9
  6
CONTINUOUS
 70
0
 71
3
 72
9
 73
5
 74
0
 42
0.0000001
 43
0.0000001
 44
0.0000000001
 40
0.0
 40
0.0
 40
0.0
 40
0.0
 40
0.4755928497
 40
1.0
 40
1.0
 40
1.0
 40
1.0
 10
153.6275876521
 20
103.1978281002
 30
0.0
 10
153.5917925311
 20
103.2017503369
 30
0.0
 10
153.5158997429
 20
103.204564864
 30
0.0
 10
153.4402593785
 20
103.1989470445
 30
0.0
 10
153.400833086
 20
103.1942480466
 30
0.0
  0
SPLINE
  5
243
100
AcDbEntity
  8
BEZUGSACHSEN
100
AcDbSpline
 62
7
  6
CONTINUOUS
 70
0
 71
3
 72
34
 73
30
 74
0
 42
0.0000001
 43
0.0000001
 44
0.0000000001
 40
0.0
 40
0.0
 40
0.0
 40
0.0
 40
0.0571447773
 40
0.1151989684
 40
0.1742637306
 40
0.234380463
 40
0.2648482275
 40
0.2955825955
 40
0.3265826309
 40
0.3578464557
 40
0.3893691552
 40
0.4211394073
 40
0.4371404656
 40
0.4532000167
 40
0.469311328
 40
0.4854654525
 40
0.5016521588
 40
0.5178616862
 40
0.5502539422
 40
0.5826916619
 40
0.6151439689
 40
0.6475938513
 40
0.6800282947
 40
0.7124354226
 40
0.7448023079
 40
0.8093298361
 40
0.8734968709
 40
0.9371218817
 40
1.0
 40
1.0
 40
1.0
 40
1.0
 10
151.7408373689
 20
102.2505250585
 30
0.0
 10
151.6749345003
 20
102.3271585453
 30
0.0
 10
151.5478267971
 20
102.4866808004
 30
0.0
 10
151.3735776676
 20
102.7412464479
 30
0.0
 10
151.2163293917
 20
103.0127895502
 30
0.0
 10
151.1035056833
 20
103.2527316892
 30
0.0
 10
151.0281322755
 20
103.4537576486
 30
0.0
 10
150.9807371707
 20
103.6099410271
 30
0.0
 10
150.9452858309
 20
103.7707680369
 30
0.0
 10
150.9255223125
 20
103.9358192554
 30
0.0
 10
150.9268923892
 20
104.1036022062
 30
0.0
 10
150.952279163
 20
104.242647968
 30
0.0
 10
150.991775194
 20
104.3487146986
 30
0.0
 10
151.0321375113
 20
104.4240875659
 30
0.0
 10
151.0835668706
 20
104.4927975733
 30
0.0
 10
151.1455320921
 20
104.5525478039
 30
0.0
 10
151.2164978101
 20
104.6015615138
 30
0.0
 10
151.3200765424
 20
104.6515007373
 30
0.0
 10
151.4611023113
 20
104.6854531223
 30
0.0
 10
151.6341132998
 20
104.6882091475
 30
0.0
 10
151.804951021
 20
104.6623215777
 30
0.0
 10
151.9707550449
 20
104.614584082
 30
0.0
 10
152.130508512
 20
104.5499469302
 30
0.0
 10
152.2839373639
 20
104.4719566662
 30
0.0
 10
152.4799344973
 20
104.3538050261
 30
0.0
 10
152.7098722297
 20
104.184593681
 30
0.0
 10
152.9643950693
 20
103.9584166764
 30
0.0
 10
153.200011424
 20
103.7168177802
 30
0.0
 10
153.3469806557
 20
103.5479593075
 30
0.0
 10
153.4180089219
 20
103.4623811593
 30
0.0
  0
SPLINE
  5
244
100
AcDbEntity
  8
BEZUGSACHSEN
100
AcDbSpline
 62
7
  6
CONTINUOUS
 70
0
 71
3
 72
17
 73
13
 74
0
 42
0.0000001
 43
0.0000001
 44
0.0000000001
 40
0.0
 40
0.0
 40
0.0
 40
0.0
 40
0.0514525484
 40
0.1032687406
 40
0.1557963985
 40
0.2093621678
 40
0.3206822349
 40
0.4391735558
 40
0.5660481434
 40
0.7018852998
 40
0.8466773347
 40
1.0
 40
1.0
 40
1.0
 40
1.0
 10
155.0022775801
 20
100.2091767529
 30
0.0
 10
154.9342730479
 20
100.2091767529
 30
0.0
 10
154.7977142135
 20
100.2149498712
 30
0.0
 10
154.5932110866
 20
100.2408576474
 30
0.0
 10
154.3887579343
 20
100.2839208837
 30
0.0
 10
154.1128152033
 20
100.3649841288
 30
0.0
 10
153.7663223187
 20
100.5106480808
 30
0.0
 10
153.3575683592
 20
100.7475337863
 30
0.0
 10
152.9499841816
 20
101.0450072163
 30
0.0
 10
152.5430815359
 20
101.3986619239
 30
0.0
 10
152.1367576705
 20
101.8039560635
 30
0.0
 10
151.8732359572
 20
102.0971109743
 30
0.0
 10
151.7408373689
 20
102.2505250585
 30
0.0
  0
SPLINE
  5
245
100
AcDbEntity
  8
0
100
AcDbSpline
 62
7
  6
CONTINUOUS
 70
0
 71
3
 72
32
 73
28
 74
0
 42
0.0000001
 43
0.0000001
 44
0.0000000001
 40
0.0
 40
0.0
 40
0.0
 40
0.0
 40
0.0279557767
 40
0.0571772586
 40
0.0876370547
 40
0.1192829248
 40
0.1520397318
 40
0.1858132374
 40
0.2559510276
 40
0.3286663598
 40
0.4027831991
 40
0.4770530844
 40
0.5502198928
 40
0.6210838953
 40
0.6885690358
 40
0.720764044
 40
0.751806714
 40
0.7816329601
 40
0.8102034292
 40
0.8375079971
 40
0.8635674113
 40
0.8884410129
 40
0.9122281803
 40
0.9350710581
 40
0.9571593803
 40
0.9787171002
 40
1.0
 40
1.0
 40
1.0
 40
1.0
 10
153.4379783815
 20
109.3429206591
 30
0.0
 10
153.5322833167
 20
109.2666564978
 30
0.0
 10
153.7206374341
 20
109.105025047
 30
0.0
 10
153.9968226688
 20
108.8435529463
 30
0.0
 10
154.272917749
 20
108.5592335899
 30
0.0
 10
154.5489641729
 20
108.2538934837
 30
0.0
 10
154.8249636345
 20
107.9294169976
 30
0.0
 10
155.197636145
 20
107.4681905279
 30
0.0
 10
155.6603313653
 20
106.857161162
 30
0.0
 10
156.2087442069
 20
106.0920630061
 30
0.0
 10
156.7572089114
 20
105.3050925465
 30
0.0
 10
157.3056191453
 20
104.5157116613
 30
0.0
 10
157.854065342
 20
103.7435436729
 30
0.0
 10
158.4025303635
 20
103.0077089285
 30
0.0
 10
158.8666821109
 20
102.4311228802
 30
0.0
 10
159.2405813398
 20
102.0045935374
 30
0.0
 10
159.5166526678
 20
101.709861033
 30
0.0
 10
159.7927807021
 20
101.4370906916
 30
0.0
 10
160.0689994807
 20
101.1879840446
 30
0.0
 10
160.3453764727
 20
100.9641374195
 30
0.0
 10
160.6219329191
 20
100.7669261549
 30
0.0
 10
160.8987443176
 20
100.5976396918
 30
0.0
 10
161.1758691923
 20
100.4574029542
 30
0.0
 10
161.4533472689
 20
100.3471610406
 30
0.0
 10
161.7312167832
 20
100.2677874785
 30
0.0
 10
162.0093553711
 20
100.21987966
 30
0.0
 10
162.1953855551
 20
100.2091763627
 30
0.0
 10
162.287719269
 20
100.2091769006
 30
0.0
  0
SPLINE
  5
246
100
AcDbEntity
  8
0
100
AcDbSpline
 62
7
  6
CONTINUOUS
 70
0
 71
3
 72
32
 73
28
 74
0
 42
0.0000001
 43
0.0000001
 44
0.0000000001
 40
0.0
 40
0.0
 40
0.0
 40
0.0
 40
0.0279571459
 40
0.0571793078
 40
0.0876396456
 40
0.1192864175
 40
0.15204414
 40
0.1858182451
 40
0.2559569444
 40
0.3286729966
 40
0.4027901756
 40
0.4770601696
 40
0.5502268905
 40
0.6210906899
 40
0.6885757103
 40
0.7207705324
 40
0.7518130441
 40
0.781639471
 40
0.8102102898
 40
0.8375144035
 40
0.8635735565
 40
0.8884474261
 40
0.9122357149
 40
0.9350797768
 40
0.9571633657
 40
0.9787152049
 40
1.0
 40
1.0
 40
1.0
 40
1.0
 10
162.8583927534
 20
101.0755942863
 30
0.0
 10
162.7640860236
 20
101.1518598749
 30
0.0
 10
162.5757298928
 20
101.3134914325
 30
0.0
 10
162.2995598623
 20
101.5749798076
 30
0.0
 10
162.0234879997
 20
101.8593176441
 30
0.0
 10
161.7474436548
 20
102.1646563101
 30
0.0
 10
161.4714366392
 20
102.4891234292
 30
0.0
 10
161.0987794831
 20
102.9503532682
 30
0.0
 10
160.6361226665
 20
103.5613942319
 30
0.0
 10
160.0876751837
 20
104.3264431159
 30
0.0
 10
159.5392694392
 20
105.1134260538
 30
0.0
 10
158.9908431765
 20
105.9027623444
 30
0.0
 10
158.4424288747
 20
106.674916869
 30
0.0
 10
157.8939825705
 20
107.4107294955
 30
0.0
 10
157.4298301938
 20
107.9872833242
 30
0.0
 10
157.0559497779
 20
108.4138036023
 30
0.0
 10
156.7798902147
 20
108.7085296634
 30
0.0
 10
156.5037613292
 20
108.9812852702
 30
0.0
 10
156.2275389218
 20
109.2303711321
 30
0.0
 10
155.9511825998
 20
109.454223241
 30
0.0
 10
155.6746392949
 20
109.651432745
 30
0.0
 10
155.3978295579
 20
109.8207125872
 30
0.0
 10
155.1206989881
 20
109.9609435284
 30
0.0
 10
154.8432334677
 20
110.0711610146
 30
0.0
 10
154.5654253254
 20
110.1505642359
 30
0.0
 10
154.2873343541
 20
110.1984860009
 30
0.0
 10
154.1013262467
 20
110.2091767529
 30
0.0
 10
154.0089870868
 20
110.2091767529
 30
0.0
  0
SPLINE
  5
247
100
AcDbEntity
  8
0
100
AcDbSpline
 62
7
  6
CONTINUOUS
 70
0
 71
3
 72
21
 73
17
 74
0
 42
0.0000001
 43
0.0000001
 44
0.0000000001
 40
0.0
 40
0.0
 40
0.0
 40
0.0
 40
0.130885761
 40
0.2560801007
 40
0.3164288637
 40
0.3752676519
 40
0.4326618774
 40
0.4887690438
 40
0.5438849202
 40
0.5985517062
 40
0.6537435453
 40
0.7110731664
 40
0.7730950145
 40
0.8429543543
 40
0.9210369146
 40
1.0
 40
1.0
 40
1.0
 40
1.0
 10
167.7842132721
 20
103.7559065203
 30
0.0
 10
167.8350280132
 20
103.6293542165
 30
0.0
 10
167.9316433839
 20
103.3806147744
 30
0.0
 10
168.0419463474
 20
103.069831762
 30
0.0
 10
168.1191281219
 20
102.8271583069
 30
0.0
 10
168.1701229244
 20
102.6503523442
 30
0.0
 10
168.2139239879
 20
102.4761647193
 30
0.0
 10
168.2491951916
 20
102.30398089
 30
0.0
 10
168.2742051506
 20
102.1328364304
 30
0.0
 10
168.2865000423
 20
101.961184873
 30
0.0
 10
168.2821723841
 20
101.7867036568
 30
0.0
 10
168.2555502463
 20
101.6062492564
 30
0.0
 10
168.1980604072
 20
101.4168094214
 30
0.0
 10
168.1001549041
 20
101.2199881896
 30
0.0
 10
167.9608087056
 20
101.0277872702
 30
0.0
 10
167.8457829926
 20
100.9105050773
 30
0.0
 10
167.7842132721
 20
100.8559329904
 30
0.0
  0
SPLINE
  5
248
100
AcDbEntity
  8
0
100
AcDbSpline
 62
7
  6
CONTINUOUS
 70
0
 71
3
 72
25
 73
21
 74
0
 42
0.0000001
 43
0.0000001
 44
0.0000000001
 40
0.0
 40
0.0
 40
0.0
 40
0.0
 40
0.1081672927
 40
0.2162196384
 40
0.3230815862
 40
0.3755674651
 40
0.4269277073
 40
0.4768109932
 40
0.5251882464
 40
0.5728777407
 40
0.5973426258
 40
0.6230070309
 40
0.6508368564
 40
0.6820257174
 40
0.7178973313
 40
0.759751479
 40
0.8086583486
 40
0.8652047529
 40
0.929251788
 40
1.0
 40
1.0
 40
1.0
 40
1.0
 10
168.105206153
 20
109.888183872
 30
0.0
 10
168.1301169988
 20
109.8632730262
 30
0.0
 10
168.176318204
 20
109.8097025847
 30
0.0
 10
168.2320754234
 20
109.7199777052
 30
0.0
 10
168.2649162185
 20
109.638677009
 30
0.0
 10
168.2802867551
 20
109.5716580616
 30
0.0
 10
168.285383496
 20
109.5216923529
 30
0.0
 10
168.2828596986
 20
109.4727855448
 30
0.0
 10
168.2711060019
 20
109.4263341866
 30
0.0
 10
168.2514058371
 20
109.3915684176
 30
0.0
 10
168.2288796197
 20
109.3687918502
 30
0.0
 10
168.2076957302
 20
109.3544757231
 30
0.0
 10
168.1819827521
 20
109.3439754944
 30
0.0
 10
168.1514225925
 20
109.3382106328
 30
0.0
 10
168.1157708713
 20
109.3381645988
 30
0.0
 10
168.0749096584
 20
109.3448120021
 30
0.0
 10
168.0289518747
 20
109.3590269008
 30
0.0
 10
167.9783673977
 20
109.3813904827
 30
0.0
 10
167.9239613445
 20
109.4119334578
 30
0.0
 10
167.8874381547
 20
109.4363706589
 30
0.0
 10
167.8686925153
 20
109.4497699735
 30
0.0
  0
SPLINE
  5
249
100
AcDbEntity
  8
BEZUGSACHSEN
100
AcDbSpline
 62
7
  6
CONTINUOUS
 70
0
 71
3
 72
11
 73
7
 74
0
 42
0.0000001
 43
0.0000001
 44
0.0000000001
 40
0.0
 40
0.0
 40
0.0
 40
0.0
 40
0.2255484729
 40
0.4684442742
 40
0.7273424954
 40
1.0
 40
1.0
 40
1.0
 40
1.0
 10
155.5729691054
 20
101.0756042813
 30
0.0
 10
155.4043007049
 20
101.2120011713
 30
0.0
 10
155.0685641893
 20
101.5134751419
 30
0.0
 10
154.5848373313
 20
102.019380755
 30
0.0
 10
154.1015757761
 20
102.5865305014
 30
0.0
 10
153.7862434221
 20
102.9890490758
 30
0.0
 10
153.6275891753
 20
103.197831445
 30
0.0
  0
SPLINE
  5
24A
100
AcDbEntity
  8
BEZUGSACHSEN
100
AcDbSpline
 62
9
  6
CONTINUOUS
 70
0
 71
3
 72
10
 73
6
 74
0
 42
0.0000001
 43
0.0000001
 44
0.0000000001
 40
0.0
 40
0.0
 40
0.0
 40
0.0
 40
0.5051002234
 40
0.7536089541
 40
1.0
 40
1.0
 40
1.0
 40
1.0
 10
153.3897859552
 20
109.9502736783
 30
0.0
 10
153.316302485
 20
109.8952427693
 30
0.0
 10
153.1972210158
 20
109.824568975
 30
0.0
 10
153.0271284433
 20
109.7597406132
 30
0.0
 10
152.9396623029
 20
109.7376457484
 30
0.0
 10
152.8956728572
 20
109.7292513727
 30
0.0
  0
SPLINE
  5
24B
100
AcDbEntity
  8
BEZUGSACHSEN
100
AcDbSpline
 62
9
  6
CONTINUOUS
 70
0
 71
3
 72
9
 73
5
 74
0
 42
0.0000001
 43
0.0000001
 44
0.0000000001
 40
0.0
 40
0.0
 40
0.0
 40
0.0
 40
0.2533215607
 40
1.0
 40
1.0
 40
1.0
 40
1.0
 10
153.6275876521
 20
110.1791791051
 30
0.0
 10
153.6106619386
 20
110.1584736108
 30
0.0
 10
153.5415805763
 20
110.0786251595
 30
0.0
 10
153.4634168491
 20
110.0065663531
 30
0.0
 10
153.4008330861
 20
109.9586398378
 30
0.0
  0
SPLINE
  5
24C
100
AcDbEntity
  8
BEZUGSACHSEN
100
AcDbSpline
 62
7
  6
CONTINUOUS
 70
0
 71
3
 72
24
 73
20
 74
0
 42
0.0000001
 43
0.0000001
 44
0.0000000001
 40
0.0
 40
0.0
 40
0.0
 40
0.0
 40
0.073851287
 40
0.1487432763
 40
0.2989319282
 40
0.3728615096
 40
0.4451370291
 40
0.5151545165
 40
0.5823782963
 40
0.6463658846
 40
0.7067926894
 40
0.7634839865
 40
0.8164577043
 40
0.8659497171
 40
0.912465105
 40
0.9348554558
 40
0.9568172234
 40
0.9784836506
 40
1.0
 40
1.0
 40
1.0
 40
1.0
 10
167.7842132721
 20
103.7559065203
 30
0.0
 10
167.647634132
 20
103.9437410302
 30
0.0
 10
167.3757599238
 20
104.3243913385
 30
0.0
 10
166.8369145473
 20
105.0946811901
 30
0.0
 10
166.3018459519
 20
105.8679174599
 30
0.0
 10
165.7606939575
 20
106.6268371231
 30
0.0
 10
165.3568959876
 20
107.1739636741
 30
0.0
 10
164.9530885488
 20
107.6946920807
 30
0.0
 10
164.5492349281
 20
108.1820598475
 30
0.0
 10
164.1452102332
 20
108.629522484
 30
0.0
 10
163.7409236761
 20
109.0311542719
 30
0.0
 10
163.3361983605
 20
109.381661251
 30
0.0
 10
162.9306009808
 20
109.6762012679
 30
0.0
 10
162.5238990122
 20
109.9107596871
 30
0.0
 10
162.1792051779
 20
110.0549534323
 30
0.0
 10
161.9046948708
 20
110.1351938733
 30
0.0
 10
161.701275968
 20
110.1778173359
 30
0.0
 10
161.497806294
 20
110.2034626723
 30
0.0
 10
161.3619410165
 20
110.2091762648
 30
0.0
 10
161.294278439
 20
110.209176154
 30
0.0
  0
SPLINE
  5
24D
100
AcDbEntity
  8
0
100
AcDbSpline
 62
7
  6
CONTINUOUS
 70
0
 71
3
 72
22
 73
18
 74
0
 42
0.0000001
 43
0.0000001
 44
0.0000000001
 40
0.0
 40
0.0
 40
0.0
 40
0.0
 40
0.0506106125
 40
0.1050009746
 40
0.1630694018
 40
0.2245185275
 40
0.2888966014
 40
0.3556356201
 40
0.4240795654
 40
0.4935163884
 40
0.6323792655
 40
0.7003158474
 40
0.766314244
 40
0.8297460199
 40
0.8900772783
 40
0.9469082367
 40
1.0
 40
1.0
 40
1.0
 40
1.0
 10
167.7842111785
 20
100.8559296274
 30
0.0
 10
167.6315565698
 20
100.9638520104
 30
0.0
 10
167.3269904588
 20
101.205145317
 30
0.0
 10
166.8872432156
 20
101.6175051244
 30
0.0
 10
166.4479103961
 20
102.0866851044
 30
0.0
 10
166.0088449981
 20
102.6052808001
 30
0.0
 10
165.5698809895
 20
103.1651588036
 30
0.0
 10
165.1309723044
 20
103.7574872132
 30
0.0
 10
164.6920687928
 20
104.3728775786
 30
0.0
 10
164.1068774329
 20
105.2110757669
 30
0.0
 10
163.525931284
 20
106.0499866047
 30
0.0
 10
162.9364633806
 20
106.8673395068
 30
0.0
 10
162.497532878
 20
107.4495556152
 30
0.0
 10
162.0585598638
 20
107.9962292931
 30
0.0
 10
161.61939328
 20
108.49872792
 30
0.0
 10
161.1800027746
 20
108.9491766367
 30
0.0
 10
160.8761751551
 20
109.2193587412
 30
0.0
 10
160.7236866067
 20
109.3426826168
 30
0.0
  0
SPLINE
  5
24E
100
AcDbEntity
  8
BEZUGSACHSEN
100
AcDbSpline
 62
9
  6
CONTINUOUS
 70
0
 71
3
 72
11
 73
7
 74
0
 42
0.0000001
 43
0.0000001
 44
0.0000000001
 40
0.0
 40
0.0
 40
0.0
 40
0.0
 40
0.2535366433
 40
0.5103809539
 40
0.7619523876
 40
1.0
 40
1.0
 40
1.0
 40
1.0
 10
152.6842132721
 20
102.9591767529
 30
0.0
 10
152.5946402571
 20
102.9142036351
 30
0.0
 10
152.4185338934
 20
102.8150743447
 30
0.0
 10
152.1696074352
 20
102.6448153244
 30
0.0
 10
151.9412844526
 20
102.4572736791
 30
0.0
 10
151.8037102835
 20
102.3205454794
 30
0.0
 10
151.7408389067
 20
102.2505230317
 30
0.0
  0
SPLINE
  5
24F
100
AcDbEntity
  8
BEZUGSACHSEN
100
AcDbSpline
 62
9
  6
CONTINUOUS
 70
0
 71
3
 72
11
 73
7
 74
0
 42
0.0000001
 43
0.0000001
 44
0.0000000001
 40
0.0
 40
0.0
 40
0.0
 40
0.0
 40
0.2224078444
 40
0.4653926294
 40
0.7258895522
 40
1.0
 40
1.0
 40
1.0
 40
1.0
 10
153.3897859574
 20
103.1928845909
 30
0.0
 10
153.3348940255
 20
103.1858782288
 30
0.0
 10
153.2208776489
 20
103.1642586451
 30
0.0
 10
153.0471501774
 20
103.1141433052
 30
0.0
 10
152.8660233284
 20
103.0456166593
 30
0.0
 10
152.7451635628
 20
102.9897788938
 30
0.0
 10
152.6842132642
 20
102.9591767647
 30
0.0
  0
ENDSEC
  0
SECTION
  2
OBJECTS
  0
DICTIONARY
  5
C
100
AcDbDictionary
280
0
281
1
  3
ACAD_GROUP
350
D
  3
ACAD_MLINESTYLE
350
17
  3
ACAD_LAYOUT
350
1A
  3
ACAD_PLOTSETTINGS
350
19
  3
ACAD_PLOTSTYLENAME
350
E
  0
DICTIONARY
  5
D
102
{ACAD_REACTORS
330
C
102
}
100
AcDbDictionary
280
0
281
1
  0
ACDBDICTIONARYWDFLT
  5
E
102
{ACAD_REACTORS
330
C
102
}
100
AcDbDictionary
281
1
  3
Normal
350
F
100
AcDbDictionaryWithDefault
340
F
  0
DICTIONARY
  5
17
102
{ACAD_REACTORS
330
C
102
}
100
AcDbDictionary
280
0
281
1
  3
Standard
350
18
  0
DICTIONARY
  5
19
102
{ACAD_REACTORS
330
C
102
}
100
AcDbDictionary
281
1
  0
DICTIONARY
  5
1A
102
{ACAD_REACTORS
330
C
102
}
100
AcDbDictionary
281
1
  3
Model
350
250
  3
Layout1
350
251
  0
ACDBPLACEHOLDER
  5
F
102
{ACAD_REACTORS
330
E
102
}
  0
MLINESTYLE
  5
18
102
{ACAD_REACTORS
330
17
102
}
100
AcDbMlineStyle
  2
STANDARD
 70
0
  3

 62
256
 51
90.0
 52
90.0
 71
2
 49
0.5
 62
256
  6
BYLAYER
 49
-0.5
 62
256
  6
BYLAYER
  0
LAYOUT
  5
250
102
{ACAD_REACTORS
330
1A
102
}
100
AcDbPlotSettings
  1

  2
none_device
  4
ISO_A4_(297.00_x_210.00_MM)
  6

 40
0.0
 41
0.0
 42
0.0
 43
0.0
 44
297.0
 45
210.0
 46
0.0
 47
0.0
 48
0.0
 49
0.0
140
0.0
141
0.0
142
1.0
143
1.0
 70
1024
 72
1
 73
0
 74
0
  7

 75
0
147
1.0
148
0.0
149
0.0
100
AcDbLayout
  1
Model
 70
0
 71
0
 10
0.0
 20
0.0
 11
297.0
 21
210.0
 12
0.0
 22
0.0
 32
0.0
 14
0.0
 24
0.0
 34
0.0
 15
0.0
 25
0.0
 35
0.0
146
0.0
 13
0.0
 23
0.0
 33
0.0
 16
1.0
 26
0.0
 36
0.0
 17
0.0
 27
1.0
 37
0.0
 76
0
330
211
345
0
346
0
  0
LAYOUT
  5
251
102
{ACAD_REACTORS
330
1A
102
}
100
AcDbPlotSettings
  1

  2
none_device
  4
ISO_A4_(297.00_x_210.00_MM)
  6

 40
0.0
 41
0.0
 42
0.0
 43
0.0
 44
297.0
 45
210.0
 46
0.0
 47
0.0
 48
0.0
 49
0.0
140
0.0
141
0.0
142
1.0
143
1.0
 70
0
 72
1
 73
0
 74
0
  7

 75
0
147
1.0
148
0.0
149
0.0
100
AcDbLayout
  1
Layout1
 70
0
 71
1
 10
0.0
 20
0.0
 11
297.0
 21
210.0
 12
0.0
 22
0.0
 32
0.0
 14
0.0
 24
0.0
 34
0.0
 15
0.0
 25
0.0
 35
0.0
146
0.0
 13
0.0
 23
0.0
 33
0.0
 16
1.0
 26
0.0
 36
0.0
 17
0.0
 27
1.0
 37
0.0
 76
0
330
212
345
0
346
0
  0
ENDSEC
  0
EOF
