999
DXF file: f1003nnl1000saa.dxf
999
Pro/ENGINEER 2011490 by Parametric Technology Corporation
  0
SECTION
  2
HEADER
  9
$ACADVER
  1
AC1021
  9
$DWGCODEPAGE
  3
ANSI_1252
  9
$EXTMAX
 10
297.0
 20
210.0
 30
0.0
  9
$EXTMIN
 10
0.0
 20
0.0
 30
0.0
  9
$LIMMIN
 10
0.0
 20
0.0
  9
$LIMMAX
 10
297.0
 20
210.0
  9
$VIEWCTR
 10
148.5
 20
105.0
  9
$VIEWSIZE
 40
210.0
  9
$CLAYER
  8
0
  9
$LTSCALE
 40
16.335
  9
$CELTYPE
  6
BYLAYER
  9
$DIMSCALE
 40
1.0
  9
$DIMASZ
 40
3.5
  9
$DIMEXO
 40
1.85625
  9
$DIMDLI
 40
11.286
  9
$DIMEXE
 40
5.346
  9
$DIMCEN
 40
2.673
  9
$DIMLFAC
 40
1.0
  9
$DIMBLK
  1
_FILLED
  9
$DIMTXT
 40
3.5
  9
$DIMTOL
 70
1
  9
$DIMLIM
 70
0
  9
$DIMTFAC
 40
1.0
  9
$DIMTP
 40
0.005
  9
$DIMTM
 40
0.005
  9
$PDMODE
 70
3
  9
$PDSIZE
 40
0.3125
  9
$HANDSEED
  5
24B
  9
$TILEMODE
 70
1
  9
$MEASUREMENT
 70
1
  9
$INSUNITS
 70
4
  0
ENDSEC
  0
SECTION
  2
CLASSES
  0
CLASS
  1
ACDBDICTIONARYWDFLT
  2
AcDbDictionaryWithDefault
  3
AutoCAD 2000
 90
0
 91
1
280
0
281
0
  0
CLASS
  1
ACDBPLACEHOLDER
  2
AcDbPlaceHolder
  3
AutoCAD 2000
 90
0
 91
1
280
0
281
0
  0
CLASS
  1
LAYOUT
  2
AcDbLayout
  3
AutoCAD 2000
 90
0
 91
0
280
0
281
0
  0
ENDSEC
  0
SECTION
  2
TABLES
  0
TABLE
  2
VPORT
  5
8
100
AcDbSymbolTable
 70
2
  0
VPORT
  5
1F4
100
AcDbSymbolTableRecord
100
AcDbViewportTableRecord
  2
*ACTIVE
 70
0
 10
0.0
 20
0.0
 11
1.0
 21
1.0
 12
148.5
 22
105.0
 13
0.0
 23
0.0
 14
1.0
 24
1.0
 15
0.0
 25
0.0
 16
0.0
 26
0.0
 36
1.0
 17
0.0
 27
0.0
 37
0.0
 40
210.0
 41
1.4142857143
 42
50.0
 43
0.0
 44
0.0
 50
0.0
 51
0.0
 71
0
 72
100
 73
1
 74
1
 75
0
 76
0
 77
0
 78
0
  0
ENDTAB
  0
TABLE
  2
LTYPE
  5
5
100
AcDbSymbolTable
 70
6
  0
LTYPE
  5
14
100
AcDbSymbolTableRecord
100
AcDbLinetypeTableRecord
  2
BYBLOCK
 70
0
  3

 72
65
 73
0
 40
0.0
  0
LTYPE
  5
15
100
AcDbSymbolTableRecord
100
AcDbLinetypeTableRecord
  2
BYLAYER
 70
0
  3

 72
65
 73
0
 40
0.0
  0
LTYPE
  5
16
100
AcDbSymbolTableRecord
100
AcDbLinetypeTableRecord
  2
CONTINUOUS
 70
64
  3
Solid line
 72
65
 73
0
 40
0.0
  0
LTYPE
  5
1F5
100
AcDbSymbolTableRecord
100
AcDbLinetypeTableRecord
  2
CENTER
 70
64
  3
____ _ ____ _ ____ _ ____ _ ____ _ ____ _ ____
 72
65
 73
4
 40
0.6
 49
0.375
 74
0
 49
-0.075
 74
0
 49
0.075
 74
0
 49
-0.075
 74
0
  0
LTYPE
  5
1F6
100
AcDbSymbolTableRecord
100
AcDbLinetypeTableRecord
  2
HIDDEN
 70
64
  3
- - - - - - - - - - - - - - - - - - - -
 72
65
 73
2
 40
0.2
 49
0.1
 74
0
 49
-0.1
 74
0
  0
LTYPE
  5
1F7
100
AcDbSymbolTableRecord
100
AcDbLinetypeTableRecord
  2
PHANTOM
 70
64
  3
_____ _ _ _____ _ _ _____ _ _ _____
 72
65
 73
6
 40
0.8
 49
0.45
 74
0
 49
-0.05
 74
0
 49
0.1
 74
0
 49
-0.05
 74
0
 49
0.1
 74
0
 49
-0.05
 74
0
  0
LTYPE
  5
1F8
100
AcDbSymbolTableRecord
100
AcDbLinetypeTableRecord
  2
DOT
 70
64
  3
. . . . . . . . . . . . . . . . . . . .
 72
65
 73
2
 40
0.2
 49
0.1
 74
0
 49
-0.1
 74
0
  0
LTYPE
  5
1F9
100
AcDbSymbolTableRecord
100
AcDbLinetypeTableRecord
  2
DASHED
 70
64
  3
- - - - - - - - - - - - - - - - - - - -
 72
65
 73
2
 40
0.2
 49
0.1
 74
0
 49
-0.1
 74
0
  0
ENDTAB
  0
TABLE
  2
LAYER
  5
2
100
AcDbSymbolTable
 70
36
  0
LAYER
  5
10
100
AcDbSymbolTableRecord
100
AcDbLayerTableRecord
  2
0
 70
0
 62
7
  6
CONTINUOUS
370
-3
390
F
  0
LAYER
  5
1FA
100
AcDbSymbolTableRecord
100
AcDbLayerTableRecord
  2
DEFAULT_1
 70
0
 62
7
  6
CENTER
370
-3
390
F
  0
LAYER
  5
1FB
100
AcDbSymbolTableRecord
100
AcDbLayerTableRecord
  2
DEFAULT_2
 70
0
 62
8
  6
HIDDEN
370
-3
390
F
  0
LAYER
  5
1FC
100
AcDbSymbolTableRecord
100
AcDbLayerTableRecord
  2
DEFAULT_3
 70
0
 62
7
  6
PHANTOM
370
-3
390
F
  0
LAYER
  5
1FD
100
AcDbSymbolTableRecord
100
AcDbLayerTableRecord
  2
BEZUGSACHSEN
 70
0
 62
7
  6
CONTINUOUS
370
-3
390
F
  0
LAYER
  5
1FE
100
AcDbSymbolTableRecord
100
AcDbLayerTableRecord
  2
BEZUGSEBENEN
 70
0
 62
7
  6
CONTINUOUS
370
-3
390
F
  0
LAYER
  5
1FF
100
AcDbSymbolTableRecord
100
AcDbLayerTableRecord
  2
FASEN
 70
0
 62
7
  6
CONTINUOUS
370
-3
390
F
  0
LAYER
  5
200
100
AcDbSymbolTableRecord
100
AcDbLayerTableRecord
  2
FLAECHEN
 70
0
 62
7
  6
CONTINUOUS
370
-3
390
F
  0
LAYER
  5
201
100
AcDbSymbolTableRecord
100
AcDbLayerTableRecord
  2
FORM_LAGE_TOLERANZEN
 70
0
 62
7
  6
CONTINUOUS
370
-3
390
F
  0
LAYER
  5
202
100
AcDbSymbolTableRecord
100
AcDbLayerTableRecord
  2
HILFEN
 70
0
 62
7
  6
CONTINUOUS
370
-3
390
F
  0
LAYER
  5
203
100
AcDbSymbolTableRecord
100
AcDbLayerTableRecord
  2
KT-AUFMASS_BEI_HARTBEARBEITUNG
 70
0
 62
7
  6
CONTINUOUS
370
-3
390
F
  0
LAYER
  5
204
100
AcDbSymbolTableRecord
100
AcDbLayerTableRecord
  2
KT-AUFMASS_BEI_WEICHBEARBEITUNG
 70
0
 62
7
  6
CONTINUOUS
370
-3
390
F
  0
LAYER
  5
205
100
AcDbSymbolTableRecord
100
AcDbLayerTableRecord
  2
KT-BASISBEMASSUNG
 70
0
 62
7
  6
CONTINUOUS
370
-3
390
F
  0
LAYER
  5
206
100
AcDbSymbolTableRecord
100
AcDbLayerTableRecord
  2
KT-BESCHRIFTUNG
 70
0
 62
7
  6
CONTINUOUS
370
-3
390
F
  0
LAYER
  5
207
100
AcDbSymbolTableRecord
100
AcDbLayerTableRecord
  2
KT-HARTBEARBEITUNG
 70
0
 62
7
  6
CONTINUOUS
370
-3
390
F
  0
LAYER
  5
208
100
AcDbSymbolTableRecord
100
AcDbLayerTableRecord
  2
KT-WEICHBEARBEITUNG
 70
0
 62
7
  6
CONTINUOUS
370
-3
390
F
  0
LAYER
  5
209
100
AcDbSymbolTableRecord
100
AcDbLayerTableRecord
  2
KURVEN
 70
0
 62
7
  6
CONTINUOUS
370
-3
390
F
  0
LAYER
  5
20A
100
AcDbSymbolTableRecord
100
AcDbLayerTableRecord
  2
PLATZIERUNG
 70
0
 62
7
  6
CONTINUOUS
370
-3
390
F
  0
LAYER
  5
20B
100
AcDbSymbolTableRecord
100
AcDbLayerTableRecord
  2
PUNKTE
 70
0
 62
7
  6
CONTINUOUS
370
-3
390
F
  0
LAYER
  5
20C
100
AcDbSymbolTableRecord
100
AcDbLayerTableRecord
  2
RUNDUNGEN
 70
0
 62
7
  6
CONTINUOUS
370
-3
390
F
  0
LAYER
  5
20D
100
AcDbSymbolTableRecord
100
AcDbLayerTableRecord
  2
TEIL_STARTBEZUEGE
 70
0
 62
7
  6
CONTINUOUS
370
-3
390
F
  0
LAYER
  5
20E
100
AcDbSymbolTableRecord
100
AcDbLayerTableRecord
  2
ZEICHNUNGSBEMASSUNGEN
 70
0
 62
7
  6
CONTINUOUS
370
-3
390
F
  0
ENDTAB
  0
TABLE
  2
STYLE
  5
3
100
AcDbSymbolTable
 70
1
  0
STYLE
  5
11
100
AcDbSymbolTableRecord
100
AcDbTextStyleTableRecord
  2
STANDARD
 70
0
 40
0.0
 41
0.7
 50
0.0
 71
0
 42
0.2
  3
txt
  4

  0
STYLE
  5
20F
100
AcDbSymbolTableRecord
100
AcDbTextStyleTableRecord
  2
TEXTSTYLE_1
 70
0
 40
0.0
 41
0.8
 50
0.0
 71
0
 42
0.2
  3
gdt
  4

  0
ENDTAB
  0
TABLE
  2
VIEW
  5
6
100
AcDbSymbolTable
 70
0
  0
ENDTAB
  0
TABLE
  2
UCS
  5
7
100
AcDbSymbolTable
 70
0
  0
ENDTAB
  0
TABLE
  2
APPID
  5
9
100
AcDbSymbolTable
 70
1
  0
APPID
  5
210
100
AcDbSymbolTableRecord
100
AcDbRegAppTableRecord
  2
ACAD
 70
0
  0
ENDTAB
  0
TABLE
  2
BLOCK_RECORD
  5
1
100
AcDbSymbolTable
 70
0
  0
BLOCK_RECORD
  5
211
100
AcDbSymbolTableRecord
100
AcDbBlockTableRecord
  2
*Model_Space
  0
BLOCK_RECORD
  5
212
100
AcDbSymbolTableRecord
100
AcDbBlockTableRecord
  2
*Paper_Space
  0
ENDTAB
  0
TABLE
  2
DIMSTYLE
  5
A
100
AcDbSymbolTable
 70
1
100
AcDbDimStyleTable
 71
0
  0
DIMSTYLE
105
213
100
AcDbSymbolTableRecord
100
AcDbDimStyleTableRecord
  2
STANDARD
 70
0
  3

  4

 40
1.0
 41
3.5
 42
0.0625
 43
0.38
 44
0.18
 45
0.0
 46
0.0
 47
0.005
 48
0.005
140
3.5
141
0.09
142
0.0
143
25.4
144
1.0
145
0.0
146
1.0
147
0.09
 71
1.0
 72
0.0
 73
0
 74
0
 75
0
 76
0
 77
1
 78
8
170
0
171
2
172
0
173
0
174
0
175
0
176
0
177
0
178
5
270
2
271
3
272
3
273
2
274
2
275
0
280
0
281
0
282
0
283
1
284
8
285
0
286
0
287
3
288
0
340
11
  0
ENDTAB
  0
ENDSEC
  0
SECTION
  2
BLOCKS
  0
BLOCK
  5
20
100
AcDbEntity
  8
0
100
AcDbBlockBegin
  2
*Model_Space
 70
0
 10
0.0
 20
0.0
 30
0.0
  3
*Model_Space
  1

  0
ENDBLK
  5
21
100
AcDbEntity
  8
0
100
AcDbBlockEnd
  0
BLOCK
  5
1C
100
AcDbEntity
  8
0
100
AcDbBlockBegin
  2
*Paper_Space
 70
0
 10
0.0
 20
0.0
 30
0.0
  3
*Paper_Space
  1

  0
ENDBLK
  5
1D
100
AcDbEntity
  8
0
100
AcDbBlockEnd
  0
ENDSEC
  0
SECTION
  2
ENTITIES
  0
LINE
  5
214
100
AcDbEntity
  8
0
100
AcDbLine
 62
7
  6
CONTINUOUS
 10
104.2604601419
 20
112.3009442821
 11
104.2604601419
 21
102.3009442821
  0
LINE
  5
215
100
AcDbEntity
  8
0
100
AcDbLine
 62
7
  6
CONTINUOUS
 10
126.2604601419
 20
112.3009442821
 11
126.2604601419
 21
102.3009442821
  0
LINE
  5
216
100
AcDbEntity
  8
0
100
AcDbLine
 62
7
  6
CONTINUOUS
 10
127.6782805968
 20
112.0509442821
 11
127.6782805968
 21
102.5509442821
  0
LINE
  5
217
100
AcDbEntity
  8
0
100
AcDbLine
 62
9
  6
CONTINUOUS
 10
134.7604601419
 20
112.0509442821
 11
134.7604601419
 21
102.5509442821
  0
LINE
  5
218
100
AcDbEntity
  8
0
100
AcDbLine
 62
7
  6
CONTINUOUS
 10
162.5785243031
 20
102.3009442821
 11
136.7604601419
 21
102.3009442821
  0
LINE
  5
219
100
AcDbEntity
  8
0
100
AcDbLine
 62
7
  6
CONTINUOUS
 10
126.2604601419
 20
102.3009442821
 11
104.2604601419
 21
102.3009442821
  0
LINE
  5
21A
100
AcDbEntity
  8
0
100
AcDbLine
 62
7
  6
CONTINUOUS
 10
165.2278191751
 20
102.3009442821
 11
169.8639676583
 21
102.3009442821
  0
LINE
  5
21B
100
AcDbEntity
  8
0
100
AcDbLine
 62
7
  6
CONTINUOUS
 10
172.5132467086
 20
102.3009442821
 11
176.3604601419
 21
102.3009442821
  0
LINE
  5
21C
100
AcDbEntity
  8
0
100
AcDbLine
 62
7
  6
CONTINUOUS
 10
134.7604601419
 20
102.5509442821
 11
127.6782805968
 21
102.5509442821
  0
LINE
  5
21D
100
AcDbEntity
  8
0
100
AcDbLine
 62
7
  6
CONTINUOUS
 10
136.7604601419
 20
112.3009442821
 11
136.7604601419
 21
102.3009442821
  0
LINE
  5
21E
100
AcDbEntity
  8
0
100
AcDbLine
 62
7
  6
CONTINUOUS
 10
127.6782805968
 20
102.5509442821
 11
126.2604601419
 21
102.3009442821
  0
LINE
  5
21F
100
AcDbEntity
  8
0
100
AcDbLine
 62
7
  6
CONTINUOUS
 10
127.6782805968
 20
112.0509442821
 11
126.2604601419
 21
112.3009442821
  0
LINE
  5
220
100
AcDbEntity
  8
0
100
AcDbLine
 62
7
  6
CONTINUOUS
 10
134.7604601419
 20
112.0509442821
 11
127.6782805968
 21
112.0509442821
  0
LINE
  5
221
100
AcDbEntity
  8
0
100
AcDbLine
 62
7
  6
CONTINUOUS
 10
166.2212529616
 20
112.3009442821
 11
161.5852551132
 21
112.3009442821
  0
LINE
  5
222
100
AcDbEntity
  8
BEZUGSACHSEN
100
AcDbLine
 62
7
  6
CONTINUOUS
 10
158.9733502992
 20
112.3009442821
 11
136.7604601419
 21
112.3009442821
  0
LINE
  5
223
100
AcDbEntity
  8
0
100
AcDbLine
 62
7
  6
CONTINUOUS
 10
126.2604601419
 20
112.3009442821
 11
104.2604601419
 21
112.3009442821
  0
LINE
  5
224
100
AcDbEntity
  8
0
100
AcDbLine
 62
7
  6
CONTINUOUS
 10
136.7604601419
 20
112.3009442821
 11
158.9733502992
 21
112.3009442821
  0
LINE
  5
225
100
AcDbEntity
  8
0
100
AcDbLine
 62
7
  6
CONTINUOUS
 10
168.8705270011
 20
112.3009442821
 11
173.5066563266
 21
112.3009442821
  0
LINE
  5
226
100
AcDbEntity
  8
0
100
AcDbLine
 62
7
  6
CONTINUOUS
 10
176.1559604123
 20
112.3009442821
 11
176.3604601419
 21
112.3009442821
  0
LINE
  5
227
100
AcDbEntity
  8
FASEN
100
AcDbLine
 62
7
  6
CONTINUOUS
 10
177.2604601419
 20
103.2009442821
 11
176.3604601419
 21
102.3009442821
  0
LINE
  5
228
100
AcDbEntity
  8
FASEN
100
AcDbLine
 62
7
  6
CONTINUOUS
 10
177.2604601419
 20
111.4009442821
 11
176.3604601419
 21
112.3009442821
  0
LINE
  5
229
100
AcDbEntity
  8
0
100
AcDbLine
 62
7
  6
CONTINUOUS
 10
176.3604601419
 20
102.3009442821
 11
176.3604601419
 21
102.4289816698
  0
LINE
  5
22A
100
AcDbEntity
  8
0
100
AcDbLine
 62
7
  6
CONTINUOUS
 10
176.3604601419
 20
104.5508331819
 11
176.3604601419
 21
110.7105709178
  0
LINE
  5
22B
100
AcDbEntity
  8
0
100
AcDbLine
 62
7
  6
CONTINUOUS
 10
176.3604601419
 20
112.2923055027
 11
176.3604601419
 21
112.3009442821
  0
LINE
  5
22C
100
AcDbEntity
  8
FASEN
100
AcDbLine
 62
7
  6
CONTINUOUS
 10
177.2604601419
 20
103.2009442821
 11
177.2604601419
 21
111.4009442821
  0
ARC
  5
22D
100
AcDbEntity
  8
0
100
AcDbCircle
 62
7
  6
CONTINUOUS
 10
134.7604601419
 20
94.4259442821
 40
8.125
100
AcDbArc
 50
75.7499673022
 51
90.0
  0
ARC
  5
22E
100
AcDbEntity
  8
0
100
AcDbCircle
 62
7
  6
CONTINUOUS
 10
134.7604601419
 20
120.1759442821
 40
8.125
100
AcDbArc
 50
270.0
 51
284.2500326978
  0
ARC
  5
22F
100
AcDbEntity
  8
BEZUGSACHSEN
100
AcDbCircle
 62
7
  6
CONTINUOUS
 10
161.5862062812
 20
109.8521074918
 40
2.448836975
100
AcDbArc
 50
90.022254612
 51
97.3329700721
  0
ARC
  5
230
100
AcDbEntity
  8
0
100
AcDbCircle
 62
7
  6
CONTINUOUS
 10
176.1557962649
 20
109.8681877895
 40
2.4327501077
100
AcDbArc
 50
85.1739607246
 51
89.9960437345
  0
SPLINE
  5
231
100
AcDbEntity
  8
0
100
AcDbSpline
 62
7
  6
CONTINUOUS
 70
0
 71
3
 72
14
 73
10
 74
0
 42
0.0000001
 43
0.0000001
 44
0.0000000001
 40
0.0
 40
0.0
 40
0.0
 40
0.0
 40
0.1423892337
 40
0.2786581466
 40
0.5341876471
 40
0.654914793
 40
0.7720419446
 40
0.886665539
 40
1.0
 40
1.0
 40
1.0
 40
1.0
 10
168.2999161506
 20
111.4344707893
 30
0.0
 10
168.2151814379
 20
111.5029904377
 30
0.0
 10
168.0457660557
 20
111.632790684
 30
0.0
 10
167.7065864347
 20
111.8612390292
 30
0.0
 10
167.3588652486
 20
112.0469080638
 30
0.0
 10
167.0047179725
 20
112.1792367927
 30
0.0
 10
166.7437349832
 20
112.2492492414
 30
0.0
 10
166.4825831379
 20
112.2915078461
 30
0.0
 10
166.3079818943
 20
112.3009590273
 30
0.0
 10
166.2212457601
 20
112.3009547367
 30
0.0
  0
SPLINE
  5
232
100
AcDbEntity
  8
BEZUGSACHSEN
100
AcDbSpline
 62
7
  6
CONTINUOUS
 70
0
 71
3
 72
14
 73
10
 74
0
 42
0.0000001
 43
0.0000001
 44
0.0000000001
 40
0.0
 40
0.0
 40
0.0
 40
0.0
 40
0.2785092678
 40
0.4089864358
 40
0.5342192401
 40
0.654939451
 40
0.7720606443
 40
0.8866717489
 40
1.0
 40
1.0
 40
1.0
 40
1.0
 10
163.1489888655
 20
103.167554753
 30
0.0
 10
163.3147485127
 20
103.0335048805
 30
0.0
 10
163.568673504
 20
102.8485808271
 30
0.0
 10
163.9231830136
 20
102.6441609502
 30
0.0
 10
164.1836028441
 20
102.5200761379
 30
0.0
 10
164.4442966622
 20
102.4226907005
 30
0.0
 10
164.7052790022
 20
102.3526248074
 30
0.0
 10
164.9664601923
 20
102.3103728316
 30
0.0
 10
165.1410741466
 20
102.3009442821
 30
0.0
 10
165.2278191751
 20
102.3009442821
 30
0.0
  0
SPLINE
  5
233
100
AcDbEntity
  8
BEZUGSACHSEN
100
AcDbSpline
 62
7
  6
CONTINUOUS
 70
0
 71
3
 72
11
 73
7
 74
0
 42
0.0000001
 43
0.0000001
 44
0.0000000001
 40
0.0
 40
0.0
 40
0.0
 40
0.0
 40
0.2879330941
 40
0.5493060765
 40
0.7860715788
 40
1.0
 40
1.0
 40
1.0
 40
1.0
 10
160.1237182358
 20
112.0122206639
 30
0.0
 10
160.2338882752
 20
112.0390824822
 30
0.0
 10
160.4431769723
 20
112.0939065786
 30
0.0
 10
160.7423894711
 20
112.1733638135
 30
0.0
 10
161.0152760842
 20
112.2382156266
 30
0.0
 10
161.1901434146
 20
112.2697187486
 30
0.0
 10
161.2736480933
 20
112.280915823
 30
0.0
  0
SPLINE
  5
234
100
AcDbEntity
  8
BEZUGSACHSEN
100
AcDbSpline
 62
7
  6
CONTINUOUS
 70
0
 71
3
 72
11
 73
7
 74
0
 42
0.0000001
 43
0.0000001
 44
0.0000000001
 40
0.0
 40
0.0
 40
0.0
 40
0.0
 40
0.2742898857
 40
0.5306180748
 40
0.7712759741
 40
1.0
 40
1.0
 40
1.0
 40
1.0
 10
161.0142481553
 20
111.4346756529
 30
0.0
 10
160.8841729838
 20
111.5398682765
 30
0.0
 10
160.6242018111
 20
111.7334778765
 30
0.0
 10
160.2193179962
 20
111.9748661473
 30
0.0
 10
159.813107954
 20
112.1537075624
 30
0.0
 10
159.5359558038
 20
112.2305453926
 30
0.0
 10
159.3989320485
 20
112.2566970747
 30
0.0
  0
SPLINE
  5
235
100
AcDbEntity
  8
0
100
AcDbSpline
 62
7
  6
CONTINUOUS
 70
0
 71
3
 72
11
 73
7
 74
0
 42
0.0000001
 43
0.0000001
 44
0.0000000001
 40
0.0
 40
0.0
 40
0.0
 40
0.0
 40
0.2640912759
 40
0.5164563877
 40
0.7604219884
 40
1.0
 40
1.0
 40
1.0
 40
1.0
 10
171.1885573246
 20
102.659082111
 30
0.0
 10
171.0809848561
 20
102.6016126635
 30
0.0
 10
170.8649765434
 20
102.499281823
 30
0.0
 10
170.531929557
 20
102.3853447075
 30
0.0
 10
170.1981967416
 20
102.3163926915
 30
0.0
 10
169.974601719
 20
102.3009244005
 30
0.0
 10
169.8639609569
 20
102.3009345538
 30
0.0
  0
SPLINE
  5
236
100
AcDbEntity
  8
0
100
AcDbSpline
 62
7
  6
CONTINUOUS
 70
0
 71
3
 72
11
 73
7
 74
0
 42
0.0000001
 43
0.0000001
 44
0.0000000001
 40
0.0
 40
0.0
 40
0.0
 40
0.0
 40
0.2395726806
 40
0.4835357351
 40
0.7358942154
 40
1.0
 40
1.0
 40
1.0
 40
1.0
 10
162.578528228
 20
102.3009499804
 30
0.0
 10
162.6891884981
 20
102.3009570188
 30
0.0
 10
162.9128272375
 20
102.31638077
 30
0.0
 10
163.2466101013
 20
102.3853979628
 30
0.0
 10
163.5797408045
 20
102.4993132018
 30
0.0
 10
163.7957678801
 20
102.6017296267
 30
0.0
 10
163.9033607762
 20
102.6592264533
 30
0.0
  0
SPLINE
  5
237
100
AcDbEntity
  8
BEZUGSACHSEN
100
AcDbSpline
 62
7
  6
CONTINUOUS
 70
0
 71
3
 72
9
 73
5
 74
0
 42
0.0000001
 43
0.0000001
 44
0.0000000001
 40
0.0
 40
0.0
 40
0.0
 40
0.0
 40
0.5252823367
 40
1.0
 40
1.0
 40
1.0
 40
1.0
 10
159.3989320485
 20
112.2566970747
 30
0.0
 10
159.3251624062
 20
112.2701900513
 30
0.0
 10
159.18391769
 20
112.2917936537
 30
0.0
 10
159.0411247556
 20
112.3009442821
 30
0.0
 10
158.9733502992
 20
112.3009442821
 30
0.0
  0
SPLINE
  5
238
100
AcDbEntity
  8
0
100
AcDbSpline
 62
7
  6
CONTINUOUS
 70
0
 71
3
 72
11
 73
7
 74
0
 42
0.0000001
 43
0.0000001
 44
0.0000000001
 40
0.0
 40
0.0
 40
0.0
 40
0.0
 40
0.2395776933
 40
0.4835470439
 40
0.7359040494
 40
1.0
 40
1.0
 40
1.0
 40
1.0
 10
176.1559642459
 20
112.3009378914
 30
0.0
 10
176.045328055
 20
112.3009354118
 30
0.0
 10
175.821735416
 20
112.2855285426
 30
0.0
 10
175.4880321738
 20
112.216506774
 30
0.0
 10
175.1549726727
 20
112.1026569658
 30
0.0
 10
174.9389869909
 20
112.0002976104
 30
0.0
 10
174.8314168509
 20
111.9428295741
 30
0.0
  0
SPLINE
  5
239
100
AcDbEntity
  8
0
100
AcDbSpline
 62
7
  6
CONTINUOUS
 70
0
 71
3
 72
14
 73
10
 74
0
 42
0.0000001
 43
0.0000001
 44
0.0000000001
 40
0.0
 40
0.0
 40
0.0
 40
0.0
 40
0.1133279009
 40
0.227944574
 40
0.3450691159
 40
0.4657852247
 40
0.591022699
 40
0.7215012665
 40
1.0
 40
1.0
 40
1.0
 40
1.0
 10
173.5066660153
 20
112.3009281628
 30
0.0
 10
173.5933952289
 20
112.3009272292
 30
0.0
 10
173.7679825741
 20
112.2915263546
 30
0.0
 10
174.0291268278
 20
112.2492895884
 30
0.0
 10
174.2900614135
 20
112.1792236029
 30
0.0
 10
174.5507281079
 20
112.0818993515
 30
0.0
 10
174.8110943099
 20
111.957815144
 30
0.0
 10
175.1655389031
 20
111.7534424242
 30
0.0
 10
175.4194630087
 20
111.5686229965
 30
0.0
 10
175.5851855172
 20
111.434600782
 30
0.0
  0
SPLINE
  5
23A
100
AcDbEntity
  8
BEZUGSACHSEN
100
AcDbSpline
 62
7
  6
CONTINUOUS
 70
0
 71
3
 72
11
 73
7
 74
0
 42
0.0000001
 43
0.0000001
 44
0.0000000001
 40
0.0
 40
0.0
 40
0.0
 40
0.0
 40
0.2395684794
 40
0.4835486338
 40
0.7359046093
 40
1.0
 40
1.0
 40
1.0
 40
1.0
 10
168.8705252499
 20
112.3009441873
 30
0.0
 10
168.7599071154
 20
112.3009447365
 30
0.0
 10
168.5363463453
 20
112.2854964163
 30
0.0
 10
168.20267006
 20
112.2165591733
 30
0.0
 10
167.8696570747
 20
112.1026869819
 30
0.0
 10
167.6536925723
 20
112.0003594674
 30
0.0
 10
167.5461321292
 20
111.9429061174
 30
0.0
  0
SPLINE
  5
23B
100
AcDbEntity
  8
0
100
AcDbSpline
 62
7
  6
CONTINUOUS
 70
0
 71
3
 72
14
 73
10
 74
0
 42
0.0000001
 43
0.0000001
 44
0.0000000001
 40
0.0
 40
0.0
 40
0.0
 40
0.0
 40
0.1133310919
 40
0.2279449317
 40
0.3450672222
 40
0.4657755503
 40
0.5910106035
 40
0.7214925495
 40
1.0
 40
1.0
 40
1.0
 40
1.0
 10
172.5132478774
 20
102.3009445268
 30
0.0
 10
172.4265089434
 20
102.3009449141
 30
0.0
 10
172.2519073144
 20
102.3103713434
 30
0.0
 10
171.9907457304
 20
102.3526157874
 30
0.0
 10
171.7297899349
 20
102.4226602393
 30
0.0
 10
171.4691349196
 20
102.5200550976
 30
0.0
 10
171.2087362858
 20
102.6441093391
 30
0.0
 10
170.8542397989
 20
102.8484824241
 30
0.0
 10
170.6003289234
 20
103.0333799994
 30
0.0
 10
170.4345822144
 20
103.1674113418
 30
0.0
  0
SPLINE
  5
23C
100
AcDbEntity
  8
0
100
AcDbSpline
 62
7
  6
CONTINUOUS
 70
0
 71
3
 72
26
 73
22
 74
0
 42
0.0000001
 43
0.0000001
 44
0.0000000001
 40
0.0
 40
0.0
 40
0.0
 40
0.0
 40
0.1122300182
 40
0.2297112149
 40
0.2904793336
 40
0.3525158968
 40
0.4156542548
 40
0.4796144233
 40
0.543989666
 40
0.608182765
 40
0.6712912145
 40
0.7021109375
 40
0.7322234932
 40
0.761497972
 40
0.7899280181
 40
0.817863566
 40
0.8463186107
 40
0.8771418123
 40
0.912478675
 40
0.9535190898
 40
1.0
 40
1.0
 40
1.0
 40
1.0
 10
176.3604601419
 20
112.2923055027
 30
0.0
 10
176.4134118172
 20
112.2304009266
 30
0.0
 10
176.5142752023
 20
112.097089474
 30
0.0
 10
176.621483434
 20
111.9149662567
 30
0.0
 10
176.6966214012
 20
111.7574749827
 30
0.0
 10
176.7473611489
 20
111.6323149715
 30
0.0
 10
176.7908607477
 20
111.5020035039
 30
0.0
 10
176.8258107333
 20
111.3673670678
 30
0.0
 10
176.8504907612
 20
111.2296505176
 30
0.0
 10
176.8626044033
 20
111.0908443429
 30
0.0
 10
176.8594141803
 20
110.9757062162
 30
0.0
 10
176.846014127
 20
110.886560188
 30
0.0
 10
176.829842954
 20
110.8229722144
 30
0.0
 10
176.8063677105
 20
110.7634737887
 30
0.0
 10
176.7740288136
 20
110.7099415908
 30
0.0
 10
176.7308899043
 20
110.6650961312
 30
0.0
 10
176.6750089932
 20
110.6332126094
 30
0.0
 10
176.6063762694
 20
110.6199906475
 30
0.0
 10
176.5281159899
 20
110.6291494109
 30
0.0
 10
176.4438798726
 20
110.6601313084
 30
0.0
 10
176.3886363205
 20
110.6920139142
 30
0.0
 10
176.3604601419
 20
110.7105709178
 30
0.0
  0
SPLINE
  5
23D
100
AcDbEntity
  8
BEZUGSACHSEN
100
AcDbSpline
 62
9
  6
CONTINUOUS
 70
0
 71
3
 72
35
 73
31
 74
0
 42
0.0000001
 43
0.0000001
 44
0.0000000001
 40
0.0
 40
0.0
 40
0.0
 40
0.0
 40
0.0444694959
 40
0.093085523
 40
0.1186859517
 40
0.145090837
 40
0.1723522845
 40
0.2005797689
 40
0.2297433148
 40
0.2596816516
 40
0.2903066835
 40
0.3215891139
 40
0.3535325887
 40
0.3861362626
 40
0.4193034716
 40
0.4529179565
 40
0.4869112405
 40
0.5212342237
 40
0.5558497606
 40
0.5906912396
 40
0.6256669245
 40
0.6607029716
 40
0.6957375617
 40
0.7307069115
 40
0.7655252217
 40
0.8001173198
 40
0.8344418606
 40
0.8684574612
 40
0.935309552
 40
1.0
 40
1.0
 40
1.0
 40
1.0
 10
161.2736480933
 20
105.1981439832
 30
0.0
 10
161.2417702323
 20
105.2029970118
 30
0.0
 10
161.1743414988
 20
105.2083688956
 30
0.0
 10
161.0881621927
 20
105.208255767
 30
0.0
 10
161.0154288734
 20
105.2019882179
 30
0.0
 10
160.9584795691
 20
105.1940417677
 30
0.0
 10
160.9001051793
 20
105.1830717553
 30
0.0
 10
160.8401071863
 20
105.170092699
 30
0.0
 10
160.7785315851
 20
105.1552766651
 30
0.0
 10
160.7158755761
 20
105.137681937
 30
0.0
 10
160.6525163585
 20
105.117109854
 30
0.0
 10
160.5886135035
 20
105.0936712916
 30
0.0
 10
160.5241094899
 20
105.0678185608
 30
0.0
 10
160.4587398449
 20
105.0404815185
 30
0.0
 10
160.392839401
 20
105.0112950668
 30
0.0
 10
160.3270118919
 20
104.9795405495
 30
0.0
 10
160.2615098559
 20
104.9452728628
 30
0.0
 10
160.1965021025
 20
104.9085860548
 30
0.0
 10
160.1316793124
 20
104.8703624758
 30
0.0
 10
160.0669162541
 20
104.8311120426
 30
0.0
 10
160.0028723889
 20
104.7901183938
 30
0.0
 10
159.939990028
 20
104.7471109848
 30
0.0
 10
159.8785388173
 20
104.7020899524
 30
0.0
 10
159.8185334003
 20
104.6554278788
 30
0.0
 10
159.7594363072
 20
104.6081401413
 30
0.0
 10
159.7014814357
 20
104.5601786461
 30
0.0
 10
159.6454902072
 20
104.5108061306
 30
0.0
 10
159.5742184488
 20
104.443463539
 30
0.0
 10
159.4916486292
 20
104.3562427713
 30
0.0
 10
159.4285767753
 20
104.2846285238
 30
0.0
 10
159.3989320484
 20
104.2482760157
 30
0.0
  0
SPLINE
  5
23E
100
AcDbEntity
  8
BEZUGSACHSEN
100
AcDbSpline
 62
7
  6
CONTINUOUS
 70
0
 71
3
 72
33
 73
29
 74
0
 42
0.0000001
 43
0.0000001
 44
0.0000000001
 40
0.0
 40
0.0
 40
0.0
 40
0.0
 40
0.0569579778
 40
0.1147487745
 40
0.1735034565
 40
0.2332860635
 40
0.2941140409
 40
0.3249353841
 40
0.3560192376
 40
0.387363732
 40
0.4189654847
 40
0.4508119112
 40
0.4668495357
 40
0.4829456061
 40
0.4990937708
 40
0.5152854525
 40
0.5315109027
 40
0.5477604395
 40
0.5802341204
 40
0.612755579
 40
0.6452945269
 40
0.6778320904
 40
0.7103565366
 40
0.7428564368
 40
0.8076976814
 40
0.8722806235
 40
0.9364431403
 40
1.0
 40
1.0
 40
1.0
 40
1.0
 10
159.3989320484
 20
104.2482760157
 30
0.0
 10
159.331987988
 20
104.3213313663
 30
0.0
 10
159.2026535558
 20
104.4736745338
 30
0.0
 10
159.0241833073
 20
104.7173969531
 30
0.0
 10
158.8611387873
 20
104.9775803645
 30
0.0
 10
158.7165483393
 20
105.254474633
 30
0.0
 10
158.6167538593
 20
105.4989163363
 30
0.0
 10
158.5548740174
 20
105.7034344512
 30
0.0
 10
158.5199004683
 20
105.8620438269
 30
0.0
 10
158.5001332351
 20
106.0247584968
 30
0.0
 10
158.5007507497
 20
106.1901783322
 30
0.0
 10
158.5245394719
 20
106.3274296378
 30
0.0
 10
158.5619676803
 20
106.4325300484
 30
0.0
 10
158.6003742377
 20
106.5075398312
 30
0.0
 10
158.649522552
 20
106.5763900388
 30
0.0
 10
158.7090444946
 20
106.6368613723
 30
0.0
 10
158.7776147937
 20
106.6871388995
 30
0.0
 10
158.8782842593
 20
106.7392994437
 30
0.0
 10
159.0164069349
 20
106.7766028265
 30
0.0
 10
159.1869452163
 20
106.783388378
 30
0.0
 10
159.3559356657
 20
106.7613247856
 30
0.0
 10
159.5202956273
 20
106.7171993334
 30
0.0
 10
159.6788821863
 20
106.6559908569
 30
0.0
 10
159.8819440104
 20
106.5564499361
 30
0.0
 10
160.120556464
 20
106.4051423227
 30
0.0
 10
160.3843532377
 20
106.1950736239
 30
0.0
 10
160.62824928
 20
105.9656563921
 30
0.0
 10
160.780024542
 20
105.8031920835
 30
0.0
 10
160.8533705344
 20
105.7204526278
 30
0.0
  0
SPLINE
  5
23F
100
AcDbEntity
  8
0
100
AcDbSpline
 62
7
  6
CONTINUOUS
 70
0
 71
3
 72
9
 73
5
 74
0
 42
0.0000001
 43
0.0000001
 44
0.0000000001
 40
0.0
 40
0.0
 40
0.0
 40
0.0
 40
0.4848617796
 40
1.0
 40
1.0
 40
1.0
 40
1.0
 10
175.5851855172
 20
111.434600782
 30
0.0
 10
175.7185648675
 20
111.3267349521
 30
0.0
 10
175.9845800985
 20
111.0929446273
 30
0.0
 10
176.2348674532
 20
110.8426191052
 30
0.0
 10
176.3604717284
 20
110.710565343
 30
0.0
  0
SPLINE
  5
240
100
AcDbEntity
  8
0
100
AcDbSpline
 62
7
  6
CONTINUOUS
 70
0
 71
3
 72
23
 73
19
 74
0
 42
0.0000001
 43
0.0000001
 44
0.0000000001
 40
0.0
 40
0.0
 40
0.0
 40
0.0
 40
0.1336079927
 40
0.2569421658
 40
0.3145679667
 40
0.3694593446
 40
0.4216889653
 40
0.4714803798
 40
0.5193089958
 40
0.5661117501
 40
0.6136796492
 40
0.6651167089
 40
0.7254206099
 40
0.7609857165
 40
0.8011564261
 40
0.8462188369
 40
0.895563084
 40
1.0
 40
1.0
 40
1.0
 40
1.0
 10
176.3604601419
 20
104.5508331819
 30
0.0
 10
176.410485369
 20
104.4569017956
 30
0.0
 10
176.5054144732
 20
104.2755819457
 30
0.0
 10
176.616744918
 20
104.0510574541
 30
0.0
 10
176.6947445196
 20
103.8801337088
 30
0.0
 10
176.7457589668
 20
103.7592042538
 30
0.0
 10
176.7896547114
 20
103.6421317029
 30
0.0
 10
176.8251094158
 20
103.5280660754
 30
0.0
 10
176.8503456087
 20
103.4156616211
 30
0.0
 10
176.8628071348
 20
103.3027713114
 30
0.0
 10
176.8582101099
 20
103.1861849418
 30
0.0
 10
176.8302229611
 20
103.0616477822
 30
0.0
 10
176.7829903141
 20
102.9535088966
 30
0.0
 10
176.7282736074
 20
102.8599088166
 30
0.0
 10
176.6738956703
 20
102.7804333667
 30
0.0
 10
176.6081424881
 20
102.6957103231
 30
0.0
 10
176.5049721848
 20
102.5754797797
 30
0.0
 10
176.4198266412
 20
102.4872535289
 30
0.0
 10
176.3604601419
 20
102.4289816698
 30
0.0
  0
SPLINE
  5
241
100
AcDbEntity
  8
BEZUGSACHSEN
100
AcDbSpline
 62
7
  6
CONTINUOUS
 70
0
 71
3
 72
15
 73
11
 74
0
 42
0.0000001
 43
0.0000001
 44
0.0000000001
 40
0.0
 40
0.0
 40
0.0
 40
0.0
 40
0.1038517567
 40
0.2104182904
 40
0.3220879743
 40
0.4406787801
 40
0.5674117294
 40
0.7029064232
 40
0.8472175072
 40
1.0
 40
1.0
 40
1.0
 40
1.0
 10
162.5785243031
 20
102.3009442821
 30
0.0
 10
162.445598743
 20
102.3009442821
 30
0.0
 10
162.1757792155
 20
102.3234147081
 30
0.0
 10
161.7742162554
 20
102.4233019024
 30
0.0
 10
161.3740775978
 20
102.5873625877
 30
0.0
 10
160.9754763354
 20
102.8127947974
 30
0.0
 10
160.5780209242
 20
103.0962057437
 30
0.0
 10
160.1811867163
 20
103.433572641
 30
0.0
 10
159.7849122485
 20
103.8207752469
 30
0.0
 10
159.5279706218
 20
104.1013383262
 30
0.0
 10
159.3989320484
 20
104.2482760157
 30
0.0
  0
SPLINE
  5
242
100
AcDbEntity
  8
BEZUGSACHSEN
100
AcDbSpline
 62
7
  6
CONTINUOUS
 70
0
 71
3
 72
32
 73
28
 74
0
 42
0.0000001
 43
0.0000001
 44
0.0000000001
 40
0.0
 40
0.0
 40
0.0
 40
0.0
 40
0.0212851806
 40
0.0428413587
 40
0.0649276753
 40
0.0877723134
 40
0.1115588971
 40
0.1364330441
 40
0.162492613
 40
0.1897964168
 40
0.2183671983
 40
0.2481934854
 40
0.2792363316
 40
0.3114313836
 40
0.3446936446
 40
0.3789209584
 40
0.4497849884
 40
0.5229517486
 40
0.5972217049
 40
0.6713385743
 40
0.7440540253
 40
0.8141919694
 40
0.8807170172
 40
0.9123629158
 40
0.9428230622
 40
0.9720443079
 40
1.0
 40
1.0
 40
1.0
 40
1.0
 10
169.8639676583
 20
102.3009442821
 30
0.0
 10
169.7716242896
 20
102.3009442821
 30
0.0
 10
169.5855912509
 20
102.3116411631
 30
0.0
 10
169.3074578061
 20
102.3595498496
 30
0.0
 10
169.0296048404
 20
102.4389459237
 30
0.0
 10
168.7521180282
 20
102.5491539237
 30
0.0
 10
168.474997647
 20
102.6894159396
 30
0.0
 10
168.1981772715
 20
102.8586849382
 30
0.0
 10
167.9216178055
 20
103.0558920608
 30
0.0
 10
167.6452630354
 20
103.279761962
 30
0.0
 10
167.3690305897
 20
103.5288487499
 30
0.0
 10
167.0929069035
 20
103.8016260486
 30
0.0
 10
166.8168269207
 20
104.0963492173
 30
0.0
 10
166.5408000247
 20
104.4112058372
 30
0.0
 10
166.2648197142
 20
104.7442306401
 30
0.0
 10
165.8925319211
 20
105.2151134761
 30
0.0
 10
165.43030828
 20
105.8353064927
 30
0.0
 10
164.8818904269
 20
106.6074720732
 30
0.0
 10
164.3334529134
 20
107.3968380619
 30
0.0
 10
163.7850205937
 20
108.183821571
 30
0.0
 10
163.2365888111
 20
108.9489283322
 30
0.0
 10
162.6880903235
 20
109.6731717788
 30
0.0
 10
162.2234672985
 20
110.2369357698
 30
0.0
 10
161.8491876631
 20
110.650991974
 30
0.0
 10
161.5730727705
 20
110.9352925017
 30
0.0
 10
161.2969035284
 20
111.1967793867
 30
0.0
 10
161.1085521472
 20
111.3584114111
 30
0.0
 10
161.0142481553
 20
111.4346756529
 30
0.0
  0
SPLINE
  5
243
100
AcDbEntity
  8
BEZUGSACHSEN
100
AcDbSpline
 62
7
  6
CONTINUOUS
 70
0
 71
3
 72
11
 73
7
 74
0
 42
0.0000001
 43
0.0000001
 44
0.0000000001
 40
0.0
 40
0.0
 40
0.0
 40
0.0
 40
0.2722120024
 40
0.5308283587
 40
0.7738248002
 40
1.0
 40
1.0
 40
1.0
 40
1.0
 10
161.2736480933
 20
105.1981439832
 30
0.0
 10
161.4266126925
 20
104.9987206965
 30
0.0
 10
161.7307295239
 20
104.6142343215
 30
0.0
 10
162.1967880774
 20
104.0723286648
 30
0.0
 10
162.6632897686
 20
103.5881142021
 30
0.0
 10
162.9866141522
 20
103.2988672286
 30
0.0
 10
163.1489888655
 20
103.167554753
 30
0.0
  0
SPLINE
  5
244
100
AcDbEntity
  8
BEZUGSACHSEN
100
AcDbSpline
 62
7
  6
CONTINUOUS
 70
0
 71
3
 72
26
 73
22
 74
0
 42
0.0000001
 43
0.0000001
 44
0.0000000001
 40
0.0
 40
0.0
 40
0.0
 40
0.0
 40
0.0676797971
 40
0.138154652
 40
0.2106588396
 40
0.2843468293
 40
0.3583299166
 40
0.43170872
 40
0.5036057447
 40
0.5731987672
 40
0.6397569863
 40
0.7026795316
 40
0.7615428287
 40
0.7893896922
 40
0.816172402
 40
0.8666410967
 40
0.9134326949
 40
0.935730637
 40
0.9574742129
 40
0.9788348299
 40
1.0
 40
1.0
 40
1.0
 40
1.0
 10
176.3604601419
 20
104.5508331819
 30
0.0
 10
176.2005964213
 20
104.7427526486
 30
0.0
 10
175.8828929974
 20
105.1417292042
 30
0.0
 10
175.4176329685
 20
105.7646894587
 30
0.0
 10
174.9523194394
 20
106.4150342772
 30
0.0
 10
174.4870416774
 20
107.0812224919
 30
0.0
 10
174.0217942961
 20
107.7513589485
 30
0.0
 10
173.5564834353
 20
108.4134036476
 30
0.0
 10
173.0912007084
 20
109.0556071718
 30
0.0
 10
172.625902023
 20
109.6665150121
 30
0.0
 10
172.1604615922
 20
110.2352516075
 30
0.0
 10
171.6948315507
 20
110.7517770538
 30
0.0
 10
171.2993974109
 20
111.1380614978
 30
0.0
 10
170.9816247896
 20
111.4111596249
 30
0.0
 10
170.6756975007
 20
111.6497890894
 30
0.0
 10
170.2928239412
 20
111.9027230674
 30
0.0
 10
169.8937130404
 20
112.0951391822
 30
0.0
 10
169.5756744731
 20
112.2022723973
 30
0.0
 10
169.3407365548
 20
112.2590931321
 30
0.0
 10
169.1056871557
 20
112.2933133303
 30
0.0
 10
168.9486373718
 20
112.3009437994
 30
0.0
 10
168.8705252499
 20
112.3009441873
 30
0.0
  0
SPLINE
  5
245
100
AcDbEntity
  8
BEZUGSACHSEN
100
AcDbSpline
 62
9
  6
CONTINUOUS
 70
0
 71
3
 72
15
 73
11
 74
0
 42
0.0000001
 43
0.0000001
 44
0.0000000001
 40
0.0
 40
0.0
 40
0.0
 40
0.0
 40
0.1303476166
 40
0.2595973942
 40
0.3870003965
 40
0.512077869
 40
0.636037715
 40
0.7589629346
 40
0.8799496799
 40
1.0
 40
1.0
 40
1.0
 40
1.0
 10
161.2736480933
 20
112.280915823
 30
0.0
 10
161.2477850809
 20
112.2493650159
 30
0.0
 10
161.1937787191
 20
112.1884977523
 30
0.0
 10
161.1051875414
 20
112.1056643363
 30
0.0
 10
161.011288084
 20
112.0315844103
 30
0.0
 10
160.9129252874
 20
111.9664424101
 30
0.0
 10
160.8099592525
 20
111.9117195322
 30
0.0
 10
160.7034412524
 20
111.8675715794
 30
0.0
 10
160.5944881643
 20
111.8337739012
 30
0.0
 10
160.5204296622
 20
111.8186233672
 30
0.0
 10
160.4832834243
 20
111.8129727194
 30
0.0
  0
SPLINE
  5
246
100
AcDbEntity
  8
0
100
AcDbSpline
 62
7
  6
CONTINUOUS
 70
0
 71
3
 72
30
 73
26
 74
0
 42
0.0000001
 43
0.0000001
 44
0.0000000001
 40
0.0
 40
0.0
 40
0.0
 40
0.0
 40
0.0279580291
 40
0.0571803583
 40
0.1192793499
 40
0.1858070892
 40
0.2559472078
 40
0.3286644577
 40
0.4027828115
 40
0.4770538936
 40
0.5502215769
 40
0.6210864041
 40
0.6885722827
 40
0.7207674623
 40
0.7518105159
 40
0.781637364
 40
0.8102084306
 40
0.8375128996
 40
0.8635722819
 40
0.8884471072
 40
0.9122355038
 40
0.9350795979
 40
0.9571618227
 40
0.9787138985
 40
1.0
 40
1.0
 40
1.0
 40
1.0
 10
170.4345822144
 20
103.1674113418
 30
0.0
 10
170.3402725383
 20
103.2436750129
 30
0.0
 10
170.1519103195
 20
103.405300685
 30
0.0
 10
169.7761079643
 20
103.7612391597
 30
0.0
 10
169.3094213703
 20
104.263288115
 30
0.0
 10
168.7607881407
 20
104.9289166296
 30
0.0
 10
168.2123027287
 20
105.6531945512
 30
0.0
 10
167.6638881089
 20
106.418271591
 30
0.0
 10
167.115493439
 20
107.2052510668
 30
0.0
 10
166.5670557525
 20
107.9945705476
 30
0.0
 10
166.0186758415
 20
108.7667396732
 30
0.0
 10
165.4701999741
 20
109.5025200331
 30
0.0
 10
165.0060576959
 20
110.0790721612
 30
0.0
 10
164.6321863623
 20
110.5055937209
 30
0.0
 10
164.3561212119
 20
110.8003100078
 30
0.0
 10
164.0799930521
 20
111.0730609336
 30
0.0
 10
163.8037788671
 20
111.3221502463
 30
0.0
 10
163.5274223418
 20
111.5459947344
 30
0.0
 10
163.2508852592
 20
111.7432118356
 30
0.0
 10
162.9740671483
 20
111.9124744798
 30
0.0
 10
162.6969432757
 20
112.0527131162
 30
0.0
 10
162.4194880342
 20
112.1629234292
 30
0.0
 10
162.1416951509
 20
112.2423387624
 30
0.0
 10
161.8636082703
 20
112.2902545322
 30
0.0
 10
161.6775978496
 20
112.3009442821
 30
0.0
 10
161.5852551132
 20
112.3009442821
 30
0.0
  0
SPLINE
  5
247
100
AcDbEntity
  8
0
100
AcDbSpline
 62
7
  6
CONTINUOUS
 70
0
 71
3
 72
25
 73
21
 74
0
 42
0.0000001
 43
0.0000001
 44
0.0000000001
 40
0.0
 40
0.0
 40
0.0
 40
0.0
 40
0.0220181096
 40
0.0448354094
 40
0.0685767821
 40
0.0933347082
 40
0.1191732454
 40
0.1461227013
 40
0.2033536036
 40
0.2648479451
 40
0.3301220509
 40
0.3984789388
 40
0.4690723226
 40
0.6131204814
 40
0.6845565265
 40
0.7542786327
 40
0.8213758736
 40
0.8850613634
 40
0.944725931
 40
1.0
 40
1.0
 40
1.0
 40
1.0
 10
176.3604712019
 20
102.4289990455
 30
0.0
 10
176.2751844571
 20
102.4565631189
 30
0.0
 10
176.1040499425
 20
102.5208113258
 30
0.0
 10
175.8516723532
 20
102.6407819458
 30
0.0
 10
175.5995011757
 20
102.785140321
 30
0.0
 10
175.3475114464
 20
102.9530641808
 30
0.0
 10
175.0957036827
 20
103.1437142842
 30
0.0
 10
174.7532237543
 20
103.4325717645
 30
0.0
 10
174.3272669532
 20
103.8461912998
 30
0.0
 10
173.8265912677
 20
104.403797495
 30
0.0
 10
173.32619775
 20
105.0209890371
 30
0.0
 10
172.8259104611
 20
105.685094743
 30
0.0
 10
172.1544399717
 20
106.6212655411
 30
0.0
 10
171.4937459916
 20
107.5802964248
 30
0.0
 10
170.824921217
 20
108.5293244579
 30
0.0
 10
170.3246704047
 20
109.2138415864
 30
0.0
 10
169.8243563074
 20
109.8589244444
 30
0.0
 10
169.3238395999
 20
110.4514026595
 30
0.0
 10
168.8229596907
 20
110.9791558933
 30
0.0
 10
168.4748777849
 20
111.2929902875
 30
0.0
 10
168.2999161506
 20
111.4344707893
 30
0.0
  0
SPLINE
  5
248
100
AcDbEntity
  8
BEZUGSACHSEN
100
AcDbSpline
 62
7
  6
CONTINUOUS
 70
0
 71
3
 72
9
 73
5
 74
0
 42
0.0000001
 43
0.0000001
 44
0.0000000001
 40
0.0
 40
0.0
 40
0.0
 40
0.0
 40
0.5043704697
 40
1.0
 40
1.0
 40
1.0
 40
1.0
 10
160.8533705344
 20
105.7204526278
 30
0.0
 10
160.9281564079
 20
105.6360888845
 30
0.0
 10
161.0719938851
 20
105.4648559437
 30
0.0
 10
161.2080365016
 20
105.2874107745
 30
0.0
 10
161.2736480933
 20
105.1981439832
 30
0.0
  0
ENDSEC
  0
SECTION
  2
OBJECTS
  0
DICTIONARY
  5
C
100
AcDbDictionary
280
0
281
1
  3
ACAD_GROUP
350
D
  3
ACAD_MLINESTYLE
350
17
  3
ACAD_LAYOUT
350
1A
  3
ACAD_PLOTSETTINGS
350
19
  3
ACAD_PLOTSTYLENAME
350
E
  0
DICTIONARY
  5
D
102
{ACAD_REACTORS
330
C
102
}
100
AcDbDictionary
280
0
281
1
  0
ACDBDICTIONARYWDFLT
  5
E
102
{ACAD_REACTORS
330
C
102
}
100
AcDbDictionary
281
1
  3
Normal
350
F
100
AcDbDictionaryWithDefault
340
F
  0
DICTIONARY
  5
17
102
{ACAD_REACTORS
330
C
102
}
100
AcDbDictionary
280
0
281
1
  3
Standard
350
18
  0
DICTIONARY
  5
19
102
{ACAD_REACTORS
330
C
102
}
100
AcDbDictionary
281
1
  0
DICTIONARY
  5
1A
102
{ACAD_REACTORS
330
C
102
}
100
AcDbDictionary
281
1
  3
Model
350
249
  3
Layout1
350
24A
  0
ACDBPLACEHOLDER
  5
F
102
{ACAD_REACTORS
330
E
102
}
  0
MLINESTYLE
  5
18
102
{ACAD_REACTORS
330
17
102
}
100
AcDbMlineStyle
  2
STANDARD
 70
0
  3

 62
256
 51
90.0
 52
90.0
 71
2
 49
0.5
 62
256
  6
BYLAYER
 49
-0.5
 62
256
  6
BYLAYER
  0
LAYOUT
  5
249
102
{ACAD_REACTORS
330
1A
102
}
100
AcDbPlotSettings
  1

  2
none_device
  4
ISO_A4_(297.00_x_210.00_MM)
  6

 40
0.0
 41
0.0
 42
0.0
 43
0.0
 44
297.0
 45
210.0
 46
0.0
 47
0.0
 48
0.0
 49
0.0
140
0.0
141
0.0
142
1.0
143
1.0
 70
1024
 72
1
 73
0
 74
0
  7

 75
0
147
1.0
148
0.0
149
0.0
100
AcDbLayout
  1
Model
 70
0
 71
0
 10
0.0
 20
0.0
 11
297.0
 21
210.0
 12
0.0
 22
0.0
 32
0.0
 14
0.0
 24
0.0
 34
0.0
 15
0.0
 25
0.0
 35
0.0
146
0.0
 13
0.0
 23
0.0
 33
0.0
 16
1.0
 26
0.0
 36
0.0
 17
0.0
 27
1.0
 37
0.0
 76
0
330
211
345
0
346
0
  0
LAYOUT
  5
24A
102
{ACAD_REACTORS
330
1A
102
}
100
AcDbPlotSettings
  1

  2
none_device
  4
ISO_A4_(297.00_x_210.00_MM)
  6

 40
0.0
 41
0.0
 42
0.0
 43
0.0
 44
297.0
 45
210.0
 46
0.0
 47
0.0
 48
0.0
 49
0.0
140
0.0
141
0.0
142
1.0
143
1.0
 70
0
 72
1
 73
0
 74
0
  7

 75
0
147
1.0
148
0.0
149
0.0
100
AcDbLayout
  1
Layout1
 70
0
 71
1
 10
0.0
 20
0.0
 11
297.0
 21
210.0
 12
0.0
 22
0.0
 32
0.0
 14
0.0
 24
0.0
 34
0.0
 15
0.0
 25
0.0
 35
0.0
146
0.0
 13
0.0
 23
0.0
 33
0.0
 16
1.0
 26
0.0
 36
0.0
 17
0.0
 27
1.0
 37
0.0
 76
0
330
212
345
0
346
0
  0
ENDSEC
  0
EOF
